ISO-10303-21;
HEADER;
FILE_DESCRIPTION (( 'STEP AP214' ),
    '1' );
FILE_NAME ('Micro_DCM-025.STEP',
    '2021-08-31T17:23:21',
    ( '' ),
    ( '' ),
    'SwSTEP 2.0',
    'SolidWorks 2020',
    '' );
FILE_SCHEMA (( 'AUTOMOTIVE_DESIGN' ));
ENDSEC;

DATA;
#1 = AXIS2_PLACEMENT_3D ( 'NONE', #83, #393, #117 ) ;
#2 = CARTESIAN_POINT ( 'NONE',  ( 4.932502050404390618E-15, 0.0000000000000000000, -37.59842474015748337 ) ) ;
#3 = CARTESIAN_POINT ( 'NONE',  ( 0.04921250000000002706, 0.0000000000000000000, 1.620037146786106330 ) ) ;
#4 = CARTESIAN_POINT ( 'NONE',  ( -0.04921249999999999236, 6.026793060303913109E-18, 0.1516168532138936487 ) ) ;
#5 = CARTESIAN_POINT ( 'NONE',  ( 0.1240155000000000007, 1.518751851196585946E-17, 1.490474550227532058 ) ) ;
#6 = EDGE_CURVE ( 'NONE', #242, #245, #78, .T. ) ;
#7 = DIRECTION ( 'NONE',  ( -0.8571673007021136659, -1.049727191138620298E-16, -0.5150380749100519351 ) ) ;
#8 = ORIENTED_EDGE ( 'NONE', *, *, #157, .T. ) ;
#9 = AXIS2_PLACEMENT_3D ( 'NONE', #10, #324, #164 ) ;
#10 = CARTESIAN_POINT ( 'NONE',  ( 0.0000000000000000000, 0.0000000000000000000, 1.771654000000000062 ) ) ;
#11 = VERTEX_POINT ( 'NONE', #294 ) ;
#12 = CARTESIAN_POINT ( 'NONE',  ( 0.0000000000000000000, 0.0000000000000000000, 0.0000000000000000000 ) ) ;
#13 = CONICAL_SURFACE ( 'NONE', #45, 0.04921250000000001318, 0.5235987755983001479 ) ;
#14 = ORIENTED_EDGE ( 'NONE', *, *, #193, .F. ) ;
#15 = DIRECTION ( 'NONE',  ( -1.000000000000000000, 0.0000000000000000000, 0.0000000000000000000 ) ) ;
#16 = EDGE_CURVE ( 'NONE', #124, #388, #292, .T. ) ;
#17 = CARTESIAN_POINT ( 'NONE',  ( 1.899540115957615277E-17, 0.0000000000000000000, 1.620037146786106330 ) ) ;
#18 = DIRECTION ( 'NONE',  ( -1.000000000000000000, 0.0000000000000000000, 8.673634727153487207E-17 ) ) ;
#19 = AXIS2_PLACEMENT_3D ( 'NONE', #74, #351, #18 ) ;
#20 = VERTEX_POINT ( 'NONE', #75 ) ;
#21 = CARTESIAN_POINT ( 'NONE',  ( 0.0000000000000000000, 0.0000000000000000000, 1.771654000000000062 ) ) ;
#22 = DIRECTION ( 'NONE',  ( -1.000000000000000000, 0.0000000000000000000, 0.0000000000000000000 ) ) ;
#23 = FILL_AREA_STYLE_COLOUR ( '', #166 ) ;
#24 = DIRECTION ( 'NONE',  ( -1.000000000000000000, 0.0000000000000000000, 0.0000000000000000000 ) ) ;
#25 = DIMENSIONAL_EXPONENTS ( 1.000000000000000000, 0.0000000000000000000, 0.0000000000000000000, 0.0000000000000000000, 0.0000000000000000000, 0.0000000000000000000, 0.0000000000000000000 ) ;
#26 = LENGTH_MEASURE_WITH_UNIT ( LENGTH_MEASURE( 0.02539999999999999897 ), #361 );
#27 = ADVANCED_FACE ( 'NONE', ( #77 ), #34, .T. ) ;
#28 = CONICAL_SURFACE ( 'NONE', #148, 0.04921250000000001318, 0.5235987755983001479 ) ;
#29 = ORIENTED_EDGE ( 'NONE', *, *, #262, .T. ) ;
#30 = AXIS2_PLACEMENT_3D ( 'NONE', #95, #317, #251 ) ;
#31 = DIRECTION ( 'NONE',  ( -0.5000000000000009992, 6.123233995736779594E-17, 0.8660254037844380415 ) ) ;
#32 = DIRECTION ( 'NONE',  ( -0.5000000000000009992, -6.123233995736779594E-17, -0.8660254037844380415 ) ) ;
#33 = CARTESIAN_POINT ( 'NONE',  ( 1.899540115957615277E-17, 0.0000000000000000000, 1.620037146786106330 ) ) ;
#34 = CONICAL_SURFACE ( 'NONE', #197, 65.52281426576882950, 1.029744258676657198 ) ;
#35 = SURFACE_STYLE_USAGE ( .BOTH. , #187 ) ;
#36 = UNCERTAINTY_MEASURE_WITH_UNIT (LENGTH_MEASURE( 1.000000000000000082E-05 ), #301, 'distance_accuracy_value', 'NONE');
#37 = ORIENTED_EDGE ( 'NONE', *, *, #211, .F. ) ;
#38 = DIRECTION ( 'NONE',  ( 0.8571673007021137769, 0.0000000000000000000, 0.5150380749100517130 ) ) ;
#39 = ORIENTED_EDGE ( 'NONE', *, *, #243, .T. ) ;
#40 = ORIENTED_EDGE ( 'NONE', *, *, #392, .T. ) ;
#41 = CONICAL_SURFACE ( 'NONE', #128, 0.04921250000000001318, 0.5235987755983001479 ) ;
#42 = DIRECTION ( 'NONE',  ( -1.252855520802715154E-16, -0.0000000000000000000, 1.000000000000000000 ) ) ;
#43 = VERTEX_POINT ( 'NONE', #229 ) ;
#44 = EDGE_CURVE ( 'NONE', #245, #124, #235, .T. ) ;
#45 = AXIS2_PLACEMENT_3D ( 'NONE', #305, #217, #280 ) ;
#46 = ORIENTED_EDGE ( 'NONE', *, *, #44, .F. ) ;
#47 = FACE_OUTER_BOUND ( 'NONE', #64, .T. ) ;
#48 = DIRECTION ( 'NONE',  ( -1.000000000000000000, 0.0000000000000000000, 1.252855520802715154E-16 ) ) ;
#49 = LENGTH_MEASURE_WITH_UNIT ( LENGTH_MEASURE( 0.02539999999999999897 ), #263 );
#50 = DIRECTION ( 'NONE',  ( -1.000000000000000000, 0.0000000000000000000, 0.0000000000000000000 ) ) ;
#51 = DIRECTION ( 'NONE',  ( -0.0000000000000000000, -0.0000000000000000000, -1.000000000000000000 ) ) ;
#52 = APPLICATION_PROTOCOL_DEFINITION ( 'draft international standard', 'automotive_design', 1998, #329 ) ;
#53 = PRESENTATION_LAYER_ASSIGNMENT (  '', '', ( #222 ) ) ;
#54 = PRODUCT_DEFINITION ( 'UNKNOWN', '', #241, #151 ) ;
#55 = CARTESIAN_POINT ( 'NONE',  ( 0.04921250000000002012, 0.0000000000000000000, 0.02956985321389363208 ) ) ;
#56 = LINE ( 'NONE', #345, #288 ) ;
#57 = EDGE_CURVE ( 'NONE', #245, #242, #231, .T. ) ;
#58 = CIRCLE ( 'NONE', #272, 0.04921250000000001318 ) ;
#59 = DIRECTION ( 'NONE',  ( -1.252855520802715154E-16, -0.0000000000000000000, -1.000000000000000000 ) ) ;
#60 = CARTESIAN_POINT ( 'NONE',  ( -0.1240154999999999313, 0.0000000000000000000, 1.490474550227532058 ) ) ;
#61 = AXIS2_PLACEMENT_3D ( 'NONE', #97, #155, #180 ) ;
#62 = ADVANCED_FACE ( 'NONE', ( #384 ), #333, .T. ) ;
#63 = FILL_AREA_STYLE ('',( #213 ) ) ;
#64 = EDGE_LOOP ( 'NONE', ( #69, #98, #350, #273 ) ) ;
#65 = CYLINDRICAL_SURFACE ( 'NONE', #191, 0.04921250000000001318 ) ;
#66 = ORIENTED_EDGE ( 'NONE', *, *, #193, .T. ) ;
#67 = DIRECTION ( 'NONE',  ( 1.000000000000000000, 0.0000000000000000000, -1.334178587669835812E-16 ) ) ;
#68 = DIRECTION ( 'NONE',  ( -1.252855520802715154E-16, -0.0000000000000000000, 1.000000000000000000 ) ) ;
#69 = ORIENTED_EDGE ( 'NONE', *, *, #287, .F. ) ;
#70 = EDGE_CURVE ( 'NONE', #103, #20, #367, .T. ) ;
#71 = FACE_OUTER_BOUND ( 'NONE', #283, .T. ) ;
#72 = EDGE_LOOP ( 'NONE', ( #397, #161, #214, #154 ) ) ;
#73 = AXIS2_PLACEMENT_3D ( 'NONE', #33, #92, #212 ) ;
#74 = CARTESIAN_POINT ( 'NONE',  ( 3.704675384835255359E-18, 0.0000000000000000000, 0.02956985321389363902 ) ) ;
#75 = CARTESIAN_POINT ( 'NONE',  ( -0.04921250000000000624, 6.026793060303913109E-18, 0.02956985321389364596 ) ) ;
#76 = LINE ( 'NONE', #109, #172 ) ;
#77 = FACE_OUTER_BOUND ( 'NONE', #186, .T. ) ;
#78 = CIRCLE ( 'NONE', #232, 0.1240154999999999730 ) ;
#79 =( NAMED_UNIT ( * ) PLANE_ANGLE_UNIT ( ) SI_UNIT ( $, .RADIAN. ) );
#80 = CARTESIAN_POINT ( 'NONE',  ( 3.704675384835255359E-18, 0.0000000000000000000, 0.02956985321389363902 ) ) ;
#81 = DIMENSIONAL_EXPONENTS ( 1.000000000000000000, 0.0000000000000000000, 0.0000000000000000000, 0.0000000000000000000, 0.0000000000000000000, 0.0000000000000000000, 0.0000000000000000000 ) ;
#82 = VECTOR ( 'NONE', #32, 39.37007874015748143 ) ;
#83 = CARTESIAN_POINT ( 'NONE',  ( 0.0000000000000000000, 0.0000000000000000000, 0.0000000000000000000 ) ) ;
#84 = ADVANCED_FACE ( 'NONE', ( #336 ), #153, .T. ) ;
#85 = SURFACE_STYLE_USAGE ( .BOTH. , #299 ) ;
#86 =( NAMED_UNIT ( * ) PLANE_ANGLE_UNIT ( ) SI_UNIT ( $, .RADIAN. ) );
#87 = CARTESIAN_POINT ( 'NONE',  ( 0.1240155000000000007, 1.518751851196585946E-17, 1.771654000000000062 ) ) ;
#88 = ORIENTED_EDGE ( 'NONE', *, *, #243, .F. ) ;
#89 = EDGE_CURVE ( 'NONE', #11, #326, #204, .T. ) ;
#90 = CARTESIAN_POINT ( 'NONE',  ( 0.04921250000000002706, 6.026793060303913879E-18, 0.1516168532138936487 ) ) ;
#91 = CIRCLE ( 'NONE', #19, 0.04921250000000001318 ) ;
#92 = DIRECTION ( 'NONE',  ( 1.252855520802715154E-16, 0.0000000000000000000, -1.000000000000000000 ) ) ;
#93 = EDGE_CURVE ( 'NONE', #43, #343, #386, .T. ) ;
#94 = PRODUCT_DEFINITION_SHAPE ( 'NONE', 'NONE',  #54 ) ;
#95 = CARTESIAN_POINT ( 'NONE',  ( 1.899540115957615277E-17, 0.0000000000000000000, 0.1516168532138936487 ) ) ;
#96 = VERTEX_POINT ( 'NONE', #205 ) ;
#97 = CARTESIAN_POINT ( 'NONE',  ( 4.932502050404390618E-15, 0.0000000000000000000, 39.37007874015748143 ) ) ;
#98 = ORIENTED_EDGE ( 'NONE', *, *, #89, .F. ) ;
#99 = AXIS2_PLACEMENT_3D ( 'NONE', #355, #135, #67 ) ;
#100 = LINE ( 'NONE', #282, #131 ) ;
#101 = ORIENTED_EDGE ( 'NONE', *, *, #287, .T. ) ;
#102 = DIRECTION ( 'NONE',  ( 0.5000000000000012212, 0.0000000000000000000, 0.8660254037844379305 ) ) ;
#103 = VERTEX_POINT ( 'NONE', #55 ) ;
#104 = MECHANICAL_DESIGN_GEOMETRIC_PRESENTATION_REPRESENTATION (  '', ( #395 ), #327 ) ;
#105 = DIRECTION ( 'NONE',  ( -1.000000000000000000, 0.0000000000000000000, 0.0000000000000000000 ) ) ;
#106 = ORIENTED_EDGE ( 'NONE', *, *, #57, .F. ) ;
#107 = CARTESIAN_POINT ( 'NONE',  ( 1.899540115957615277E-17, 0.0000000000000000000, 1.620037146786106330 ) ) ;
#108 = ORIENTED_EDGE ( 'NONE', *, *, #6, .T. ) ;
#109 = CARTESIAN_POINT ( 'NONE',  ( -0.04921250000000001318, 0.0000000000000000000, 6.165615231750363574E-18 ) ) ;
#110 = DIRECTION ( 'NONE',  ( -1.252855520802715154E-16, -0.0000000000000000000, -1.000000000000000000 ) ) ;
#111 = FACE_OUTER_BOUND ( 'NONE', #138, .T. ) ;
#112 = DIRECTION ( 'NONE',  ( -1.000000000000000000, 0.0000000000000000000, 0.0000000000000000000 ) ) ;
#113 = CIRCLE ( 'NONE', #369, 0.1240154999999999730 ) ;
#114 = AXIS2_PLACEMENT_3D ( 'NONE', #80, #206, #165 ) ;
#115 = EDGE_CURVE ( 'NONE', #326, #11, #338, .T. ) ;
#116 = SHAPE_DEFINITION_REPRESENTATION ( #94, #258 ) ;
#117 = DIRECTION ( 'NONE',  ( 1.000000000000000000, 0.0000000000000000000, 0.0000000000000000000 ) ) ;
#118 = CARTESIAN_POINT ( 'NONE',  ( 3.522772259837061432E-17, 0.0000000000000000000, 0.2811794497724678932 ) ) ;
#119 = DIRECTION ( 'NONE',  ( 1.252855520802715154E-16, 0.0000000000000000000, -1.000000000000000000 ) ) ;
#120 = FACE_OUTER_BOUND ( 'NONE', #325, .T. ) ;
#121 = DIRECTION ( 'NONE',  ( 0.5000000000000012212, 0.0000000000000000000, -0.8660254037844379305 ) ) ;
#122 = DIRECTION ( 'NONE',  ( -1.000000000000000000, 0.0000000000000000000, 0.0000000000000000000 ) ) ;
#123 = ADVANCED_FACE ( 'NONE', ( #378 ), #28, .T. ) ;
#124 = VERTEX_POINT ( 'NONE', #244 ) ;
#125 = PRESENTATION_STYLE_ASSIGNMENT (( #35 ) ) ;
#126 = ORIENTED_EDGE ( 'NONE', *, *, #330, .F. ) ;
#127 = CARTESIAN_POINT ( 'NONE',  ( -0.04921249999999999236, -6.026793060303913109E-18, 1.620037146786106330 ) ) ;
#128 = AXIS2_PLACEMENT_3D ( 'NONE', #107, #249, #357 ) ;
#129 = CARTESIAN_POINT ( 'NONE',  ( 0.04921250000000002706, -6.026793060303913879E-18, 1.620037146786106330 ) ) ;
#130 = ORIENTED_EDGE ( 'NONE', *, *, #170, .T. ) ;
#131 = VECTOR ( 'NONE', #7, 39.37007874015748854 ) ;
#132 = AXIS2_PLACEMENT_3D ( 'NONE', #168, #169, #22 ) ;
#133 = CARTESIAN_POINT ( 'NONE',  ( 3.704675384835255359E-18, 0.0000000000000000000, 1.742084146786106347 ) ) ;
#134 = ORIENTED_EDGE ( 'NONE', *, *, #334, .F. ) ;
#135 = DIRECTION ( 'NONE',  ( 1.252855520802715154E-16, 0.0000000000000000000, 1.000000000000000000 ) ) ;
#136 = ORIENTED_EDGE ( 'NONE', *, *, #300, .T. ) ;
#137 = CARTESIAN_POINT ( 'NONE',  ( 3.522772259837061432E-17, 0.0000000000000000000, 1.490474550227532058 ) ) ;
#138 = EDGE_LOOP ( 'NONE', ( #46, #394, #159, #253 ) ) ;
#139 = SURFACE_STYLE_FILL_AREA ( #271 ) ;
#140 = DIRECTION ( 'NONE',  ( -1.252855520802715154E-16, -0.0000000000000000000, -1.000000000000000000 ) ) ;
#141 = PRESENTATION_STYLE_ASSIGNMENT (( #85 ) ) ;
#142 = EDGE_CURVE ( 'NONE', #242, #388, #240, .T. ) ;
#143 = CYLINDRICAL_SURFACE ( 'NONE', #209, 0.1240155000000000007 ) ;
#144 = FACE_OUTER_BOUND ( 'NONE', #234, .T. ) ;
#145 = DIMENSIONAL_EXPONENTS ( 1.000000000000000000, 0.0000000000000000000, 0.0000000000000000000, 0.0000000000000000000, 0.0000000000000000000, 0.0000000000000000000, 0.0000000000000000000 ) ;
#146 = ORIENTED_EDGE ( 'NONE', *, *, #93, .T. ) ;
#147 = DIRECTION ( 'NONE',  ( -0.8571673007021136659, 1.049727191138620298E-16, 0.5150380749100519351 ) ) ;
#148 = AXIS2_PLACEMENT_3D ( 'NONE', #278, #370, #275 ) ;
#149 = FACE_OUTER_BOUND ( 'NONE', #348, .T. ) ;
#150 = DIRECTION ( 'NONE',  ( -1.252855520802715154E-16, -0.0000000000000000000, 1.000000000000000000 ) ) ;
#151 = PRODUCT_DEFINITION_CONTEXT ( 'detailed design', #329, 'design' ) ;
#152 = DIRECTION ( 'NONE',  ( 1.000000000000000000, 0.0000000000000000000, 1.334178587669835812E-16 ) ) ;
#153 = CONICAL_SURFACE ( 'NONE', #385, 0.04921250000000001318, 0.5235987755983001479 ) ;
#154 = ORIENTED_EDGE ( 'NONE', *, *, #262, .F. ) ;
#155 = DIRECTION ( 'NONE',  ( 1.252855520802715154E-16, 0.0000000000000000000, 1.000000000000000000 ) ) ;
#156 = ORIENTED_EDGE ( 'NONE', *, *, #300, .F. ) ;
#157 = EDGE_CURVE ( 'NONE', #96, #388, #366, .T. ) ;
#158 = CYLINDRICAL_SURFACE ( 'NONE', #9, 0.04921250000000001318 ) ;
#159 = ORIENTED_EDGE ( 'NONE', *, *, #142, .T. ) ;
#160 = CARTESIAN_POINT ( 'NONE',  ( -0.04921250000000017971, -6.026793060303934679E-18, 1.742084146786106347 ) ) ;
#161 = ORIENTED_EDGE ( 'NONE', *, *, #162, .T. ) ;
#162 = EDGE_CURVE ( 'NONE', #188, #103, #184, .T. ) ;
#163 = ORIENTED_EDGE ( 'NONE', *, *, #340, .F. ) ;
#164 = DIRECTION ( 'NONE',  ( -1.000000000000000000, 0.0000000000000000000, 0.0000000000000000000 ) ) ;
#165 = DIRECTION ( 'NONE',  ( -1.000000000000000000, 0.0000000000000000000, 8.673634727153487207E-17 ) ) ;
#166 = COLOUR_RGB ( '',0.7921568627450980005, 0.8196078431372548767, 0.9333333333333333481 ) ;
#167 =( NAMED_UNIT ( * ) PLANE_ANGLE_UNIT ( ) SI_UNIT ( $, .RADIAN. ) );
#168 = CARTESIAN_POINT ( 'NONE',  ( 3.704675384835255359E-18, 0.0000000000000000000, 1.742084146786106347 ) ) ;
#169 = DIRECTION ( 'NONE',  ( 1.252855520802715154E-16, 0.0000000000000000000, -1.000000000000000000 ) ) ;
#170 = EDGE_CURVE ( 'NONE', #318, #343, #100, .T. ) ;
#171 = DIRECTION ( 'NONE',  ( -1.252855520802715154E-16, -0.0000000000000000000, -1.000000000000000000 ) ) ;
#172 = VECTOR ( 'NONE', #295, 39.37007874015748143 ) ;
#173 =( NAMED_UNIT ( * ) SI_UNIT ( $, .STERADIAN. ) SOLID_ANGLE_UNIT ( ) );
#174 = DIRECTION ( 'NONE',  ( -1.000000000000000000, 0.0000000000000000000, 0.0000000000000000000 ) ) ;
#175 = EDGE_CURVE ( 'NONE', #11, #242, #311, .T. ) ;
#176 = PRODUCT ( 'Micro_DCM-025', 'Micro_DCM-025', '', ( #391 ) ) ;
#177 =( NAMED_UNIT ( * ) SI_UNIT ( $, .STERADIAN. ) SOLID_ANGLE_UNIT ( ) );
#178 = ORIENTED_EDGE ( 'NONE', *, *, #89, .T. ) ;
#179 = CIRCLE ( 'NONE', #30, 0.04921250000000001318 ) ;
#180 = DIRECTION ( 'NONE',  ( 1.000000000000000000, 0.0000000000000000000, -1.334178587669835812E-16 ) ) ;
#181 = FACE_OUTER_BOUND ( 'NONE', #376, .T. ) ;
#182 = ADVANCED_FACE ( 'NONE', ( #181 ), #13, .T. ) ;
#183 = DIRECTION ( 'NONE',  ( 1.252855520802715154E-16, 0.0000000000000000000, -1.000000000000000000 ) ) ;
#184 = LINE ( 'NONE', #339, #312 ) ;
#185 = CIRCLE ( 'NONE', #379, 0.04921250000000001318 ) ;
#186 = EDGE_LOOP ( 'NONE', ( #195, #136, #302 ) ) ;
#187 = SURFACE_SIDE_STYLE ('',( #310 ) ) ;
#188 = VERTEX_POINT ( 'NONE', #90 ) ;
#189 = CARTESIAN_POINT ( 'NONE',  ( -0.04921250000000001318, 0.0000000000000000000, 1.771654000000000062 ) ) ;
#190 = ORIENTED_EDGE ( 'NONE', *, *, #211, .T. ) ;
#191 = AXIS2_PLACEMENT_3D ( 'NONE', #372, #150, #122 ) ;
#192 = FACE_OUTER_BOUND ( 'NONE', #374, .T. ) ;
#193 = EDGE_CURVE ( 'NONE', #346, #103, #56, .T. ) ;
#194 = DIRECTION ( 'NONE',  ( -1.000000000000000000, 0.0000000000000000000, 0.0000000000000000000 ) ) ;
#195 = ORIENTED_EDGE ( 'NONE', *, *, #170, .F. ) ;
#196 = DIRECTION ( 'NONE',  ( 0.8571673007021137769, 0.0000000000000000000, -0.5150380749100517130 ) ) ;
#197 = AXIS2_PLACEMENT_3D ( 'NONE', #356, #119, #387 ) ;
#198 = DIRECTION ( 'NONE',  ( 1.252855520802715154E-16, 0.0000000000000000000, -1.000000000000000000 ) ) ;
#199 = DIRECTION ( 'NONE',  ( -1.000000000000000000, 0.0000000000000000000, 0.0000000000000000000 ) ) ;
#200 = ADVANCED_FACE ( 'NONE', ( #149 ), #297, .T. ) ;
#201 = ORIENTED_EDGE ( 'NONE', *, *, #392, .F. ) ;
#202 =( GEOMETRIC_REPRESENTATION_CONTEXT ( 3 ) GLOBAL_UNCERTAINTY_ASSIGNED_CONTEXT ( ( #307 ) ) GLOBAL_UNIT_ASSIGNED_CONTEXT ( ( #396, #79, #173 ) ) REPRESENTATION_CONTEXT ( 'NONE', 'WORKASPACE' ) );
#203 = APPLICATION_PROTOCOL_DEFINITION ( 'draft international standard', 'automotive_design', 1998, #335 ) ;
#204 = CIRCLE ( 'NONE', #274, 0.04921250000000001318 ) ;
#205 = CARTESIAN_POINT ( 'NONE',  ( -0.04921249999999999236, 0.0000000000000000000, 0.1516168532138936487 ) ) ;
#206 = DIRECTION ( 'NONE',  ( -1.252855520802715154E-16, -0.0000000000000000000, -1.000000000000000000 ) ) ;
#207 = AXIS2_PLACEMENT_3D ( 'NONE', #2, #183, #152 ) ;
#208 = DIRECTION ( 'NONE',  ( -0.0000000000000000000, -0.0000000000000000000, -1.000000000000000000 ) ) ;
#209 = AXIS2_PLACEMENT_3D ( 'NONE', #332, #266, #174 ) ;
#210 = VECTOR ( 'NONE', #121, 39.37007874015748143 ) ;
#211 = EDGE_CURVE ( 'NONE', #346, #20, #246, .T. ) ;
#212 = DIRECTION ( 'NONE',  ( -1.000000000000000000, 0.0000000000000000000, 0.0000000000000000000 ) ) ;
#213 = FILL_AREA_STYLE_COLOUR ( '', #238 ) ;
#214 = ORIENTED_EDGE ( 'NONE', *, *, #363, .F. ) ;
#215 = FACE_OUTER_BOUND ( 'NONE', #255, .T. ) ;
#216 = ORIENTED_EDGE ( 'NONE', *, *, #157, .F. ) ;
#217 = DIRECTION ( 'NONE',  ( 1.252855520802715154E-16, 0.0000000000000000000, 1.000000000000000000 ) ) ;
#218 = ORIENTED_EDGE ( 'NONE', *, *, #330, .T. ) ;
#219 = DIRECTION ( 'NONE',  ( -1.252855520802715154E-16, -0.0000000000000000000, -1.000000000000000000 ) ) ;
#220 = CARTESIAN_POINT ( 'NONE',  ( 1.899540115957615277E-17, 0.0000000000000000000, 0.1516168532138936487 ) ) ;
#221 = CLOSED_SHELL ( 'NONE', ( #293, #252, #224, #123, #62, #200, #371, #303, #316, #237, #182, #27, #322, #84 ) ) ;
#222 = STYLED_ITEM ( 'NONE', ( #125 ), #260 ) ;
#223 = ORIENTED_EDGE ( 'NONE', *, *, #16, .T. ) ;
#224 = ADVANCED_FACE ( 'NONE', ( #215 ), #308, .T. ) ;
#225 = LINE ( 'NONE', #381, #267 ) ;
#226 = ORIENTED_EDGE ( 'NONE', *, *, #162, .F. ) ;
#227 = LINE ( 'NONE', #321, #352 ) ;
#228 = ORIENTED_EDGE ( 'NONE', *, *, #363, .T. ) ;
#229 = CARTESIAN_POINT ( 'NONE',  ( 0.04921250000000019359, 0.0000000000000000000, 1.742084146786106347 ) ) ;
#230 = CONICAL_SURFACE ( 'NONE', #99, 65.52281426576882950, 1.029744258676657198 ) ;
#231 = CIRCLE ( 'NONE', #284, 0.1240154999999999730 ) ;
#232 = AXIS2_PLACEMENT_3D ( 'NONE', #137, #261, #112 ) ;
#233 = LENGTH_MEASURE_WITH_UNIT ( LENGTH_MEASURE( 0.02539999999999999897 ), #362 );
#234 = EDGE_LOOP ( 'NONE', ( #108, #279, #201, #353 ) ) ;
#235 = LINE ( 'NONE', #87, #377 ) ;
#236 = CARTESIAN_POINT ( 'NONE',  ( -0.1240155000000000007, 0.0000000000000000000, 1.771654000000000062 ) ) ;
#237 = ADVANCED_FACE ( 'NONE', ( #120 ), #341, .T. ) ;
#238 = COLOUR_RGB ( '',0.7921568627450980005, 0.8196078431372548767, 0.9333333333333333481 ) ;
#239 = FACE_OUTER_BOUND ( 'NONE', #315, .T. ) ;
#240 = LINE ( 'NONE', #236, #328 ) ;
#241 = PRODUCT_DEFINITION_FORMATION_WITH_SPECIFIED_SOURCE ( 'ANY', '', #176, .NOT_KNOWN. ) ;
#242 = VERTEX_POINT ( 'NONE', #60 ) ;
#243 = EDGE_CURVE ( 'NONE', #326, #245, #306, .T. ) ;
#244 = CARTESIAN_POINT ( 'NONE',  ( 0.1240155000000000007, 1.518751851196585946E-17, 0.2811794497724678932 ) ) ;
#245 = VERTEX_POINT ( 'NONE', #5 ) ;
#246 = LINE ( 'NONE', #304, #264 ) ;
#247 = AXIS2_PLACEMENT_3D ( 'NONE', #21, #347, #15 ) ;
#248 = ORIENTED_EDGE ( 'NONE', *, *, #115, .F. ) ;
#249 = DIRECTION ( 'NONE',  ( 1.252855520802715154E-16, 0.0000000000000000000, -1.000000000000000000 ) ) ;
#250 = ORIENTED_EDGE ( 'NONE', *, *, #70, .T. ) ;
#251 = DIRECTION ( 'NONE',  ( -1.000000000000000000, 0.0000000000000000000, 0.0000000000000000000 ) ) ;
#252 = ADVANCED_FACE ( 'NONE', ( #239 ), #65, .T. ) ;
#253 = ORIENTED_EDGE ( 'NONE', *, *, #16, .F. ) ;
#254 = CARTESIAN_POINT ( 'NONE',  ( 0.0000000000000000000, 0.0000000000000000000, 1.771654000000000062 ) ) ;
#255 = EDGE_LOOP ( 'NONE', ( #156, #130, #380 ) ) ;
#256 = VECTOR ( 'NONE', #196, 39.37007874015748143 ) ;
#257 = AXIS2_PLACEMENT_3D ( 'NONE', #323, #110, #48 ) ;
#258 = ADVANCED_BREP_SHAPE_REPRESENTATION ( 'Micro_DCM-025', ( #260, #1 ), #202 ) ;
#259 =( CONVERSION_BASED_UNIT ( 'INCH', #49 ) LENGTH_UNIT ( ) NAMED_UNIT ( #81 ) );
#260 = MANIFOLD_SOLID_BREP ( 'Mirror1', #221 ) ;
#261 = DIRECTION ( 'NONE',  ( 1.252855520802715154E-16, 0.0000000000000000000, -1.000000000000000000 ) ) ;
#262 = EDGE_CURVE ( 'NONE', #96, #20, #76, .T. ) ;
#263 =( LENGTH_UNIT ( ) NAMED_UNIT ( * ) SI_UNIT ( $, .METRE. ) );
#264 = VECTOR ( 'NONE', #147, 39.37007874015748854 ) ;
#265 = EDGE_LOOP ( 'NONE', ( #289, #8, #40, #126 ) ) ;
#266 = DIRECTION ( 'NONE',  ( -0.0000000000000000000, -0.0000000000000000000, -1.000000000000000000 ) ) ;
#267 = VECTOR ( 'NONE', #102, 39.37007874015748143 ) ;
#268 = EDGE_CURVE ( 'NONE', #96, #188, #179, .T. ) ;
#269 = CARTESIAN_POINT ( 'NONE',  ( -0.1240154999999999313, 0.0000000000000000000, 0.2811794497724678932 ) ) ;
#270 = DIRECTION ( 'NONE',  ( -1.000000000000000000, 0.0000000000000000000, 0.0000000000000000000 ) ) ;
#271 = FILL_AREA_STYLE ('',( #23 ) ) ;
#272 = AXIS2_PLACEMENT_3D ( 'NONE', #220, #219, #194 ) ;
#273 = ORIENTED_EDGE ( 'NONE', *, *, #360, .T. ) ;
#274 = AXIS2_PLACEMENT_3D ( 'NONE', #17, #198, #24 ) ;
#275 = DIRECTION ( 'NONE',  ( 1.000000000000000000, 0.0000000000000000000, 0.0000000000000000000 ) ) ;
#276 = DIRECTION ( 'NONE',  ( -1.000000000000000000, 0.0000000000000000000, 1.252855520802715154E-16 ) ) ;
#277 = MECHANICAL_DESIGN_GEOMETRIC_PRESENTATION_REPRESENTATION (  '', ( #222 ), #368 ) ;
#278 = CARTESIAN_POINT ( 'NONE',  ( 1.899540115957615277E-17, 0.0000000000000000000, 0.1516168532138936487 ) ) ;
#279 = ORIENTED_EDGE ( 'NONE', *, *, #44, .T. ) ;
#280 = DIRECTION ( 'NONE',  ( 1.000000000000000000, 0.0000000000000000000, 0.0000000000000000000 ) ) ;
#281 = ORIENTED_EDGE ( 'NONE', *, *, #6, .F. ) ;
#282 = CARTESIAN_POINT ( 'NONE',  ( 0.0000000000000000000, 0.0000000000000000000, 1.771654000000000062 ) ) ;
#283 = EDGE_LOOP ( 'NONE', ( #37, #66, #250 ) ) ;
#284 = AXIS2_PLACEMENT_3D ( 'NONE', #365, #296, #270 ) ;
#285 =( NAMED_UNIT ( * ) SI_UNIT ( $, .STERADIAN. ) SOLID_ANGLE_UNIT ( ) );
#286 = ORIENTED_EDGE ( 'NONE', *, *, #334, .T. ) ;
#287 = EDGE_CURVE ( 'NONE', #326, #43, #227, .T. ) ;
#288 = VECTOR ( 'NONE', #38, 39.37007874015748143 ) ;
#289 = ORIENTED_EDGE ( 'NONE', *, *, #268, .F. ) ;
#290 = LINE ( 'NONE', #319, #256 ) ;
#291 = CARTESIAN_POINT ( 'NONE',  ( 1.899540115957615277E-17, 0.0000000000000000000, 1.620037146786106330 ) ) ;
#292 = CIRCLE ( 'NONE', #344, 0.1240154999999999730 ) ;
#293 = ADVANCED_FACE ( 'NONE', ( #192 ), #41, .T. ) ;
#294 = CARTESIAN_POINT ( 'NONE',  ( -0.04921249999999999236, 0.0000000000000000000, 1.620037146786106330 ) ) ;
#295 = DIRECTION ( 'NONE',  ( -1.252855520802715154E-16, -0.0000000000000000000, -1.000000000000000000 ) ) ;
#296 = DIRECTION ( 'NONE',  ( 1.252855520802715154E-16, 0.0000000000000000000, -1.000000000000000000 ) ) ;
#297 = CONICAL_SURFACE ( 'NONE', #61, 65.52281426576882950, 1.029744258676657198 ) ;
#298 = ORIENTED_EDGE ( 'NONE', *, *, #70, .F. ) ;
#299 = SURFACE_SIDE_STYLE ('',( #139 ) ) ;
#300 = EDGE_CURVE ( 'NONE', #318, #43, #290, .T. ) ;
#301 =( CONVERSION_BASED_UNIT ( 'INCH', #26 ) LENGTH_UNIT ( ) NAMED_UNIT ( #145 ) );
#302 = ORIENTED_EDGE ( 'NONE', *, *, #360, .F. ) ;
#303 = ADVANCED_FACE ( 'NONE', ( #111 ), #314, .T. ) ;
#304 = CARTESIAN_POINT ( 'NONE',  ( 0.0000000000000000000, 0.0000000000000000000, 0.0000000000000000000 ) ) ;
#305 = CARTESIAN_POINT ( 'NONE',  ( 1.899540115957615277E-17, 0.0000000000000000000, 0.1516168532138936487 ) ) ;
#306 = LINE ( 'NONE', #3, #210 ) ;
#307 = UNCERTAINTY_MEASURE_WITH_UNIT (LENGTH_MEASURE( 1.000000000000000082E-05 ), #396, 'distance_accuracy_value', 'NONE');
#308 = CONICAL_SURFACE ( 'NONE', #207, 65.52281426576882950, 1.029744258676657198 ) ;
#309 = AXIS2_PLACEMENT_3D ( 'NONE', #337, #59, #276 ) ;
#310 = SURFACE_STYLE_FILL_AREA ( #63 ) ;
#311 = LINE ( 'NONE', #127, #82 ) ;
#312 = VECTOR ( 'NONE', #375, 39.37007874015748143 ) ;
#313 = ORIENTED_EDGE ( 'NONE', *, *, #175, .T. ) ;
#314 = CYLINDRICAL_SURFACE ( 'NONE', #247, 0.1240155000000000007 ) ;
#315 = EDGE_LOOP ( 'NONE', ( #248, #101, #146, #163 ) ) ;
#316 = ADVANCED_FACE ( 'NONE', ( #71 ), #230, .T. ) ;
#317 = DIRECTION ( 'NONE',  ( -1.252855520802715154E-16, -0.0000000000000000000, -1.000000000000000000 ) ) ;
#318 = VERTEX_POINT ( 'NONE', #254 ) ;
#319 = CARTESIAN_POINT ( 'NONE',  ( 0.0000000000000000000, 0.0000000000000000000, 1.771654000000000062 ) ) ;
#320 = EDGE_LOOP ( 'NONE', ( #382, #178, #39, #281 ) ) ;
#321 = CARTESIAN_POINT ( 'NONE',  ( 0.04921250000000001318, -6.026793060303913109E-18, 1.771654000000000062 ) ) ;
#322 = ADVANCED_FACE ( 'NONE', ( #47 ), #158, .T. ) ;
#323 = CARTESIAN_POINT ( 'NONE',  ( 0.0000000000000000000, 0.0000000000000000000, 0.0000000000000000000 ) ) ;
#324 = DIRECTION ( 'NONE',  ( -1.252855520802715154E-16, -0.0000000000000000000, 1.000000000000000000 ) ) ;
#325 = EDGE_LOOP ( 'NONE', ( #226, #286, #29, #298 ) ) ;
#326 = VERTEX_POINT ( 'NONE', #129 ) ;
#327 =( GEOMETRIC_REPRESENTATION_CONTEXT ( 3 ) GLOBAL_UNCERTAINTY_ASSIGNED_CONTEXT ( ( #36 ) ) GLOBAL_UNIT_ASSIGNED_CONTEXT ( ( #301, #86, #177 ) ) REPRESENTATION_CONTEXT ( 'NONE', 'WORKASPACE' ) );
#328 = VECTOR ( 'NONE', #208, 39.37007874015748143 ) ;
#329 = APPLICATION_CONTEXT ( 'automotive_design' ) ;
#330 = EDGE_CURVE ( 'NONE', #188, #124, #225, .T. ) ;
#331 = VECTOR ( 'NONE', #31, 39.37007874015748143 ) ;
#332 = CARTESIAN_POINT ( 'NONE',  ( 0.0000000000000000000, 0.0000000000000000000, 1.771654000000000062 ) ) ;
#333 = CYLINDRICAL_SURFACE ( 'NONE', #257, 0.04921250000000001318 ) ;
#334 = EDGE_CURVE ( 'NONE', #188, #96, #58, .T. ) ;
#335 = APPLICATION_CONTEXT ( 'automotive_design' ) ;
#336 = FACE_OUTER_BOUND ( 'NONE', #320, .T. ) ;
#337 = CARTESIAN_POINT ( 'NONE',  ( 0.0000000000000000000, 0.0000000000000000000, 0.0000000000000000000 ) ) ;
#338 = CIRCLE ( 'NONE', #73, 0.04921250000000001318 ) ;
#339 = CARTESIAN_POINT ( 'NONE',  ( 0.04921250000000001318, 6.026793060303913109E-18, -6.165615231750363574E-18 ) ) ;
#340 = EDGE_CURVE ( 'NONE', #11, #343, #349, .T. ) ;
#341 = CYLINDRICAL_SURFACE ( 'NONE', #309, 0.04921250000000001318 ) ;
#342 = UNCERTAINTY_MEASURE_WITH_UNIT (LENGTH_MEASURE( 1.000000000000000082E-05 ), #259, 'distance_accuracy_value', 'NONE');
#343 = VERTEX_POINT ( 'NONE', #160 ) ;
#344 = AXIS2_PLACEMENT_3D ( 'NONE', #118, #140, #50 ) ;
#345 = CARTESIAN_POINT ( 'NONE',  ( 0.0000000000000000000, 0.0000000000000000000, 0.0000000000000000000 ) ) ;
#346 = VERTEX_POINT ( 'NONE', #12 ) ;
#347 = DIRECTION ( 'NONE',  ( -0.0000000000000000000, -0.0000000000000000000, -1.000000000000000000 ) ) ;
#348 = EDGE_LOOP ( 'NONE', ( #14, #190, #228 ) ) ;
#349 = LINE ( 'NONE', #189, #390 ) ;
#350 = ORIENTED_EDGE ( 'NONE', *, *, #340, .T. ) ;
#351 = DIRECTION ( 'NONE',  ( -1.252855520802715154E-16, -0.0000000000000000000, -1.000000000000000000 ) ) ;
#352 = VECTOR ( 'NONE', #68, 39.37007874015748143 ) ;
#353 = ORIENTED_EDGE ( 'NONE', *, *, #142, .F. ) ;
#354 = PRODUCT_RELATED_PRODUCT_CATEGORY ( 'part', '', ( #176 ) ) ;
#355 = CARTESIAN_POINT ( 'NONE',  ( 4.932502050404390618E-15, 0.0000000000000000000, 39.37007874015748143 ) ) ;
#356 = CARTESIAN_POINT ( 'NONE',  ( 4.932502050404390618E-15, 0.0000000000000000000, -37.59842474015748337 ) ) ;
#357 = DIRECTION ( 'NONE',  ( 1.000000000000000000, 0.0000000000000000000, 0.0000000000000000000 ) ) ;
#358 = ORIENTED_EDGE ( 'NONE', *, *, #115, .T. ) ;
#359 = DIRECTION ( 'NONE',  ( 1.252855520802715154E-16, 0.0000000000000000000, -1.000000000000000000 ) ) ;
#360 = EDGE_CURVE ( 'NONE', #343, #43, #185, .T. ) ;
#361 =( LENGTH_UNIT ( ) NAMED_UNIT ( * ) SI_UNIT ( $, .METRE. ) );
#362 =( LENGTH_UNIT ( ) NAMED_UNIT ( * ) SI_UNIT ( $, .METRE. ) );
#363 = EDGE_CURVE ( 'NONE', #20, #103, #91, .T. ) ;
#364 = DIRECTION ( 'NONE',  ( 1.000000000000000000, 0.0000000000000000000, 0.0000000000000000000 ) ) ;
#365 = CARTESIAN_POINT ( 'NONE',  ( 3.522772259837061432E-17, 0.0000000000000000000, 1.490474550227532058 ) ) ;
#366 = LINE ( 'NONE', #4, #331 ) ;
#367 = CIRCLE ( 'NONE', #114, 0.04921250000000001318 ) ;
#368 =( GEOMETRIC_REPRESENTATION_CONTEXT ( 3 ) GLOBAL_UNCERTAINTY_ASSIGNED_CONTEXT ( ( #342 ) ) GLOBAL_UNIT_ASSIGNED_CONTEXT ( ( #259, #167, #285 ) ) REPRESENTATION_CONTEXT ( 'NONE', 'WORKASPACE' ) );
#369 = AXIS2_PLACEMENT_3D ( 'NONE', #389, #171, #199 ) ;
#370 = DIRECTION ( 'NONE',  ( 1.252855520802715154E-16, 0.0000000000000000000, 1.000000000000000000 ) ) ;
#371 = ADVANCED_FACE ( 'NONE', ( #144 ), #143, .T. ) ;
#372 = CARTESIAN_POINT ( 'NONE',  ( 0.0000000000000000000, 0.0000000000000000000, 1.771654000000000062 ) ) ;
#373 = PRESENTATION_LAYER_ASSIGNMENT (  '', '', ( #395 ) ) ;
#374 = EDGE_LOOP ( 'NONE', ( #358, #313, #106, #88 ) ) ;
#375 = DIRECTION ( 'NONE',  ( -1.252855520802715154E-16, -0.0000000000000000000, -1.000000000000000000 ) ) ;
#376 = EDGE_LOOP ( 'NONE', ( #216, #134, #218, #223 ) ) ;
#377 = VECTOR ( 'NONE', #51, 39.37007874015748143 ) ;
#378 = FACE_OUTER_BOUND ( 'NONE', #265, .T. ) ;
#379 = AXIS2_PLACEMENT_3D ( 'NONE', #133, #383, #105 ) ;
#380 = ORIENTED_EDGE ( 'NONE', *, *, #93, .F. ) ;
#381 = CARTESIAN_POINT ( 'NONE',  ( 0.04921250000000002706, 0.0000000000000000000, 0.1516168532138936487 ) ) ;
#382 = ORIENTED_EDGE ( 'NONE', *, *, #175, .F. ) ;
#383 = DIRECTION ( 'NONE',  ( 1.252855520802715154E-16, 0.0000000000000000000, -1.000000000000000000 ) ) ;
#384 = FACE_OUTER_BOUND ( 'NONE', #72, .T. ) ;
#385 = AXIS2_PLACEMENT_3D ( 'NONE', #291, #359, #364 ) ;
#386 = CIRCLE ( 'NONE', #132, 0.04921250000000001318 ) ;
#387 = DIRECTION ( 'NONE',  ( 1.000000000000000000, 0.0000000000000000000, 1.334178587669835812E-16 ) ) ;
#388 = VERTEX_POINT ( 'NONE', #269 ) ;
#389 = CARTESIAN_POINT ( 'NONE',  ( 3.522772259837061432E-17, 0.0000000000000000000, 0.2811794497724678932 ) ) ;
#390 = VECTOR ( 'NONE', #42, 39.37007874015748143 ) ;
#391 = PRODUCT_CONTEXT ( 'NONE', #335, 'mechanical' ) ;
#392 = EDGE_CURVE ( 'NONE', #388, #124, #113, .T. ) ;
#393 = DIRECTION ( 'NONE',  ( 0.0000000000000000000, 0.0000000000000000000, 1.000000000000000000 ) ) ;
#394 = ORIENTED_EDGE ( 'NONE', *, *, #57, .T. ) ;
#395 = STYLED_ITEM ( 'NONE', ( #141 ), #258 ) ;
#396 =( CONVERSION_BASED_UNIT ( 'INCH', #233 ) LENGTH_UNIT ( ) NAMED_UNIT ( #25 ) );
#397 = ORIENTED_EDGE ( 'NONE', *, *, #268, .T. ) ;
ENDSEC;
END-ISO-10303-21;
