ISO-10303-21;
HEADER;
FILE_DESCRIPTION (( 'STEP AP214' ),
    '1' );
FILE_NAME ('24107.STEP',
    '2023-06-22T16:57:18',
    ( '' ),
    ( '' ),
    'SwSTEP 2.0',
    'SolidWorks 2023',
    '' );
FILE_SCHEMA (( 'AUTOMOTIVE_DESIGN' ));
ENDSEC;

DATA;
#1 =( CONVERSION_BASED_UNIT ( 'INCH', #26 ) LENGTH_UNIT ( ) NAMED_UNIT ( #79 ) );
#2 =( GEOMETRIC_REPRESENTATION_CONTEXT ( 3 ) GLOBAL_UNCERTAINTY_ASSIGNED_CONTEXT ( ( #82 ) ) GLOBAL_UNIT_ASSIGNED_CONTEXT ( ( #197, #301, #52 ) ) REPRESENTATION_CONTEXT ( 'NONE', 'WORKASPACE' ) );
#3 = EDGE_CURVE ( 'NONE', #38, #251, #70, .T. ) ;
#4 = PRESENTATION_LAYER_ASSIGNMENT (  '', '', ( #281 ) ) ;
#5 = FILL_AREA_STYLE_COLOUR ( '', #130 ) ;
#6 = CARTESIAN_POINT ( 'NONE',  ( 0.000000000000000000, 0.000000000000000000, -0.1562500000000000000 ) ) ;
#7 = CYLINDRICAL_SURFACE ( 'NONE', #64, 0.1562500000000000000 ) ;
#8 = FILL_AREA_STYLE_COLOUR ( '', #292 ) ;
#9 = LINE ( 'NONE', #6, #92 ) ;
#10 = CIRCLE ( 'NONE', #178, 0.1562499999999999722 ) ;
#11 = DIRECTION ( 'NONE',  ( 0.000000000000000000, 0.000000000000000000, -1.000000000000000000 ) ) ;
#12 = AXIS2_PLACEMENT_3D ( 'NONE', #27, #65, #153 ) ;
#13 = FILL_AREA_STYLE_COLOUR ( '', #34 ) ;
#14 = PRESENTATION_LAYER_ASSIGNMENT (  '', '', ( #154 ) ) ;
#15 = LENGTH_MEASURE_WITH_UNIT ( LENGTH_MEASURE( 0.02539999999999999897 ), #167 );
#16 =( GEOMETRIC_REPRESENTATION_CONTEXT ( 3 ) GLOBAL_UNCERTAINTY_ASSIGNED_CONTEXT ( ( #276 ) ) GLOBAL_UNIT_ASSIGNED_CONTEXT ( ( #1, #109, #231 ) ) REPRESENTATION_CONTEXT ( 'NONE', 'WORKASPACE' ) );
#17 = LENGTH_MEASURE_WITH_UNIT ( LENGTH_MEASURE( 0.02539999999999999897 ), #97 );
#18 = ORIENTED_EDGE ( 'NONE', *, *, #221, .T. ) ;
#19 = ORIENTED_EDGE ( 'NONE', *, *, #242, .T. ) ;
#20 = CLOSED_SHELL ( 'NONE', ( #278, #143, #51, #57 ) ) ;
#21 = CARTESIAN_POINT ( 'NONE',  ( 0.000000000000000000, 0.000000000000000000, 0.000000000000000000 ) ) ;
#22 = FILL_AREA_STYLE ('',( #308 ) ) ;
#23 = LINE ( 'NONE', #135, #199 ) ;
#24 = SURFACE_STYLE_FILL_AREA ( #81 ) ;
#25 = PRODUCT_DEFINITION_CONTEXT ( 'detailed design', #105, 'design' ) ;
#26 = LENGTH_MEASURE_WITH_UNIT ( LENGTH_MEASURE( 0.02539999999999999897 ), #295 );
#27 = CARTESIAN_POINT ( 'NONE',  ( 0.000000000000000000, 0.000000000000000000, 0.000000000000000000 ) ) ;
#28 = DIRECTION ( 'NONE',  ( -3.628583108584750472E-17, 1.000000000000000000, -0.000000000000000000 ) ) ;
#29 = DIRECTION ( 'NONE',  ( 0.000000000000000000, -0.000000000000000000, 1.000000000000000000 ) ) ;
#30 = ORIENTED_EDGE ( 'NONE', *, *, #3, .T. ) ;
#31 = MECHANICAL_DESIGN_GEOMETRIC_PRESENTATION_REPRESENTATION (  '', ( #246 ), #177 ) ;
#32 = DIRECTION ( 'NONE',  ( -0.000000000000000000, -1.000000000000000000, -0.000000000000000000 ) ) ;
#33 = PRESENTATION_LAYER_ASSIGNMENT (  '', '', ( #203 ) ) ;
#34 = COLOUR_RGB ( '',1.000000000000000000, 0.000000000000000000, 0.000000000000000000 ) ;
#35 = APPLICATION_PROTOCOL_DEFINITION ( 'draft international standard', 'automotive_design', 1998, #90 ) ;
#36 = VERTEX_POINT ( 'NONE', #41 ) ;
#37 = MANIFOLD_SOLID_BREP ( 'Revolve - Tool Body (Straight Shanked)', #20 ) ;
#38 = VERTEX_POINT ( 'NONE', #147 ) ;
#39 = CIRCLE ( 'NONE', #12, 0.1562500000000000000 ) ;
#40 = CARTESIAN_POINT ( 'NONE',  ( 0.1562499999999999722, 2.500000000000000000, 0.000000000000000000 ) ) ;
#41 = CARTESIAN_POINT ( 'NONE',  ( 0.1562499999999999722, 0.8125000000000001110, 1.913510623667739771E-17 ) ) ;
#42 = UNCERTAINTY_MEASURE_WITH_UNIT (LENGTH_MEASURE( 1.000000000000000082E-05 ), #212, 'distance_accuracy_value', 'NONE');
#43 =( LENGTH_UNIT ( ) NAMED_UNIT ( * ) SI_UNIT ( $, .METRE. ) );
#44 = PRESENTATION_STYLE_ASSIGNMENT (( #158 ) ) ;
#45 = CARTESIAN_POINT ( 'NONE',  ( -6.123233995736766036E-17, 2.500000000000000000, 0.000000000000000000 ) ) ;
#46 = DIRECTION ( 'NONE',  ( 0.000000000000000000, 0.000000000000000000, -1.000000000000000000 ) ) ;
#47 = FILL_AREA_STYLE_COLOUR ( '', #239 ) ;
#48 = CARTESIAN_POINT ( 'NONE',  ( -0.1562500000000000833, 2.500000000000000000, 0.000000000000000000 ) ) ;
#49 = PRESENTATION_LAYER_ASSIGNMENT (  '', '', ( #246 ) ) ;
#50 = SURFACE_STYLE_USAGE ( .BOTH. , #215 ) ;
#51 = ADVANCED_FACE ( 'NONE', ( #200 ), #99, .T. ) ;
#52 =( NAMED_UNIT ( * ) SI_UNIT ( $, .STERADIAN. ) SOLID_ANGLE_UNIT ( ) );
#53 = VERTEX_POINT ( 'NONE', #304 ) ;
#54 = SURFACE_STYLE_FILL_AREA ( #219 ) ;
#55 = ADVANCED_BREP_SHAPE_REPRESENTATION ( '24107', ( #252, #37, #273 ), #306 ) ;
#56 = SURFACE_STYLE_FILL_AREA ( #88 ) ;
#57 = ADVANCED_FACE ( 'NONE', ( #172 ), #279, .F. ) ;
#58 = DIRECTION ( 'NONE',  ( -1.000000000000000000, 0.000000000000000000, 0.000000000000000000 ) ) ;
#59 = CARTESIAN_POINT ( 'NONE',  ( 0.000000000000000000, 0.8125000000000001110, 0.000000000000000000 ) ) ;
#60 = EDGE_CURVE ( 'NONE', #53, #36, #248, .T. ) ;
#61 = FACE_OUTER_BOUND ( 'NONE', #300, .T. ) ;
#62 = DIRECTION ( 'NONE',  ( -3.628583108584750472E-17, 1.000000000000000000, 0.000000000000000000 ) ) ;
#63 = DIRECTION ( 'NONE',  ( -3.628583108584750472E-17, 1.000000000000000000, -0.000000000000000000 ) ) ;
#64 = AXIS2_PLACEMENT_3D ( 'NONE', #45, #234, #188 ) ;
#65 = DIRECTION ( 'NONE',  ( -0.000000000000000000, -1.000000000000000000, -0.000000000000000000 ) ) ;
#66 = CARTESIAN_POINT ( 'NONE',  ( 1.913510623667739463E-17, 0.000000000000000000, 0.1562500000000000000 ) ) ;
#67 = ORIENTED_EDGE ( 'NONE', *, *, #242, .F. ) ;
#68 = PRESENTATION_STYLE_ASSIGNMENT (( #269 ) ) ;
#69 = CARTESIAN_POINT ( 'NONE',  ( 0.000000000000000000, 0.8125000000000001110, 0.000000000000000000 ) ) ;
#70 = CIRCLE ( 'NONE', #110, 0.1562500000000000278 ) ;
#71 = CARTESIAN_POINT ( 'NONE',  ( -6.123233995736766036E-17, 2.500000000000000000, 0.000000000000000000 ) ) ;
#72 =( CONVERSION_BASED_UNIT ( 'INCH', #17 ) LENGTH_UNIT ( ) NAMED_UNIT ( #214 ) );
#73 = COLOUR_RGB ( '',1.000000000000000000, 0.000000000000000000, 0.000000000000000000 ) ;
#74 = DIRECTION ( 'NONE',  ( -3.628583108584750472E-17, 1.000000000000000000, -0.000000000000000000 ) ) ;
#75 = AXIS2_PLACEMENT_3D ( 'NONE', #209, #287, #293 ) ;
#76 = SURFACE_SIDE_STYLE ('',( #282 ) ) ;
#77 = ORIENTED_EDGE ( 'NONE', *, *, #229, .T. ) ;
#78 = SHAPE_DEFINITION_REPRESENTATION ( #145, #55 ) ;
#79 = DIMENSIONAL_EXPONENTS ( 1.000000000000000000, 0.000000000000000000, 0.000000000000000000, 0.000000000000000000, 0.000000000000000000, 0.000000000000000000, 0.000000000000000000 ) ;
#80 = PLANE ( 'NONE',  #307 ) ;
#81 = FILL_AREA_STYLE ('',( #5 ) ) ;
#82 = UNCERTAINTY_MEASURE_WITH_UNIT (LENGTH_MEASURE( 1.000000000000000082E-05 ), #197, 'distance_accuracy_value', 'NONE');
#83 = SURFACE_STYLE_FILL_AREA ( #133 ) ;
#84 = LENGTH_MEASURE_WITH_UNIT ( LENGTH_MEASURE( 0.02539999999999999897 ), #294 );
#85 = STYLED_ITEM ( 'NONE', ( #224 ), #37 ) ;
#86 = PLANE ( 'NONE',  #244 ) ;
#87 = CARTESIAN_POINT ( 'NONE',  ( 0.000000000000000000, 0.000000000000000000, 0.000000000000000000 ) ) ;
#88 = FILL_AREA_STYLE ('',( #13 ) ) ;
#89 = ORIENTED_EDGE ( 'NONE', *, *, #101, .T. ) ;
#90 = APPLICATION_CONTEXT ( 'automotive_design' ) ;
#91 = FACE_OUTER_BOUND ( 'NONE', #168, .T. ) ;
#92 = VECTOR ( 'NONE', #237, 39.37007874015748143 ) ;
#93 = ORIENTED_EDGE ( 'NONE', *, *, #171, .F. ) ;
#94 = UNCERTAINTY_MEASURE_WITH_UNIT (LENGTH_MEASURE( 1.000000000000000082E-05 ), #179, 'distance_accuracy_value', 'NONE');
#95 = CARTESIAN_POINT ( 'NONE',  ( -6.123233995736766036E-17, 2.500000000000000000, 0.000000000000000000 ) ) ;
#96 = APPLICATION_PROTOCOL_DEFINITION ( 'draft international standard', 'automotive_design', 1998, #105 ) ;
#97 =( LENGTH_UNIT ( ) NAMED_UNIT ( * ) SI_UNIT ( $, .METRE. ) );
#98 = AXIS2_PLACEMENT_3D ( 'NONE', #95, #149, #303 ) ;
#99 = CYLINDRICAL_SURFACE ( 'NONE', #98, 0.1562500000000000000 ) ;
#100 = MECHANICAL_DESIGN_GEOMETRIC_PRESENTATION_REPRESENTATION (  '', ( #154 ), #16 ) ;
#101 = EDGE_CURVE ( 'NONE', #251, #38, #275, .T. ) ;
#102 = DIRECTION ( 'NONE',  ( 1.000000000000000000, 0.000000000000000000, 0.000000000000000000 ) ) ;
#103 = CIRCLE ( 'NONE', #280, 0.1562500000000000000 ) ;
#104 = COLOUR_RGB ( '',0.7921568627450980005, 0.8196078431372548767, 0.9333333333333333481 ) ;
#105 = APPLICATION_CONTEXT ( 'automotive_design' ) ;
#106 = FACE_OUTER_BOUND ( 'NONE', #256, .T. ) ;
#107 = PRESENTATION_STYLE_ASSIGNMENT (( #259 ) ) ;
#108 =( LENGTH_UNIT ( ) NAMED_UNIT ( * ) SI_UNIT ( $, .METRE. ) );
#109 =( NAMED_UNIT ( * ) PLANE_ANGLE_UNIT ( ) SI_UNIT ( $, .RADIAN. ) );
#110 = AXIS2_PLACEMENT_3D ( 'NONE', #71, #74, #58 ) ;
#111 = CARTESIAN_POINT ( 'NONE',  ( 0.1562499999999999722, 2.500000000000000000, 1.913510623667739771E-17 ) ) ;
#112 = FACE_OUTER_BOUND ( 'NONE', #202, .T. ) ;
#113 = ADVANCED_FACE ( 'NONE', ( #190 ), #184, .T. ) ;
#114 = DIRECTION ( 'NONE',  ( -0.000000000000000000, -1.000000000000000000, -0.000000000000000000 ) ) ;
#115 = DIRECTION ( 'NONE',  ( -0.000000000000000000, -1.000000000000000000, -0.000000000000000000 ) ) ;
#116 = VERTEX_POINT ( 'NONE', #66 ) ;
#117 = DIRECTION ( 'NONE',  ( -1.000000000000000000, 0.000000000000000000, 0.000000000000000000 ) ) ;
#118 = EDGE_CURVE ( 'NONE', #124, #144, #9, .T. ) ;
#119 = DIRECTION ( 'NONE',  ( -0.000000000000000000, -1.000000000000000000, -0.000000000000000000 ) ) ;
#120 = DIRECTION ( 'NONE',  ( 0.000000000000000000, 0.000000000000000000, -1.000000000000000000 ) ) ;
#121 = UNCERTAINTY_MEASURE_WITH_UNIT (LENGTH_MEASURE( 1.000000000000000082E-05 ), #291, 'distance_accuracy_value', 'NONE');
#122 = AXIS2_PLACEMENT_3D ( 'NONE', #176, #186, #210 ) ;
#123 = ORIENTED_EDGE ( 'NONE', *, *, #229, .F. ) ;
#124 = VERTEX_POINT ( 'NONE', #233 ) ;
#125 = ORIENTED_EDGE ( 'NONE', *, *, #250, .T. ) ;
#126 = DIRECTION ( 'NONE',  ( 3.628583108584750472E-17, -1.000000000000000000, 0.000000000000000000 ) ) ;
#127 =( NAMED_UNIT ( * ) PLANE_ANGLE_UNIT ( ) SI_UNIT ( $, .RADIAN. ) );
#128 = PRODUCT_DEFINITION ( 'UNKNOWN', '', #155, #25 ) ;
#129 =( NAMED_UNIT ( * ) SI_UNIT ( $, .STERADIAN. ) SOLID_ANGLE_UNIT ( ) );
#130 = COLOUR_RGB ( '',0.7921568627450980005, 0.8196078431372548767, 0.9333333333333333481 ) ;
#131 = UNCERTAINTY_MEASURE_WITH_UNIT (LENGTH_MEASURE( 1.000000000000000082E-05 ), #296, 'distance_accuracy_value', 'NONE');
#132 = DIRECTION ( 'NONE',  ( -0.000000000000000000, -1.000000000000000000, -0.000000000000000000 ) ) ;
#133 = FILL_AREA_STYLE ('',( #8 ) ) ;
#134 = DIMENSIONAL_EXPONENTS ( 1.000000000000000000, 0.000000000000000000, 0.000000000000000000, 0.000000000000000000, 0.000000000000000000, 0.000000000000000000, 0.000000000000000000 ) ;
#135 = CARTESIAN_POINT ( 'NONE',  ( 0.1562499999999999445, 2.500000000000000000, 1.913510623667739463E-17 ) ) ;
#136 = AXIS2_PLACEMENT_3D ( 'NONE', #40, #126, #206 ) ;
#137 = ORIENTED_EDGE ( 'NONE', *, *, #159, .T. ) ;
#138 = SURFACE_SIDE_STYLE ('',( #54 ) ) ;
#139 = PRODUCT_RELATED_PRODUCT_CATEGORY ( 'part', '', ( #189 ) ) ;
#140 = SURFACE_STYLE_USAGE ( .BOTH. , #274 ) ;
#141 = PRESENTATION_STYLE_ASSIGNMENT (( #140 ) ) ;
#142 =( NAMED_UNIT ( * ) PLANE_ANGLE_UNIT ( ) SI_UNIT ( $, .RADIAN. ) );
#143 = ADVANCED_FACE ( 'NONE', ( #258 ), #86, .F. ) ;
#144 = VERTEX_POINT ( 'NONE', #152 ) ;
#145 = PRODUCT_DEFINITION_SHAPE ( 'NONE', 'NONE',  #128 ) ;
#146 =( GEOMETRIC_REPRESENTATION_CONTEXT ( 3 ) GLOBAL_UNCERTAINTY_ASSIGNED_CONTEXT ( ( #150 ) ) GLOBAL_UNIT_ASSIGNED_CONTEXT ( ( #72, #174, #205 ) ) REPRESENTATION_CONTEXT ( 'NONE', 'WORKASPACE' ) );
#147 = CARTESIAN_POINT ( 'NONE',  ( -0.1562500000000001110, 2.500000000000000000, 0.000000000000000000 ) ) ;
#148 = ADVANCED_FACE ( 'NONE', ( #61 ), #80, .T. ) ;
#149 = DIRECTION ( 'NONE',  ( -3.628583108584750472E-17, 1.000000000000000000, -0.000000000000000000 ) ) ;
#150 = UNCERTAINTY_MEASURE_WITH_UNIT (LENGTH_MEASURE( 1.000000000000000082E-05 ), #72, 'distance_accuracy_value', 'NONE');
#151 =( NAMED_UNIT ( * ) PLANE_ANGLE_UNIT ( ) SI_UNIT ( $, .RADIAN. ) );
#152 = CARTESIAN_POINT ( 'NONE',  ( 0.000000000000000000, 0.000000000000000000, -0.1562500000000000000 ) ) ;
#153 = DIRECTION ( 'NONE',  ( 0.000000000000000000, 0.000000000000000000, -1.000000000000000000 ) ) ;
#154 = STYLED_ITEM ( 'NONE', ( #44 ), #113 ) ;
#155 = PRODUCT_DEFINITION_FORMATION_WITH_SPECIFIED_SOURCE ( 'ANY', '', #189, .NOT_KNOWN. ) ;
#156 = CIRCLE ( 'NONE', #204, 0.1562499999999999722 ) ;
#157 = DIMENSIONAL_EXPONENTS ( 1.000000000000000000, 0.000000000000000000, 0.000000000000000000, 0.000000000000000000, 0.000000000000000000, 0.000000000000000000, 0.000000000000000000 ) ;
#158 = SURFACE_STYLE_USAGE ( .BOTH. , #289 ) ;
#159 = EDGE_CURVE ( 'NONE', #227, #124, #10, .T. ) ;
#160 = DIRECTION ( 'NONE',  ( -1.000000000000000000, -3.628583108584750472E-17, 0.000000000000000000 ) ) ;
#161 = LINE ( 'NONE', #48, #268 ) ;
#162 = LENGTH_MEASURE_WITH_UNIT ( LENGTH_MEASURE( 0.02539999999999999897 ), #245 );
#163 = MECHANICAL_DESIGN_GEOMETRIC_PRESENTATION_REPRESENTATION (  '', ( #203 ), #226 ) ;
#164 = AXIS2_PLACEMENT_3D ( 'NONE', #169, #32, #11 ) ;
#165 = EDGE_CURVE ( 'NONE', #36, #53, #156, .T. ) ;
#166 = ORIENTED_EDGE ( 'NONE', *, *, #198, .T. ) ;
#167 =( LENGTH_UNIT ( ) NAMED_UNIT ( * ) SI_UNIT ( $, .METRE. ) );
#168 = EDGE_LOOP ( 'NONE', ( #225, #137, #175, #123 ) ) ;
#169 = CARTESIAN_POINT ( 'NONE',  ( 0.000000000000000000, 0.8125000000000000000, 0.000000000000000000 ) ) ;
#170 = ORIENTED_EDGE ( 'NONE', *, *, #118, .F. ) ;
#171 = EDGE_CURVE ( 'NONE', #124, #227, #223, .T. ) ;
#172 = FACE_OUTER_BOUND ( 'NONE', #194, .T. ) ;
#173 = ADVANCED_FACE ( 'NONE', ( #112 ), #241, .T. ) ;
#174 =( NAMED_UNIT ( * ) PLANE_ANGLE_UNIT ( ) SI_UNIT ( $, .RADIAN. ) );
#175 = ORIENTED_EDGE ( 'NONE', *, *, #118, .T. ) ;
#176 = CARTESIAN_POINT ( 'NONE',  ( -6.123233995736766036E-17, 2.500000000000000000, 0.000000000000000000 ) ) ;
#177 =( GEOMETRIC_REPRESENTATION_CONTEXT ( 3 ) GLOBAL_UNCERTAINTY_ASSIGNED_CONTEXT ( ( #42 ) ) GLOBAL_UNIT_ASSIGNED_CONTEXT ( ( #212, #151, #129 ) ) REPRESENTATION_CONTEXT ( 'NONE', 'WORKASPACE' ) );
#178 = AXIS2_PLACEMENT_3D ( 'NONE', #271, #115, #120 ) ;
#179 =( CONVERSION_BASED_UNIT ( 'INCH', #263 ) LENGTH_UNIT ( ) NAMED_UNIT ( #228 ) );
#180 = DIMENSIONAL_EXPONENTS ( 1.000000000000000000, 0.000000000000000000, 0.000000000000000000, 0.000000000000000000, 0.000000000000000000, 0.000000000000000000, 0.000000000000000000 ) ;
#181 = CARTESIAN_POINT ( 'NONE',  ( 0.000000000000000000, 0.000000000000000000, 0.000000000000000000 ) ) ;
#182 = CARTESIAN_POINT ( 'NONE',  ( 1.028641826242700682E-34, 0.8125000000000000000, 0.000000000000000000 ) ) ;
#183 =( NAMED_UNIT ( * ) PLANE_ANGLE_UNIT ( ) SI_UNIT ( $, .RADIAN. ) );
#184 = PLANE ( 'NONE',  #75 ) ;
#185 = DIRECTION ( 'NONE',  ( 0.000000000000000000, 0.000000000000000000, -1.000000000000000000 ) ) ;
#186 = DIRECTION ( 'NONE',  ( -3.628583108584750472E-17, 1.000000000000000000, -0.000000000000000000 ) ) ;
#187 = AXIS2_PLACEMENT_3D ( 'NONE', #59, #309, #255 ) ;
#188 = DIRECTION ( 'NONE',  ( -1.000000000000000000, 0.000000000000000000, 0.000000000000000000 ) ) ;
#189 = PRODUCT ( '24107', '24107', '', ( #207 ) ) ;
#190 = FACE_OUTER_BOUND ( 'NONE', #302, .T. ) ;
#191 = CARTESIAN_POINT ( 'NONE',  ( 0.000000000000000000, 0.000000000000000000, 0.000000000000000000 ) ) ;
#192 = ADVANCED_FACE ( 'NONE', ( #91 ), #217, .T. ) ;
#193 = DIRECTION ( 'NONE',  ( 0.000000000000000000, 1.000000000000000000, 0.000000000000000000 ) ) ;
#194 = EDGE_LOOP ( 'NONE', ( #30, #89 ) ) ;
#195 = FILL_AREA_STYLE_COLOUR ( '', #73 ) ;
#196 = ORIENTED_EDGE ( 'NONE', *, *, #198, .F. ) ;
#197 =( CONVERSION_BASED_UNIT ( 'INCH', #162 ) LENGTH_UNIT ( ) NAMED_UNIT ( #134 ) );
#198 = EDGE_CURVE ( 'NONE', #53, #38, #161, .T. ) ;
#199 = VECTOR ( 'NONE', #28, 39.37007874015748143 ) ;
#200 = FACE_OUTER_BOUND ( 'NONE', #222, .T. ) ;
#201 = SURFACE_STYLE_USAGE ( .BOTH. , #76 ) ;
#202 = EDGE_LOOP ( 'NONE', ( #220, #125, #218, #170 ) ) ;
#203 = STYLED_ITEM ( 'NONE', ( #68 ), #192 ) ;
#204 = AXIS2_PLACEMENT_3D ( 'NONE', #69, #216, #117 ) ;
#205 =( NAMED_UNIT ( * ) SI_UNIT ( $, .STERADIAN. ) SOLID_ANGLE_UNIT ( ) );
#206 = DIRECTION ( 'NONE',  ( 1.000000000000000000, 3.628583108584750472E-17, 0.000000000000000000 ) ) ;
#207 = PRODUCT_CONTEXT ( 'NONE', #90, 'mechanical' ) ;
#208 = STYLED_ITEM ( 'NONE', ( #141 ), #173 ) ;
#209 = CARTESIAN_POINT ( 'NONE',  ( 0.000000000000000000, 0.000000000000000000, 0.000000000000000000 ) ) ;
#210 = DIRECTION ( 'NONE',  ( -1.000000000000000000, 0.000000000000000000, 0.000000000000000000 ) ) ;
#211 =( NAMED_UNIT ( * ) SI_UNIT ( $, .STERADIAN. ) SOLID_ANGLE_UNIT ( ) );
#212 =( CONVERSION_BASED_UNIT ( 'INCH', #261 ) LENGTH_UNIT ( ) NAMED_UNIT ( #235 ) );
#213 = FILL_AREA_STYLE ('',( #47 ) ) ;
#214 = DIMENSIONAL_EXPONENTS ( 1.000000000000000000, 0.000000000000000000, 0.000000000000000000, 0.000000000000000000, 0.000000000000000000, 0.000000000000000000, 0.000000000000000000 ) ;
#215 = SURFACE_SIDE_STYLE ('',( #24 ) ) ;
#216 = DIRECTION ( 'NONE',  ( -3.628583108584750472E-17, 1.000000000000000000, -0.000000000000000000 ) ) ;
#217 = CYLINDRICAL_SURFACE ( 'NONE', #260, 0.1562500000000000000 ) ;
#218 = ORIENTED_EDGE ( 'NONE', *, *, #221, .F. ) ;
#219 = FILL_AREA_STYLE ('',( #195 ) ) ;
#220 = ORIENTED_EDGE ( 'NONE', *, *, #171, .T. ) ;
#221 = EDGE_CURVE ( 'NONE', #144, #116, #39, .T. ) ;
#222 = EDGE_LOOP ( 'NONE', ( #67, #284, #166, #305 ) ) ;
#223 = CIRCLE ( 'NONE', #164, 0.1562499999999999722 ) ;
#224 = PRESENTATION_STYLE_ASSIGNMENT (( #201 ) ) ;
#225 = ORIENTED_EDGE ( 'NONE', *, *, #250, .F. ) ;
#226 =( GEOMETRIC_REPRESENTATION_CONTEXT ( 3 ) GLOBAL_UNCERTAINTY_ASSIGNED_CONTEXT ( ( #131 ) ) GLOBAL_UNIT_ASSIGNED_CONTEXT ( ( #296, #183, #236 ) ) REPRESENTATION_CONTEXT ( 'NONE', 'WORKASPACE' ) );
#227 = VERTEX_POINT ( 'NONE', #265 ) ;
#228 = DIMENSIONAL_EXPONENTS ( 1.000000000000000000, 0.000000000000000000, 0.000000000000000000, 0.000000000000000000, 0.000000000000000000, 0.000000000000000000, 0.000000000000000000 ) ;
#229 = EDGE_CURVE ( 'NONE', #116, #144, #103, .T. ) ;
#230 = ORIENTED_EDGE ( 'NONE', *, *, #165, .F. ) ;
#231 =( NAMED_UNIT ( * ) SI_UNIT ( $, .STERADIAN. ) SOLID_ANGLE_UNIT ( ) );
#232 = MECHANICAL_DESIGN_GEOMETRIC_PRESENTATION_REPRESENTATION (  '', ( #85 ), #146 ) ;
#233 = CARTESIAN_POINT ( 'NONE',  ( 0.000000000000000000, 0.8125000000000000000, -0.1562499999999999722 ) ) ;
#234 = DIRECTION ( 'NONE',  ( -3.628583108584750472E-17, 1.000000000000000000, -0.000000000000000000 ) ) ;
#235 = DIMENSIONAL_EXPONENTS ( 1.000000000000000000, 0.000000000000000000, 0.000000000000000000, 0.000000000000000000, 0.000000000000000000, 0.000000000000000000, 0.000000000000000000 ) ;
#236 =( NAMED_UNIT ( * ) SI_UNIT ( $, .STERADIAN. ) SOLID_ANGLE_UNIT ( ) );
#237 = DIRECTION ( 'NONE',  ( -0.000000000000000000, -1.000000000000000000, -0.000000000000000000 ) ) ;
#238 = VECTOR ( 'NONE', #267, 39.37007874015748143 ) ;
#239 = COLOUR_RGB ( '',1.000000000000000000, 0.000000000000000000, 0.000000000000000000 ) ;
#240 = CARTESIAN_POINT ( 'NONE',  ( 1.913510623667739463E-17, 0.000000000000000000, 0.1562500000000000000 ) ) ;
#241 = CYLINDRICAL_SURFACE ( 'NONE', #285, 0.1562500000000000000 ) ;
#242 = EDGE_CURVE ( 'NONE', #36, #251, #23, .T. ) ;
#243 =( NAMED_UNIT ( * ) SI_UNIT ( $, .STERADIAN. ) SOLID_ANGLE_UNIT ( ) );
#244 = AXIS2_PLACEMENT_3D ( 'NONE', #182, #62, #160 ) ;
#245 =( LENGTH_UNIT ( ) NAMED_UNIT ( * ) SI_UNIT ( $, .METRE. ) );
#246 = STYLED_ITEM ( 'NONE', ( #288 ), #252 ) ;
#247 = ORIENTED_EDGE ( 'NONE', *, *, #60, .T. ) ;
#248 = CIRCLE ( 'NONE', #187, 0.1562499999999999722 ) ;
#249 = CARTESIAN_POINT ( 'NONE',  ( 0.000000000000000000, 0.8125000000000000000, 0.000000000000000000 ) ) ;
#250 = EDGE_CURVE ( 'NONE', #227, #116, #264, .T. ) ;
#251 = VERTEX_POINT ( 'NONE', #111 ) ;
#252 = MANIFOLD_SOLID_BREP ( 'Revolve - Cutting Edge', #299 ) ;
#253 = PRESENTATION_LAYER_ASSIGNMENT (  '', '', ( #208 ) ) ;
#254 = DIRECTION ( 'NONE',  ( 0.000000000000000000, 0.000000000000000000, 1.000000000000000000 ) ) ;
#255 = DIRECTION ( 'NONE',  ( -1.000000000000000000, 0.000000000000000000, 0.000000000000000000 ) ) ;
#256 = EDGE_LOOP ( 'NONE', ( #247, #19, #257, #196 ) ) ;
#257 = ORIENTED_EDGE ( 'NONE', *, *, #3, .F. ) ;
#258 = FACE_OUTER_BOUND ( 'NONE', #272, .T. ) ;
#259 = SURFACE_STYLE_USAGE ( .BOTH. , #290 ) ;
#260 = AXIS2_PLACEMENT_3D ( 'NONE', #87, #114, #185 ) ;
#261 = LENGTH_MEASURE_WITH_UNIT ( LENGTH_MEASURE( 0.02539999999999999897 ), #108 );
#262 = MECHANICAL_DESIGN_GEOMETRIC_PRESENTATION_REPRESENTATION (  '', ( #281 ), #286 ) ;
#263 = LENGTH_MEASURE_WITH_UNIT ( LENGTH_MEASURE( 0.02539999999999999897 ), #43 );
#264 = LINE ( 'NONE', #240, #238 ) ;
#265 = CARTESIAN_POINT ( 'NONE',  ( 1.913510623667738847E-17, 0.8125000000000000000, 0.1562499999999999722 ) ) ;
#266 = SURFACE_STYLE_FILL_AREA ( #213 ) ;
#267 = DIRECTION ( 'NONE',  ( -0.000000000000000000, -1.000000000000000000, -0.000000000000000000 ) ) ;
#268 = VECTOR ( 'NONE', #63, 39.37007874015748143 ) ;
#269 = SURFACE_STYLE_USAGE ( .BOTH. , #138 ) ;
#270 = PRESENTATION_LAYER_ASSIGNMENT (  '', '', ( #85 ) ) ;
#271 = CARTESIAN_POINT ( 'NONE',  ( 0.000000000000000000, 0.8125000000000000000, 0.000000000000000000 ) ) ;
#272 = EDGE_LOOP ( 'NONE', ( #283, #230 ) ) ;
#273 = AXIS2_PLACEMENT_3D ( 'NONE', #21, #254, #102 ) ;
#274 = SURFACE_SIDE_STYLE ('',( #56 ) ) ;
#275 = CIRCLE ( 'NONE', #122, 0.1562500000000000278 ) ;
#276 = UNCERTAINTY_MEASURE_WITH_UNIT (LENGTH_MEASURE( 1.000000000000000082E-05 ), #1, 'distance_accuracy_value', 'NONE');
#277 = ORIENTED_EDGE ( 'NONE', *, *, #159, .F. ) ;
#278 = ADVANCED_FACE ( 'NONE', ( #106 ), #7, .T. ) ;
#279 = PLANE ( 'NONE',  #136 ) ;
#280 = AXIS2_PLACEMENT_3D ( 'NONE', #181, #132, #46 ) ;
#281 = STYLED_ITEM ( 'NONE', ( #107 ), #148 ) ;
#282 = SURFACE_STYLE_FILL_AREA ( #22 ) ;
#283 = ORIENTED_EDGE ( 'NONE', *, *, #60, .F. ) ;
#284 = ORIENTED_EDGE ( 'NONE', *, *, #165, .T. ) ;
#285 = AXIS2_PLACEMENT_3D ( 'NONE', #191, #119, #297 ) ;
#286 =( GEOMETRIC_REPRESENTATION_CONTEXT ( 3 ) GLOBAL_UNCERTAINTY_ASSIGNED_CONTEXT ( ( #94 ) ) GLOBAL_UNIT_ASSIGNED_CONTEXT ( ( #179, #127, #211 ) ) REPRESENTATION_CONTEXT ( 'NONE', 'WORKASPACE' ) );
#287 = DIRECTION ( 'NONE',  ( 0.000000000000000000, -1.000000000000000000, -0.000000000000000000 ) ) ;
#288 = PRESENTATION_STYLE_ASSIGNMENT (( #50 ) ) ;
#289 = SURFACE_SIDE_STYLE ('',( #83 ) ) ;
#290 = SURFACE_SIDE_STYLE ('',( #266 ) ) ;
#291 =( CONVERSION_BASED_UNIT ( 'INCH', #84 ) LENGTH_UNIT ( ) NAMED_UNIT ( #180 ) );
#292 = COLOUR_RGB ( '',1.000000000000000000, 0.000000000000000000, 0.000000000000000000 ) ;
#293 = DIRECTION ( 'NONE',  ( 0.000000000000000000, 0.000000000000000000, -1.000000000000000000 ) ) ;
#294 =( LENGTH_UNIT ( ) NAMED_UNIT ( * ) SI_UNIT ( $, .METRE. ) );
#295 =( LENGTH_UNIT ( ) NAMED_UNIT ( * ) SI_UNIT ( $, .METRE. ) );
#296 =( CONVERSION_BASED_UNIT ( 'INCH', #15 ) LENGTH_UNIT ( ) NAMED_UNIT ( #157 ) );
#297 = DIRECTION ( 'NONE',  ( 0.000000000000000000, 0.000000000000000000, -1.000000000000000000 ) ) ;
#298 = MECHANICAL_DESIGN_GEOMETRIC_PRESENTATION_REPRESENTATION (  '', ( #208 ), #2 ) ;
#299 = CLOSED_SHELL ( 'NONE', ( #173, #148, #192, #113 ) ) ;
#300 = EDGE_LOOP ( 'NONE', ( #93, #277 ) ) ;
#301 =( NAMED_UNIT ( * ) PLANE_ANGLE_UNIT ( ) SI_UNIT ( $, .RADIAN. ) );
#302 = EDGE_LOOP ( 'NONE', ( #18, #77 ) ) ;
#303 = DIRECTION ( 'NONE',  ( -1.000000000000000000, 0.000000000000000000, 0.000000000000000000 ) ) ;
#304 = CARTESIAN_POINT ( 'NONE',  ( -0.1562499999999999722, 0.8125000000000001110, 0.000000000000000000 ) ) ;
#305 = ORIENTED_EDGE ( 'NONE', *, *, #101, .F. ) ;
#306 =( GEOMETRIC_REPRESENTATION_CONTEXT ( 3 ) GLOBAL_UNCERTAINTY_ASSIGNED_CONTEXT ( ( #121 ) ) GLOBAL_UNIT_ASSIGNED_CONTEXT ( ( #291, #142, #243 ) ) REPRESENTATION_CONTEXT ( 'NONE', 'WORKASPACE' ) );
#307 = AXIS2_PLACEMENT_3D ( 'NONE', #249, #193, #29 ) ;
#308 = FILL_AREA_STYLE_COLOUR ( '', #104 ) ;
#309 = DIRECTION ( 'NONE',  ( -3.628583108584750472E-17, 1.000000000000000000, -0.000000000000000000 ) ) ;
ENDSEC;
END-ISO-10303-21;
