ISO-10303-21;
HEADER;
FILE_DESCRIPTION (( 'STEP AP214' ),
    '1' );
FILE_NAME ('Micro_RDA-30.STEP',
    '2021-08-31T16:58:44',
    ( '' ),
    ( '' ),
    'SwSTEP 2.0',
    'SolidWorks 2020',
    '' );
FILE_SCHEMA (( 'AUTOMOTIVE_DESIGN' ));
ENDSEC;

DATA;
#1 = ORIENTED_EDGE ( 'NONE', *, *, #149, .F. ) ;
#2 = CIRCLE ( 'NONE', #42, 0.04750000000000064587 ) ;
#3 = UNCERTAINTY_MEASURE_WITH_UNIT (LENGTH_MEASURE( 1.000000000000000082E-05 ), #203, 'distance_accuracy_value', 'NONE');
#4 = ORIENTED_EDGE ( 'NONE', *, *, #184, .F. ) ;
#5 = DIRECTION ( 'NONE',  ( 0.0000000000000000000, 0.0000000000000000000, 1.000000000000000000 ) ) ;
#6 = EDGE_LOOP ( 'NONE', ( #255, #185 ) ) ;
#7 = ORIENTED_EDGE ( 'NONE', *, *, #14, .T. ) ;
#8 =( NAMED_UNIT ( * ) PLANE_ANGLE_UNIT ( ) SI_UNIT ( $, .RADIAN. ) );
#9 = APPLICATION_CONTEXT ( 'automotive_design' ) ;
#10 = FILL_AREA_STYLE ('',( #81 ) ) ;
#11 = CARTESIAN_POINT ( 'NONE',  ( 6.123233995736767268E-17, 0.0000000000000000000, 0.5000000000000000000 ) ) ;
#12 = AXIS2_PLACEMENT_3D ( 'NONE', #298, #295, #86 ) ;
#13 = CARTESIAN_POINT ( 'NONE',  ( 0.0000000000000000000, 0.0000000000000000000, 1.485000000000000764 ) ) ;
#14 = EDGE_CURVE ( 'NONE', #70, #163, #164, .T. ) ;
#15 = LENGTH_MEASURE_WITH_UNIT ( LENGTH_MEASURE( 0.02539999999999999897 ), #243 );
#16 = CARTESIAN_POINT ( 'NONE',  ( 0.06250000000000002776, 7.654042494670959086E-18, 1.485000000000000764 ) ) ;
#17 = LINE ( 'NONE', #249, #278 ) ;
#18 = STYLED_ITEM ( 'NONE', ( #143 ), #128 ) ;
#19 = CARTESIAN_POINT ( 'NONE',  ( -0.06243749999999999994, 0.0000000000000000000, 1.529277690435257783E-17 ) ) ;
#20 = EDGE_CURVE ( 'NONE', #76, #70, #199, .T. ) ;
#21 = DIRECTION ( 'NONE',  ( -1.000000000000000000, 0.0000000000000000000, 1.224646799147353454E-16 ) ) ;
#22 = CARTESIAN_POINT ( 'NONE',  ( 0.0000000000000000000, 0.0000000000000000000, 0.0000000000000000000 ) ) ;
#23 = ADVANCED_FACE ( 'NONE', ( #25 ), #147, .T. ) ;
#24 =( NAMED_UNIT ( * ) PLANE_ANGLE_UNIT ( ) SI_UNIT ( $, .RADIAN. ) );
#25 = FACE_OUTER_BOUND ( 'NONE', #73, .T. ) ;
#26 = ORIENTED_EDGE ( 'NONE', *, *, #61, .T. ) ;
#27 =( GEOMETRIC_REPRESENTATION_CONTEXT ( 3 ) GLOBAL_UNCERTAINTY_ASSIGNED_CONTEXT ( ( #256 ) ) GLOBAL_UNIT_ASSIGNED_CONTEXT ( ( #235, #145, #186 ) ) REPRESENTATION_CONTEXT ( 'NONE', 'WORKASPACE' ) );
#28 = ORIENTED_EDGE ( 'NONE', *, *, #110, .F. ) ;
#29 = ORIENTED_EDGE ( 'NONE', *, *, #51, .F. ) ;
#30 = DIRECTION ( 'NONE',  ( -0.0000000000000000000, -0.0000000000000000000, -1.000000000000000000 ) ) ;
#31 = COLOUR_RGB ( '',0.7921568627450980005, 0.8196078431372548767, 0.9333333333333333481 ) ;
#32 = CARTESIAN_POINT ( 'NONE',  ( -0.04750000000000064587, 0.0000000000000000000, 1.500000000000000222 ) ) ;
#33 = DIMENSIONAL_EXPONENTS ( 1.000000000000000000, 0.0000000000000000000, 0.0000000000000000000, 0.0000000000000000000, 0.0000000000000000000, 0.0000000000000000000, 0.0000000000000000000 ) ;
#34 = CARTESIAN_POINT ( 'NONE',  ( 0.06243750000000001382, 7.646388452176287375E-18, 0.0000000000000000000 ) ) ;
#35 = DIRECTION ( 'NONE',  ( -1.000000000000000000, 0.0000000000000000000, 0.0000000000000000000 ) ) ;
#36 = EDGE_CURVE ( 'NONE', #98, #97, #242, .T. ) ;
#37 = PRODUCT_DEFINITION_FORMATION_WITH_SPECIFIED_SOURCE ( 'ANY', '', #200, .NOT_KNOWN. ) ;
#38 = DIRECTION ( 'NONE',  ( -1.224646799147353454E-16, -0.0000000000000000000, -1.000000000000000000 ) ) ;
#39 = ADVANCED_FACE ( 'NONE', ( #125 ), #126, .T. ) ;
#40 = DIRECTION ( 'NONE',  ( 1.000000000000000000, 0.0000000000000000000, 0.0000000000000000000 ) ) ;
#41 = AXIS2_PLACEMENT_3D ( 'NONE', #129, #150, #222 ) ;
#42 = AXIS2_PLACEMENT_3D ( 'NONE', #274, #246, #112 ) ;
#43 = ORIENTED_EDGE ( 'NONE', *, *, #57, .T. ) ;
#44 = EDGE_LOOP ( 'NONE', ( #299, #7, #187, #28 ) ) ;
#45 = ORIENTED_EDGE ( 'NONE', *, *, #226, .T. ) ;
#46 = SURFACE_SIDE_STYLE ('',( #165 ) ) ;
#47 = ADVANCED_FACE ( 'NONE', ( #173 ), #233, .T. ) ;
#48 = VERTEX_POINT ( 'NONE', #34 ) ;
#49 = ORIENTED_EDGE ( 'NONE', *, *, #226, .F. ) ;
#50 = DIMENSIONAL_EXPONENTS ( 1.000000000000000000, 0.0000000000000000000, 0.0000000000000000000, 0.0000000000000000000, 0.0000000000000000000, 0.0000000000000000000, 0.0000000000000000000 ) ;
#51 = EDGE_CURVE ( 'NONE', #76, #48, #290, .T. ) ;
#52 = DIRECTION ( 'NONE',  ( -0.0000000000000000000, -0.0000000000000000000, -1.000000000000000000 ) ) ;
#53 = MECHANICAL_DESIGN_GEOMETRIC_PRESENTATION_REPRESENTATION (  '', ( #277 ), #171 ) ;
#54 = CARTESIAN_POINT ( 'NONE',  ( 0.0000000000000000000, 0.0000000000000000000, 1.485000000000000764 ) ) ;
#55 = CYLINDRICAL_SURFACE ( 'NONE', #194, 0.06250000000000002776 ) ;
#56 = PRESENTATION_STYLE_ASSIGNMENT (( #267 ) ) ;
#57 = EDGE_CURVE ( 'NONE', #98, #281, #78, .T. ) ;
#58 = VECTOR ( 'NONE', #266, 39.37007874015748143 ) ;
#59 = FACE_OUTER_BOUND ( 'NONE', #231, .T. ) ;
#60 = FACE_OUTER_BOUND ( 'NONE', #123, .T. ) ;
#61 = EDGE_CURVE ( 'NONE', #281, #212, #152, .T. ) ;
#62 = CIRCLE ( 'NONE', #134, 0.06243749999999999994 ) ;
#63 = DIRECTION ( 'NONE',  ( 1.000000000000000000, 0.0000000000000000000, -0.0000000000000000000 ) ) ;
#64 = CYLINDRICAL_SURFACE ( 'NONE', #108, 0.06243749999999999301 ) ;
#65 = ADVANCED_FACE ( 'NONE', ( #59 ), #55, .T. ) ;
#66 = DIRECTION ( 'NONE',  ( -1.224646799147353454E-16, -0.0000000000000000000, -1.000000000000000000 ) ) ;
#67 = AXIS2_PLACEMENT_3D ( 'NONE', #167, #257, #254 ) ;
#68 = AXIS2_PLACEMENT_3D ( 'NONE', #207, #135, #63 ) ;
#69 = EDGE_LOOP ( 'NONE', ( #169, #75, #1, #144 ) ) ;
#70 = VERTEX_POINT ( 'NONE', #262 ) ;
#71 = EDGE_CURVE ( 'NONE', #70, #76, #142, .T. ) ;
#72 = PRODUCT_DEFINITION_CONTEXT ( 'detailed design', #9, 'design' ) ;
#73 = EDGE_LOOP ( 'NONE', ( #280, #26, #213, #234 ) ) ;
#74 = FILL_AREA_STYLE_COLOUR ( '', #166 ) ;
#75 = ORIENTED_EDGE ( 'NONE', *, *, #51, .T. ) ;
#76 = VERTEX_POINT ( 'NONE', #151 ) ;
#77 = EDGE_CURVE ( 'NONE', #70, #189, #292, .T. ) ;
#78 = LINE ( 'NONE', #201, #283 ) ;
#79 = DIRECTION ( 'NONE',  ( 1.000000000000000000, 0.0000000000000000000, 0.0000000000000000000 ) ) ;
#80 = DIRECTION ( 'NONE',  ( -1.000000000000000000, 0.0000000000000000000, 0.0000000000000000000 ) ) ;
#81 = FILL_AREA_STYLE_COLOUR ( '', #31 ) ;
#82 = AXIS2_PLACEMENT_3D ( 'NONE', #11, #170, #286 ) ;
#83 = APPLICATION_CONTEXT ( 'automotive_design' ) ;
#84 = ADVANCED_FACE ( 'NONE', ( #105 ), #139, .T. ) ;
#85 =( CONVERSION_BASED_UNIT ( 'INCH', #133 ) LENGTH_UNIT ( ) NAMED_UNIT ( #33 ) );
#86 = DIRECTION ( 'NONE',  ( -1.000000000000000000, 0.0000000000000000000, 0.0000000000000000000 ) ) ;
#87 = ADVANCED_FACE ( 'NONE', ( #241 ), #263, .T. ) ;
#88 = AXIS2_PLACEMENT_3D ( 'NONE', #113, #205, #204 ) ;
#89 = CARTESIAN_POINT ( 'NONE',  ( -0.04750000000000064587, 0.0000000000000000000, 1.500000000000000222 ) ) ;
#90 = ORIENTED_EDGE ( 'NONE', *, *, #127, .F. ) ;
#91 = CARTESIAN_POINT ( 'NONE',  ( -0.06250000000000002776, 0.0000000000000000000, 1.500000000000000222 ) ) ;
#92 = ORIENTED_EDGE ( 'NONE', *, *, #216, .F. ) ;
#93 = SURFACE_STYLE_USAGE ( .BOTH. , #46 ) ;
#94 = ORIENTED_EDGE ( 'NONE', *, *, #100, .F. ) ;
#95 = LENGTH_MEASURE_WITH_UNIT ( LENGTH_MEASURE( 0.02539999999999999897 ), #101 );
#96 = CONICAL_SURFACE ( 'NONE', #12, 0.04750000000000064587, 0.7853981633974466137 ) ;
#97 = VERTEX_POINT ( 'NONE', #32 ) ;
#98 = VERTEX_POINT ( 'NONE', #219 ) ;
#99 = EDGE_LOOP ( 'NONE', ( #215, #49, #141, #211 ) ) ;
#100 = EDGE_CURVE ( 'NONE', #163, #140, #161, .T. ) ;
#101 =( LENGTH_UNIT ( ) NAMED_UNIT ( * ) SI_UNIT ( $, .METRE. ) );
#102 = CARTESIAN_POINT ( 'NONE',  ( 0.0000000000000000000, 0.0000000000000000000, 1.500000000000000222 ) ) ;
#103 = AXIS2_PLACEMENT_3D ( 'NONE', #179, #250, #136 ) ;
#104 = MANIFOLD_SOLID_BREP ( 'Cut-Revolve1', #124 ) ;
#105 = FACE_OUTER_BOUND ( 'NONE', #251, .T. ) ;
#106 = CARTESIAN_POINT ( 'NONE',  ( 0.06243749999999999301, 7.646388452176285834E-18, -7.646388452176287375E-18 ) ) ;
#107 = AXIS2_PLACEMENT_3D ( 'NONE', #54, #240, #79 ) ;
#108 = AXIS2_PLACEMENT_3D ( 'NONE', #22, #210, #21 ) ;
#109 = DIRECTION ( 'NONE',  ( 1.000000000000000000, 0.0000000000000000000, 0.0000000000000000000 ) ) ;
#110 = EDGE_CURVE ( 'NONE', #76, #140, #181, .T. ) ;
#111 = VECTOR ( 'NONE', #208, 39.37007874015748143 ) ;
#112 = DIRECTION ( 'NONE',  ( 1.000000000000000000, 0.0000000000000000000, 0.0000000000000000000 ) ) ;
#113 = CARTESIAN_POINT ( 'NONE',  ( 9.364125142994977476E-34, 0.0000000000000000000, 7.646388452176288915E-18 ) ) ;
#114 = FACE_OUTER_BOUND ( 'NONE', #69, .T. ) ;
#115 = VECTOR ( 'NONE', #38, 39.37007874015748143 ) ;
#116 = DIRECTION ( 'NONE',  ( 0.0000000000000000000, 0.0000000000000000000, -1.000000000000000000 ) ) ;
#117 = APPLICATION_PROTOCOL_DEFINITION ( 'draft international standard', 'automotive_design', 1998, #83 ) ;
#118 = CARTESIAN_POINT ( 'NONE',  ( 0.0000000000000000000, 0.0000000000000000000, 1.500000000000000222 ) ) ;
#119 = ORIENTED_EDGE ( 'NONE', *, *, #110, .T. ) ;
#120 = CARTESIAN_POINT ( 'NONE',  ( 0.0000000000000000000, 0.0000000000000000000, 0.0000000000000000000 ) ) ;
#121 = ORIENTED_EDGE ( 'NONE', *, *, #14, .F. ) ;
#122 = ORIENTED_EDGE ( 'NONE', *, *, #20, .T. ) ;
#123 = EDGE_LOOP ( 'NONE', ( #236, #43, #90, #232 ) ) ;
#124 = CLOSED_SHELL ( 'NONE', ( #132, #47, #206, #65, #23, #197, #87, #84, #39, #269 ) ) ;
#125 = FACE_OUTER_BOUND ( 'NONE', #285, .T. ) ;
#126 = CYLINDRICAL_SURFACE ( 'NONE', #238, 0.06243749999999999301 ) ;
#127 = EDGE_CURVE ( 'NONE', #212, #281, #131, .T. ) ;
#128 = ADVANCED_BREP_SHAPE_REPRESENTATION ( 'Micro_RDA-30', ( #104, #268 ), #217 ) ;
#129 = CARTESIAN_POINT ( 'NONE',  ( 6.127574818941430966E-17, 0.0000000000000000000, 0.5003544551137263374 ) ) ;
#130 = AXIS2_PLACEMENT_3D ( 'NONE', #102, #282, #195 ) ;
#131 = CIRCLE ( 'NONE', #253, 0.06250000000000002776 ) ;
#132 = ADVANCED_FACE ( 'NONE', ( #114 ), #64, .T. ) ;
#133 = LENGTH_MEASURE_WITH_UNIT ( LENGTH_MEASURE( 0.02539999999999999897 ), #294 );
#134 = AXIS2_PLACEMENT_3D ( 'NONE', #271, #138, #225 ) ;
#135 = DIRECTION ( 'NONE',  ( 0.0000000000000000000, 0.0000000000000000000, 1.000000000000000000 ) ) ;
#136 = DIRECTION ( 'NONE',  ( 1.000000000000000000, 0.0000000000000000000, -0.0000000000000000000 ) ) ;
#137 = EDGE_CURVE ( 'NONE', #97, #212, #229, .T. ) ;
#138 = DIRECTION ( 'NONE',  ( -1.224646799147353454E-16, -0.0000000000000000000, -1.000000000000000000 ) ) ;
#139 = CONICAL_SURFACE ( 'NONE', #264, 0.06243749999999999301, 0.1745329251994338915 ) ;
#140 = VERTEX_POINT ( 'NONE', #156 ) ;
#141 = ORIENTED_EDGE ( 'NONE', *, *, #137, .T. ) ;
#142 = CIRCLE ( 'NONE', #82, 0.06243749999999999301 ) ;
#143 = PRESENTATION_STYLE_ASSIGNMENT (( #93 ) ) ;
#144 = ORIENTED_EDGE ( 'NONE', *, *, #77, .F. ) ;
#145 =( NAMED_UNIT ( * ) PLANE_ANGLE_UNIT ( ) SI_UNIT ( $, .RADIAN. ) );
#146 = DIRECTION ( 'NONE',  ( -0.1736481776669311916, 2.126576849575783316E-17, 0.9848077530122080203 ) ) ;
#147 = CYLINDRICAL_SURFACE ( 'NONE', #221, 0.06250000000000002776 ) ;
#148 = DIRECTION ( 'NONE',  ( 1.224646799147353454E-16, 0.0000000000000000000, 1.000000000000000000 ) ) ;
#149 = EDGE_CURVE ( 'NONE', #189, #48, #289, .T. ) ;
#150 = DIRECTION ( 'NONE',  ( -1.224646799147353454E-16, -0.0000000000000000000, -1.000000000000000000 ) ) ;
#151 = CARTESIAN_POINT ( 'NONE',  ( 0.06243750000000005546, 0.0000000000000000000, 0.5000000000000000000 ) ) ;
#152 = CIRCLE ( 'NONE', #107, 0.06250000000000002776 ) ;
#153 = AXIS2_PLACEMENT_3D ( 'NONE', #183, #66, #40 ) ;
#154 = CARTESIAN_POINT ( 'NONE',  ( 6.123233995736767268E-17, 0.0000000000000000000, 0.5000000000000000000 ) ) ;
#155 = DIRECTION ( 'NONE',  ( -0.0000000000000000000, -0.0000000000000000000, -1.000000000000000000 ) ) ;
#156 = CARTESIAN_POINT ( 'NONE',  ( 0.06250000000000008327, 7.654042494670966789E-18, 0.5003544551137263374 ) ) ;
#157 = CARTESIAN_POINT ( 'NONE',  ( 0.06243750000000005546, 0.0000000000000000000, 0.5000000000000000000 ) ) ;
#158 = DIRECTION ( 'NONE',  ( -0.7071067811865462405, 0.0000000000000000000, -0.7071067811865486830 ) ) ;
#159 = PLANE ( 'NONE',  #103 ) ;
#160 = EDGE_CURVE ( 'NONE', #281, #140, #17, .T. ) ;
#161 = CIRCLE ( 'NONE', #41, 0.06250000000000002776 ) ;
#162 = CARTESIAN_POINT ( 'NONE',  ( -0.06243749999999993749, 7.646388452176285834E-18, 0.5000000000000000000 ) ) ;
#163 = VERTEX_POINT ( 'NONE', #180 ) ;
#164 = LINE ( 'NONE', #162, #293 ) ;
#165 = SURFACE_STYLE_FILL_AREA ( #192 ) ;
#166 = COLOUR_RGB ( '',0.7921568627450980005, 0.8196078431372548767, 0.9333333333333333481 ) ;
#167 = CARTESIAN_POINT ( 'NONE',  ( 6.123233995736767268E-17, 0.0000000000000000000, 0.5000000000000000000 ) ) ;
#168 = DIRECTION ( 'NONE',  ( 1.000000000000000000, 0.0000000000000000000, 0.0000000000000000000 ) ) ;
#169 = ORIENTED_EDGE ( 'NONE', *, *, #71, .T. ) ;
#170 = DIRECTION ( 'NONE',  ( -1.224646799147353454E-16, -0.0000000000000000000, -1.000000000000000000 ) ) ;
#171 =( GEOMETRIC_REPRESENTATION_CONTEXT ( 3 ) GLOBAL_UNCERTAINTY_ASSIGNED_CONTEXT ( ( #3 ) ) GLOBAL_UNIT_ASSIGNED_CONTEXT ( ( #203, #8, #270 ) ) REPRESENTATION_CONTEXT ( 'NONE', 'WORKASPACE' ) );
#172 = DIRECTION ( 'NONE',  ( 1.224646799147353454E-16, 0.0000000000000000000, 1.000000000000000000 ) ) ;
#173 = FACE_OUTER_BOUND ( 'NONE', #44, .T. ) ;
#174 = PRODUCT_DEFINITION_SHAPE ( 'NONE', 'NONE',  #288 ) ;
#175 = PRODUCT_RELATED_PRODUCT_CATEGORY ( 'part', '', ( #200 ) ) ;
#176 = SURFACE_STYLE_FILL_AREA ( #10 ) ;
#177 = DIRECTION ( 'NONE',  ( -1.000000000000000000, 0.0000000000000000000, 1.224646799147353454E-16 ) ) ;
#178 = AXIS2_PLACEMENT_3D ( 'NONE', #202, #172, #224 ) ;
#179 = CARTESIAN_POINT ( 'NONE',  ( 0.0000000000000000000, 0.0000000000000000000, 0.0000000000000000000 ) ) ;
#180 = CARTESIAN_POINT ( 'NONE',  ( -0.06249999999999996531, 0.0000000000000000000, 0.5003544551137263374 ) ) ;
#181 = LINE ( 'NONE', #157, #111 ) ;
#182 = FACE_OUTER_BOUND ( 'NONE', #237, .T. ) ;
#183 = CARTESIAN_POINT ( 'NONE',  ( 6.127574818941430966E-17, 0.0000000000000000000, 0.5003544551137263374 ) ) ;
#184 = EDGE_CURVE ( 'NONE', #48, #189, #62, .T. ) ;
#185 = ORIENTED_EDGE ( 'NONE', *, *, #184, .T. ) ;
#186 =( NAMED_UNIT ( * ) SI_UNIT ( $, .STERADIAN. ) SOLID_ANGLE_UNIT ( ) );
#187 = ORIENTED_EDGE ( 'NONE', *, *, #100, .T. ) ;
#188 = PRESENTATION_LAYER_ASSIGNMENT (  '', '', ( #277 ) ) ;
#189 = VERTEX_POINT ( 'NONE', #19 ) ;
#190 = UNCERTAINTY_MEASURE_WITH_UNIT (LENGTH_MEASURE( 1.000000000000000082E-05 ), #85, 'distance_accuracy_value', 'NONE');
#191 = ORIENTED_EDGE ( 'NONE', *, *, #36, .T. ) ;
#192 = FILL_AREA_STYLE ('',( #74 ) ) ;
#193 = DIRECTION ( 'NONE',  ( -1.000000000000000000, 0.0000000000000000000, 0.0000000000000000000 ) ) ;
#194 = AXIS2_PLACEMENT_3D ( 'NONE', #196, #52, #80 ) ;
#195 = DIRECTION ( 'NONE',  ( 1.000000000000000000, 0.0000000000000000000, 0.0000000000000000000 ) ) ;
#196 = CARTESIAN_POINT ( 'NONE',  ( 0.0000000000000000000, 0.0000000000000000000, 1.500000000000000222 ) ) ;
#197 = ADVANCED_FACE ( 'NONE', ( #182 ), #247, .T. ) ;
#198 = SURFACE_SIDE_STYLE ('',( #176 ) ) ;
#199 = CIRCLE ( 'NONE', #67, 0.06243749999999999301 ) ;
#200 = PRODUCT ( 'Micro_RDA-30', 'Micro_RDA-30', '', ( #259 ) ) ;
#201 = CARTESIAN_POINT ( 'NONE',  ( 0.04750000000000064587, 5.817072295950006528E-18, 1.500000000000000222 ) ) ;
#202 = CARTESIAN_POINT ( 'NONE',  ( 6.123233995736767268E-17, 0.0000000000000000000, 0.5000000000000000000 ) ) ;
#203 =( CONVERSION_BASED_UNIT ( 'INCH', #15 ) LENGTH_UNIT ( ) NAMED_UNIT ( #284 ) );
#204 = DIRECTION ( 'NONE',  ( -1.000000000000000000, 0.0000000000000000000, 1.224646799147353700E-16 ) ) ;
#205 = DIRECTION ( 'NONE',  ( -1.224646799147353454E-16, -0.0000000000000000000, -1.000000000000000000 ) ) ;
#206 = ADVANCED_FACE ( 'NONE', ( #60 ), #96, .T. ) ;
#207 = CARTESIAN_POINT ( 'NONE',  ( 0.0000000000000000000, 0.0000000000000000000, 1.500000000000000222 ) ) ;
#208 = DIRECTION ( 'NONE',  ( 0.1736481776669313859, 0.0000000000000000000, 0.9848077530122077983 ) ) ;
#209 = MECHANICAL_DESIGN_GEOMETRIC_PRESENTATION_REPRESENTATION (  '', ( #18 ), #27 ) ;
#210 = DIRECTION ( 'NONE',  ( -1.224646799147353454E-16, -0.0000000000000000000, -1.000000000000000000 ) ) ;
#211 = ORIENTED_EDGE ( 'NONE', *, *, #61, .F. ) ;
#212 = VERTEX_POINT ( 'NONE', #248 ) ;
#213 = ORIENTED_EDGE ( 'NONE', *, *, #216, .T. ) ;
#214 = ORIENTED_EDGE ( 'NONE', *, *, #160, .T. ) ;
#215 = ORIENTED_EDGE ( 'NONE', *, *, #57, .F. ) ;
#216 = EDGE_CURVE ( 'NONE', #212, #163, #228, .T. ) ;
#217 =( GEOMETRIC_REPRESENTATION_CONTEXT ( 3 ) GLOBAL_UNCERTAINTY_ASSIGNED_CONTEXT ( ( #190 ) ) GLOBAL_UNIT_ASSIGNED_CONTEXT ( ( #85, #24, #230 ) ) REPRESENTATION_CONTEXT ( 'NONE', 'WORKASPACE' ) );
#218 = ORIENTED_EDGE ( 'NONE', *, *, #245, .T. ) ;
#219 = CARTESIAN_POINT ( 'NONE',  ( 0.04750000000000064587, 6.735557395310483192E-18, 1.500000000000000222 ) ) ;
#220 = DIRECTION ( 'NONE',  ( -1.224646799147353454E-16, -0.0000000000000000000, -1.000000000000000000 ) ) ;
#221 = AXIS2_PLACEMENT_3D ( 'NONE', #118, #30, #193 ) ;
#222 = DIRECTION ( 'NONE',  ( 1.000000000000000000, 0.0000000000000000000, 0.0000000000000000000 ) ) ;
#223 = VECTOR ( 'NONE', #158, 39.37007874015748854 ) ;
#224 = DIRECTION ( 'NONE',  ( 1.000000000000000000, 0.0000000000000000000, 0.0000000000000000000 ) ) ;
#225 = DIRECTION ( 'NONE',  ( -1.000000000000000000, 0.0000000000000000000, 1.224646799147353700E-16 ) ) ;
#226 = EDGE_CURVE ( 'NONE', #97, #98, #2, .T. ) ;
#227 = DIRECTION ( 'NONE',  ( -0.0000000000000000000, -0.0000000000000000000, -1.000000000000000000 ) ) ;
#228 = LINE ( 'NONE', #91, #258 ) ;
#229 = LINE ( 'NONE', #89, #223 ) ;
#230 =( NAMED_UNIT ( * ) SI_UNIT ( $, .STERADIAN. ) SOLID_ANGLE_UNIT ( ) );
#231 = EDGE_LOOP ( 'NONE', ( #275, #214, #94, #92 ) ) ;
#232 = ORIENTED_EDGE ( 'NONE', *, *, #137, .F. ) ;
#233 = CONICAL_SURFACE ( 'NONE', #178, 0.06243749999999999301, 0.1745329251994338915 ) ;
#234 = ORIENTED_EDGE ( 'NONE', *, *, #245, .F. ) ;
#235 =( CONVERSION_BASED_UNIT ( 'INCH', #95 ) LENGTH_UNIT ( ) NAMED_UNIT ( #50 ) );
#236 = ORIENTED_EDGE ( 'NONE', *, *, #36, .F. ) ;
#237 = EDGE_LOOP ( 'NONE', ( #45, #191 ) ) ;
#238 = AXIS2_PLACEMENT_3D ( 'NONE', #291, #220, #177 ) ;
#239 = DIRECTION ( 'NONE',  ( 0.0000000000000000000, 0.0000000000000000000, -1.000000000000000000 ) ) ;
#240 = DIRECTION ( 'NONE',  ( 0.0000000000000000000, 0.0000000000000000000, -1.000000000000000000 ) ) ;
#241 = FACE_OUTER_BOUND ( 'NONE', #99, .T. ) ;
#242 = CIRCLE ( 'NONE', #130, 0.04750000000000064587 ) ;
#243 =( LENGTH_UNIT ( ) NAMED_UNIT ( * ) SI_UNIT ( $, .METRE. ) );
#244 = CARTESIAN_POINT ( 'NONE',  ( 0.0000000000000000000, 0.0000000000000000000, 1.500000000000000222 ) ) ;
#245 = EDGE_CURVE ( 'NONE', #140, #163, #297, .T. ) ;
#246 = DIRECTION ( 'NONE',  ( 0.0000000000000000000, 0.0000000000000000000, 1.000000000000000000 ) ) ;
#247 = PLANE ( 'NONE',  #68 ) ;
#248 = CARTESIAN_POINT ( 'NONE',  ( -0.06250000000000002776, 0.0000000000000000000, 1.485000000000000764 ) ) ;
#249 = CARTESIAN_POINT ( 'NONE',  ( 0.06250000000000002776, 7.654042494670959086E-18, 1.500000000000000222 ) ) ;
#250 = DIRECTION ( 'NONE',  ( 0.0000000000000000000, 0.0000000000000000000, 1.000000000000000000 ) ) ;
#251 = EDGE_LOOP ( 'NONE', ( #121, #260, #119, #218 ) ) ;
#252 = AXIS2_PLACEMENT_3D ( 'NONE', #244, #239, #35 ) ;
#253 = AXIS2_PLACEMENT_3D ( 'NONE', #13, #116, #296 ) ;
#254 = DIRECTION ( 'NONE',  ( -1.000000000000000000, 0.0000000000000000000, 0.0000000000000000000 ) ) ;
#255 = ORIENTED_EDGE ( 'NONE', *, *, #149, .T. ) ;
#256 = UNCERTAINTY_MEASURE_WITH_UNIT (LENGTH_MEASURE( 1.000000000000000082E-05 ), #235, 'distance_accuracy_value', 'NONE');
#257 = DIRECTION ( 'NONE',  ( -1.224646799147353454E-16, -0.0000000000000000000, -1.000000000000000000 ) ) ;
#258 = VECTOR ( 'NONE', #227, 39.37007874015748143 ) ;
#259 = PRODUCT_CONTEXT ( 'NONE', #83, 'mechanical' ) ;
#260 = ORIENTED_EDGE ( 'NONE', *, *, #20, .F. ) ;
#261 = ORIENTED_EDGE ( 'NONE', *, *, #77, .T. ) ;
#262 = CARTESIAN_POINT ( 'NONE',  ( -0.06243749999999993749, 7.650215473423623230E-18, 0.5000000000000000000 ) ) ;
#263 = CONICAL_SURFACE ( 'NONE', #252, 0.04750000000000064587, 0.7853981633974466137 ) ;
#264 = AXIS2_PLACEMENT_3D ( 'NONE', #154, #148, #109 ) ;
#265 = CARTESIAN_POINT ( 'NONE',  ( -0.06243749999999999301, 0.0000000000000000000, 7.646388452176287375E-18 ) ) ;
#266 = DIRECTION ( 'NONE',  ( -1.224646799147353454E-16, -0.0000000000000000000, -1.000000000000000000 ) ) ;
#267 = SURFACE_STYLE_USAGE ( .BOTH. , #198 ) ;
#268 = AXIS2_PLACEMENT_3D ( 'NONE', #120, #5, #168 ) ;
#269 = ADVANCED_FACE ( 'NONE', ( #273 ), #159, .F. ) ;
#270 =( NAMED_UNIT ( * ) SI_UNIT ( $, .STERADIAN. ) SOLID_ANGLE_UNIT ( ) );
#271 = CARTESIAN_POINT ( 'NONE',  ( 9.364125142994977476E-34, 0.0000000000000000000, 7.646388452176288915E-18 ) ) ;
#272 = PRESENTATION_LAYER_ASSIGNMENT (  '', '', ( #18 ) ) ;
#273 = FACE_OUTER_BOUND ( 'NONE', #6, .T. ) ;
#274 = CARTESIAN_POINT ( 'NONE',  ( 0.0000000000000000000, 0.0000000000000000000, 1.500000000000000222 ) ) ;
#275 = ORIENTED_EDGE ( 'NONE', *, *, #127, .T. ) ;
#276 = APPLICATION_PROTOCOL_DEFINITION ( 'draft international standard', 'automotive_design', 1998, #9 ) ;
#277 = STYLED_ITEM ( 'NONE', ( #56 ), #104 ) ;
#278 = VECTOR ( 'NONE', #155, 39.37007874015748143 ) ;
#279 = SHAPE_DEFINITION_REPRESENTATION ( #174, #128 ) ;
#280 = ORIENTED_EDGE ( 'NONE', *, *, #160, .F. ) ;
#281 = VERTEX_POINT ( 'NONE', #16 ) ;
#282 = DIRECTION ( 'NONE',  ( 0.0000000000000000000, 0.0000000000000000000, 1.000000000000000000 ) ) ;
#283 = VECTOR ( 'NONE', #287, 39.37007874015748854 ) ;
#284 = DIMENSIONAL_EXPONENTS ( 1.000000000000000000, 0.0000000000000000000, 0.0000000000000000000, 0.0000000000000000000, 0.0000000000000000000, 0.0000000000000000000, 0.0000000000000000000 ) ;
#285 = EDGE_LOOP ( 'NONE', ( #29, #122, #261, #4 ) ) ;
#286 = DIRECTION ( 'NONE',  ( -1.000000000000000000, 0.0000000000000000000, 0.0000000000000000000 ) ) ;
#287 = DIRECTION ( 'NONE',  ( 0.7071067811865462405, 8.659560562354916834E-17, -0.7071067811865486830 ) ) ;
#288 = PRODUCT_DEFINITION ( 'UNKNOWN', '', #37, #72 ) ;
#289 = CIRCLE ( 'NONE', #88, 0.06243749999999999994 ) ;
#290 = LINE ( 'NONE', #106, #115 ) ;
#291 = CARTESIAN_POINT ( 'NONE',  ( 0.0000000000000000000, 0.0000000000000000000, 0.0000000000000000000 ) ) ;
#292 = LINE ( 'NONE', #265, #58 ) ;
#293 = VECTOR ( 'NONE', #146, 39.37007874015747433 ) ;
#294 =( LENGTH_UNIT ( ) NAMED_UNIT ( * ) SI_UNIT ( $, .METRE. ) );
#295 = DIRECTION ( 'NONE',  ( 0.0000000000000000000, 0.0000000000000000000, -1.000000000000000000 ) ) ;
#296 = DIRECTION ( 'NONE',  ( 1.000000000000000000, 0.0000000000000000000, 0.0000000000000000000 ) ) ;
#297 = CIRCLE ( 'NONE', #153, 0.06250000000000002776 ) ;
#298 = CARTESIAN_POINT ( 'NONE',  ( 0.0000000000000000000, 0.0000000000000000000, 1.500000000000000222 ) ) ;
#299 = ORIENTED_EDGE ( 'NONE', *, *, #71, .F. ) ;
ENDSEC;
END-ISO-10303-21;
