ISO-10303-21;
HEADER;
FILE_DESCRIPTION (( 'STEP AP214' ),
    '1' );
FILE_NAME ('Micro_DMM-060-490.STEP',
    '2021-09-02T16:23:37',
    ( '' ),
    ( '' ),
    'SwSTEP 2.0',
    'SolidWorks 2020',
    '' );
FILE_SCHEMA (( 'AUTOMOTIVE_DESIGN' ));
ENDSEC;

DATA;
#1 = DIRECTION ( 'NONE',  ( -0.0000000000000000000, -0.0000000000000000000, -1.000000000000000000 ) ) ;
#2 = CONICAL_SURFACE ( 'NONE', #29, 0.007499999999999999722, 0.7853981633974503884 ) ;
#3 = AXIS2_PLACEMENT_3D ( 'NONE', #278, #252, #247 ) ;
#4 = DIRECTION ( 'NONE',  ( 1.000000000000000000, 0.0000000000000000000, 0.0000000000000000000 ) ) ;
#5 = DIRECTION ( 'NONE',  ( -0.0000000000000000000, -0.0000000000000000000, -1.000000000000000000 ) ) ;
#6 = DIRECTION ( 'NONE',  ( -1.000000000000000000, 0.0000000000000000000, 0.0000000000000000000 ) ) ;
#7 = DIRECTION ( 'NONE',  ( -1.000000000000000000, 0.0000000000000000000, 0.0000000000000000000 ) ) ;
#8 = CARTESIAN_POINT ( 'NONE',  ( -0.1031100000000002570, 0.0000000000000000000, 2.244094000000000033 ) ) ;
#9 = ADVANCED_FACE ( 'NONE', ( #122 ), #328, .T. ) ;
#10 = DIRECTION ( 'NONE',  ( -1.000000000000000000, 0.0000000000000000000, 0.0000000000000000000 ) ) ;
#11 = ORIENTED_EDGE ( 'NONE', *, *, #103, .T. ) ;
#12 = AXIS2_PLACEMENT_3D ( 'NONE', #81, #109, #287 ) ;
#13 = MECHANICAL_DESIGN_GEOMETRIC_PRESENTATION_REPRESENTATION (  '', ( #236 ), #137 ) ;
#14 = FACE_OUTER_BOUND ( 'NONE', #23, .T. ) ;
#15 = DIRECTION ( 'NONE',  ( -1.000000000000000000, 0.0000000000000000000, 0.0000000000000000000 ) ) ;
#16 = EDGE_CURVE ( 'NONE', #298, #19, #291, .T. ) ;
#17 = VERTEX_POINT ( 'NONE', #282 ) ;
#18 = PRODUCT_DEFINITION_FORMATION_WITH_SPECIFIED_SOURCE ( 'ANY', '', #256, .NOT_KNOWN. ) ;
#19 = VERTEX_POINT ( 'NONE', #150 ) ;
#20 = CARTESIAN_POINT ( 'NONE',  ( 0.1180600000000000538, 0.0000000000000000000, 0.1105599999999996030 ) ) ;
#21 = ORIENTED_EDGE ( 'NONE', *, *, #259, .F. ) ;
#22 =( NAMED_UNIT ( * ) PLANE_ANGLE_UNIT ( ) SI_UNIT ( $, .RADIAN. ) );
#23 = EDGE_LOOP ( 'NONE', ( #240, #195, #327, #21 ) ) ;
#24 = EDGE_LOOP ( 'NONE', ( #191, #218 ) ) ;
#25 = VECTOR ( 'NONE', #233, 39.37007874015748143 ) ;
#26 = DIRECTION ( 'NONE',  ( 1.000000000000000000, 0.0000000000000000000, 0.0000000000000000000 ) ) ;
#27 = UNCERTAINTY_MEASURE_WITH_UNIT (LENGTH_MEASURE( 1.000000000000000082E-05 ), #70, 'distance_accuracy_value', 'NONE');
#28 =( NAMED_UNIT ( * ) SI_UNIT ( $, .STERADIAN. ) SOLID_ANGLE_UNIT ( ) );
#29 = AXIS2_PLACEMENT_3D ( 'NONE', #78, #151, #26 ) ;
#30 = CIRCLE ( 'NONE', #190, 0.1181100000000000066 ) ;
#31 = LINE ( 'NONE', #127, #299 ) ;
#32 = LINE ( 'NONE', #105, #25 ) ;
#33 = AXIS2_PLACEMENT_3D ( 'NONE', #57, #255, #177 ) ;
#34 = CARTESIAN_POINT ( 'NONE',  ( 0.0000000000000000000, 0.0000000000000000000, 2.244094000000000033 ) ) ;
#35 = CARTESIAN_POINT ( 'NONE',  ( 0.0000000000000000000, 0.0000000000000000000, 0.6299209999999998422 ) ) ;
#36 = DIRECTION ( 'NONE',  ( -0.0000000000000000000, -0.0000000000000000000, -1.000000000000000000 ) ) ;
#37 = DIRECTION ( 'NONE',  ( -0.7071067811865358044, 0.0000000000000000000, -0.7071067811865590080 ) ) ;
#38 = EDGE_CURVE ( 'NONE', #325, #17, #304, .T. ) ;
#39 = DIRECTION ( 'NONE',  ( 1.000000000000000000, 0.0000000000000000000, 0.0000000000000000000 ) ) ;
#40 = ORIENTED_EDGE ( 'NONE', *, *, #44, .T. ) ;
#41 = FILL_AREA_STYLE ('',( #241 ) ) ;
#42 = ORIENTED_EDGE ( 'NONE', *, *, #16, .F. ) ;
#43 = MECHANICAL_DESIGN_GEOMETRIC_PRESENTATION_REPRESENTATION (  '', ( #277 ), #76 ) ;
#44 = EDGE_CURVE ( 'NONE', #17, #325, #189, .T. ) ;
#45 = EDGE_LOOP ( 'NONE', ( #245, #40 ) ) ;
#46 = CARTESIAN_POINT ( 'NONE',  ( 0.0000000000000000000, 0.0000000000000000000, 0.0000000000000000000 ) ) ;
#47 = VERTEX_POINT ( 'NONE', #80 ) ;
#48 = VERTEX_POINT ( 'NONE', #74 ) ;
#49 = CARTESIAN_POINT ( 'NONE',  ( 0.0000000000000000000, 0.0000000000000000000, 0.0000000000000000000 ) ) ;
#50 = EDGE_CURVE ( 'NONE', #47, #48, #315, .T. ) ;
#51 = FACE_BOUND ( 'NONE', #24, .T. ) ;
#52 = DIRECTION ( 'NONE',  ( -0.0000000000000000000, 0.0000000000000000000, -1.000000000000000000 ) ) ;
#53 = PRODUCT_DEFINITION_SHAPE ( 'NONE', 'NONE',  #86 ) ;
#54 = DIRECTION ( 'NONE',  ( -1.000000000000000000, 0.0000000000000000000, 0.0000000000000000000 ) ) ;
#55 = CIRCLE ( 'NONE', #260, 0.1181100000000000066 ) ;
#56 = AXIS2_PLACEMENT_3D ( 'NONE', #324, #72, #15 ) ;
#57 = CARTESIAN_POINT ( 'NONE',  ( 0.0000000000000000000, 0.0000000000000000000, 2.244094000000000033 ) ) ;
#58 = CARTESIAN_POINT ( 'NONE',  ( 0.0000000000000000000, 0.0000000000000000000, 2.244094000000000033 ) ) ;
#59 = DIRECTION ( 'NONE',  ( 0.7071067811865358044, 8.659560562354788645E-17, -0.7071067811865590080 ) ) ;
#60 = CIRCLE ( 'NONE', #12, 0.007499999999999999722 ) ;
#61 = CARTESIAN_POINT ( 'NONE',  ( -0.1181100000000000066, 0.0000000000000000000, 2.229093999999999465 ) ) ;
#62 = DIRECTION ( 'NONE',  ( 0.0000000000000000000, 0.0000000000000000000, -1.000000000000000000 ) ) ;
#63 = CARTESIAN_POINT ( 'NONE',  ( 0.1180600000000000538, 1.445818011073365902E-17, 0.0000000000000000000 ) ) ;
#64 = CIRCLE ( 'NONE', #158, 0.1180600000000000815 ) ;
#65 = ORIENTED_EDGE ( 'NONE', *, *, #200, .T. ) ;
#66 = CARTESIAN_POINT ( 'NONE',  ( 0.0000000000000000000, 0.0000000000000000000, 0.1105599999999995892 ) ) ;
#67 = ORIENTED_EDGE ( 'NONE', *, *, #38, .F. ) ;
#68 = ADVANCED_FACE ( 'NONE', ( #276 ), #2, .T. ) ;
#69 = ORIENTED_EDGE ( 'NONE', *, *, #165, .F. ) ;
#70 =( CONVERSION_BASED_UNIT ( 'INCH', #297 ) LENGTH_UNIT ( ) NAMED_UNIT ( #166 ) );
#71 = ORIENTED_EDGE ( 'NONE', *, *, #160, .T. ) ;
#72 = DIRECTION ( 'NONE',  ( -0.0000000000000000000, -0.0000000000000000000, -1.000000000000000000 ) ) ;
#73 = ORIENTED_EDGE ( 'NONE', *, *, #216, .F. ) ;
#74 = CARTESIAN_POINT ( 'NONE',  ( 0.1180600000000000815, 1.445818011073366210E-17, 0.6299209999999999532 ) ) ;
#75 = CARTESIAN_POINT ( 'NONE',  ( 0.0000000000000000000, 0.0000000000000000000, 0.6299209999999999532 ) ) ;
#76 =( GEOMETRIC_REPRESENTATION_CONTEXT ( 3 ) GLOBAL_UNCERTAINTY_ASSIGNED_CONTEXT ( ( #77 ) ) GLOBAL_UNIT_ASSIGNED_CONTEXT ( ( #227, #204, #28 ) ) REPRESENTATION_CONTEXT ( 'NONE', 'WORKASPACE' ) );
#77 = UNCERTAINTY_MEASURE_WITH_UNIT (LENGTH_MEASURE( 1.000000000000000082E-05 ), #227, 'distance_accuracy_value', 'NONE');
#78 = CARTESIAN_POINT ( 'NONE',  ( 0.0000000000000000000, 0.0000000000000000000, 1.707404996040164512E-17 ) ) ;
#79 = ADVANCED_FACE ( 'NONE', ( #98 ), #130, .T. ) ;
#80 = CARTESIAN_POINT ( 'NONE',  ( -0.1180600000000000815, 0.0000000000000000000, 0.6299209999999999532 ) ) ;
#81 = CARTESIAN_POINT ( 'NONE',  ( 0.0000000000000000000, 0.0000000000000000000, 1.707404996040164512E-17 ) ) ;
#82 = LINE ( 'NONE', #8, #292 ) ;
#83 = CARTESIAN_POINT ( 'NONE',  ( -0.1180600000000000538, 1.445818011073365594E-17, 0.1105599999999996030 ) ) ;
#84 = DIRECTION ( 'NONE',  ( 0.0000000000000000000, 0.0000000000000000000, 1.000000000000000000 ) ) ;
#85 = FACE_OUTER_BOUND ( 'NONE', #170, .T. ) ;
#86 = PRODUCT_DEFINITION ( 'UNKNOWN', '', #18, #264 ) ;
#87 =( NAMED_UNIT ( * ) PLANE_ANGLE_UNIT ( ) SI_UNIT ( $, .RADIAN. ) );
#88 = ORIENTED_EDGE ( 'NONE', *, *, #212, .F. ) ;
#89 = MANIFOLD_SOLID_BREP ( 'Cut-Revolve4', #106 ) ;
#90 = AXIS2_PLACEMENT_3D ( 'NONE', #228, #99, #254 ) ;
#91 = ORIENTED_EDGE ( 'NONE', *, *, #97, .F. ) ;
#92 = DIMENSIONAL_EXPONENTS ( 1.000000000000000000, 0.0000000000000000000, 0.0000000000000000000, 0.0000000000000000000, 0.0000000000000000000, 0.0000000000000000000, 0.0000000000000000000 ) ;
#93 = SURFACE_STYLE_USAGE ( .BOTH. , #267 ) ;
#94 = ORIENTED_EDGE ( 'NONE', *, *, #259, .T. ) ;
#95 = EDGE_LOOP ( 'NONE', ( #220, #141, #145, #172 ) ) ;
#96 = ORIENTED_EDGE ( 'NONE', *, *, #309, .F. ) ;
#97 = EDGE_CURVE ( 'NONE', #19, #323, #31, .T. ) ;
#98 = FACE_OUTER_BOUND ( 'NONE', #248, .T. ) ;
#99 = DIRECTION ( 'NONE',  ( 0.0000000000000000000, 0.0000000000000000000, 1.000000000000000000 ) ) ;
#100 = CARTESIAN_POINT ( 'NONE',  ( 0.007499999999999999722, 0.0000000000000000000, 1.707404996040164512E-17 ) ) ;
#101 = AXIS2_PLACEMENT_3D ( 'NONE', #162, #157, #6 ) ;
#102 = AXIS2_PLACEMENT_3D ( 'NONE', #34, #62, #7 ) ;
#103 = EDGE_CURVE ( 'NONE', #114, #275, #163, .T. ) ;
#104 = LENGTH_MEASURE_WITH_UNIT ( LENGTH_MEASURE( 0.02539999999999999897 ), #253 );
#105 = CARTESIAN_POINT ( 'NONE',  ( -0.007499999999999999722, 9.184850993605147975E-19, 1.707404996040164512E-17 ) ) ;
#106 = CLOSED_SHELL ( 'NONE', ( #9, #79, #280, #135, #314, #174, #178, #128, #68, #209, #305 ) ) ;
#107 = AXIS2_PLACEMENT_3D ( 'NONE', #234, #317, #184 ) ;
#108 =( GEOMETRIC_REPRESENTATION_CONTEXT ( 3 ) GLOBAL_UNCERTAINTY_ASSIGNED_CONTEXT ( ( #27 ) ) GLOBAL_UNIT_ASSIGNED_CONTEXT ( ( #70, #87, #213 ) ) REPRESENTATION_CONTEXT ( 'NONE', 'WORKASPACE' ) );
#109 = DIRECTION ( 'NONE',  ( -0.0000000000000000000, -0.0000000000000000000, -1.000000000000000000 ) ) ;
#110 = LINE ( 'NONE', #63, #235 ) ;
#111 = CARTESIAN_POINT ( 'NONE',  ( 0.0000000000000000000, 0.0000000000000000000, 2.244094000000000033 ) ) ;
#112 = UNCERTAINTY_MEASURE_WITH_UNIT (LENGTH_MEASURE( 1.000000000000000082E-05 ), #140, 'distance_accuracy_value', 'NONE');
#113 = CARTESIAN_POINT ( 'NONE',  ( 0.0000000000000000000, 0.0000000000000000000, 0.6299209999999999532 ) ) ;
#114 = VERTEX_POINT ( 'NONE', #100 ) ;
#115 = ORIENTED_EDGE ( 'NONE', *, *, #188, .T. ) ;
#116 = DIRECTION ( 'NONE',  ( 0.0000000000000000000, 0.0000000000000000000, -1.000000000000000000 ) ) ;
#117 = EDGE_LOOP ( 'NONE', ( #215, #67, #223, #96 ) ) ;
#118 = SURFACE_STYLE_FILL_AREA ( #41 ) ;
#119 = ORIENTED_EDGE ( 'NONE', *, *, #216, .T. ) ;
#120 = AXIS2_PLACEMENT_3D ( 'NONE', #284, #202, #4 ) ;
#121 = AXIS2_PLACEMENT_3D ( 'NONE', #66, #300, #171 ) ;
#122 = FACE_OUTER_BOUND ( 'NONE', #95, .T. ) ;
#123 = CARTESIAN_POINT ( 'NONE',  ( 0.0000000000000000000, 0.0000000000000000000, 1.707404996040164512E-17 ) ) ;
#124 = DIRECTION ( 'NONE',  ( -1.000000000000000000, 0.0000000000000000000, 0.0000000000000000000 ) ) ;
#125 = PRODUCT_CONTEXT ( 'NONE', #203, 'mechanical' ) ;
#126 = SURFACE_SIDE_STYLE ('',( #153 ) ) ;
#127 = CARTESIAN_POINT ( 'NONE',  ( 0.1181100000000000066, 1.446430334472939084E-17, 2.244094000000000033 ) ) ;
#128 = ADVANCED_FACE ( 'NONE', ( #51, #201 ), #306, .T. ) ;
#129 = DIRECTION ( 'NONE',  ( -0.0000000000000000000, -0.0000000000000000000, -1.000000000000000000 ) ) ;
#130 = CONICAL_SURFACE ( 'NONE', #257, 0.007499999999999999722, 0.7853981633974503884 ) ;
#131 = ORIENTED_EDGE ( 'NONE', *, *, #301, .T. ) ;
#132 = AXIS2_PLACEMENT_3D ( 'NONE', #159, #262, #134 ) ;
#133 = DIRECTION ( 'NONE',  ( -0.0000000000000000000, -0.0000000000000000000, -1.000000000000000000 ) ) ;
#134 = DIRECTION ( 'NONE',  ( -1.000000000000000000, 0.0000000000000000000, 0.0000000000000000000 ) ) ;
#135 = ADVANCED_FACE ( 'NONE', ( #14 ), #258, .T. ) ;
#136 = CARTESIAN_POINT ( 'NONE',  ( -0.1180600000000000538, 0.0000000000000000000, 0.0000000000000000000 ) ) ;
#137 =( GEOMETRIC_REPRESENTATION_CONTEXT ( 3 ) GLOBAL_UNCERTAINTY_ASSIGNED_CONTEXT ( ( #112 ) ) GLOBAL_UNIT_ASSIGNED_CONTEXT ( ( #140, #22, #192 ) ) REPRESENTATION_CONTEXT ( 'NONE', 'WORKASPACE' ) );
#138 = FACE_OUTER_BOUND ( 'NONE', #293, .T. ) ;
#139 = ORIENTED_EDGE ( 'NONE', *, *, #251, .F. ) ;
#140 =( CONVERSION_BASED_UNIT ( 'INCH', #269 ) LENGTH_UNIT ( ) NAMED_UNIT ( #311 ) );
#141 = ORIENTED_EDGE ( 'NONE', *, *, #194, .T. ) ;
#142 = AXIS2_PLACEMENT_3D ( 'NONE', #58, #36, #210 ) ;
#143 = COLOUR_RGB ( '',0.7921568627450980005, 0.8196078431372548767, 0.9333333333333333481 ) ;
#144 = FACE_OUTER_BOUND ( 'NONE', #242, .T. ) ;
#145 = ORIENTED_EDGE ( 'NONE', *, *, #322, .F. ) ;
#146 =( LENGTH_UNIT ( ) NAMED_UNIT ( * ) SI_UNIT ( $, .METRE. ) );
#147 = EDGE_CURVE ( 'NONE', #275, #296, #32, .T. ) ;
#148 = ORIENTED_EDGE ( 'NONE', *, *, #165, .T. ) ;
#149 = FILL_AREA_STYLE ('',( #329 ) ) ;
#150 = CARTESIAN_POINT ( 'NONE',  ( 0.1181100000000000066, 1.446430334472939084E-17, 2.229093999999999465 ) ) ;
#151 = DIRECTION ( 'NONE',  ( 0.0000000000000000000, 0.0000000000000000000, 1.000000000000000000 ) ) ;
#152 = AXIS2_PLACEMENT_3D ( 'NONE', #281, #52, #54 ) ;
#153 = SURFACE_STYLE_FILL_AREA ( #149 ) ;
#154 = CIRCLE ( 'NONE', #121, 0.1180600000000000399 ) ;
#155 = DIRECTION ( 'NONE',  ( 1.000000000000000000, 0.0000000000000000000, 0.0000000000000000000 ) ) ;
#156 = CYLINDRICAL_SURFACE ( 'NONE', #101, 0.1180600000000000538 ) ;
#157 = DIRECTION ( 'NONE',  ( -0.0000000000000000000, -0.0000000000000000000, -1.000000000000000000 ) ) ;
#158 = AXIS2_PLACEMENT_3D ( 'NONE', #113, #290, #10 ) ;
#159 = CARTESIAN_POINT ( 'NONE',  ( 0.0000000000000000000, 0.0000000000000000000, 0.6299209999999998422 ) ) ;
#160 = EDGE_CURVE ( 'NONE', #275, #114, #60, .T. ) ;
#161 = CARTESIAN_POINT ( 'NONE',  ( 0.0000000000000000000, 0.0000000000000000000, 2.244094000000000033 ) ) ;
#162 = CARTESIAN_POINT ( 'NONE',  ( 0.0000000000000000000, 0.0000000000000000000, 0.0000000000000000000 ) ) ;
#163 = CIRCLE ( 'NONE', #230, 0.007499999999999999722 ) ;
#164 = ORIENTED_EDGE ( 'NONE', *, *, #147, .T. ) ;
#165 = EDGE_CURVE ( 'NONE', #323, #266, #55, .T. ) ;
#166 = DIMENSIONAL_EXPONENTS ( 1.000000000000000000, 0.0000000000000000000, 0.0000000000000000000, 0.0000000000000000000, 0.0000000000000000000, 0.0000000000000000000, 0.0000000000000000000 ) ;
#167 = EDGE_LOOP ( 'NONE', ( #131, #148 ) ) ;
#168 = COLOUR_RGB ( '',0.7921568627450980005, 0.8196078431372548767, 0.9333333333333333481 ) ;
#169 = PRODUCT_RELATED_PRODUCT_CATEGORY ( 'part', '', ( #256 ) ) ;
#170 = EDGE_LOOP ( 'NONE', ( #274, #115, #65, #73 ) ) ;
#171 = DIRECTION ( 'NONE',  ( -1.000000000000000000, 0.0000000000000000000, 0.0000000000000000000 ) ) ;
#172 = ORIENTED_EDGE ( 'NONE', *, *, #200, .F. ) ;
#173 = DIRECTION ( 'NONE',  ( -0.0000000000000000000, -0.0000000000000000000, -1.000000000000000000 ) ) ;
#174 = ADVANCED_FACE ( 'NONE', ( #318 ), #263, .T. ) ;
#175 = DIRECTION ( 'NONE',  ( 0.0000000000000000000, 0.0000000000000000000, 1.000000000000000000 ) ) ;
#176 = DIRECTION ( 'NONE',  ( -0.0000000000000000000, -0.0000000000000000000, -1.000000000000000000 ) ) ;
#177 = DIRECTION ( 'NONE',  ( 1.000000000000000000, 0.0000000000000000000, 0.0000000000000000000 ) ) ;
#178 = ADVANCED_FACE ( 'NONE', ( #285 ), #205, .T. ) ;
#179 = LINE ( 'NONE', #206, #273 ) ;
#180 = CARTESIAN_POINT ( 'NONE',  ( -0.1181100000000000066, 0.0000000000000000000, 0.6299209999999998422 ) ) ;
#181 = CARTESIAN_POINT ( 'NONE',  ( 0.1031100000000002570, 1.262733314600838667E-17, 2.244094000000000033 ) ) ;
#182 = AXIS2_PLACEMENT_3D ( 'NONE', #111, #84, #207 ) ;
#183 = CIRCLE ( 'NONE', #132, 0.1181100000000000066 ) ;
#184 = DIRECTION ( 'NONE',  ( -1.000000000000000000, 0.0000000000000000000, 0.0000000000000000000 ) ) ;
#185 = DIRECTION ( 'NONE',  ( 0.7071067811865490160, 0.0000000000000000000, 0.7071067811865460184 ) ) ;
#186 =( LENGTH_UNIT ( ) NAMED_UNIT ( * ) SI_UNIT ( $, .METRE. ) );
#187 = ORIENTED_EDGE ( 'NONE', *, *, #147, .F. ) ;
#188 = EDGE_CURVE ( 'NONE', #48, #47, #64, .T. ) ;
#189 = CIRCLE ( 'NONE', #90, 0.1031100000000002570 ) ;
#190 = AXIS2_PLACEMENT_3D ( 'NONE', #197, #116, #39 ) ;
#191 = ORIENTED_EDGE ( 'NONE', *, *, #50, .F. ) ;
#192 =( NAMED_UNIT ( * ) SI_UNIT ( $, .STERADIAN. ) SOLID_ANGLE_UNIT ( ) );
#193 = ORIENTED_EDGE ( 'NONE', *, *, #289, .T. ) ;
#194 = EDGE_CURVE ( 'NONE', #48, #302, #110, .T. ) ;
#195 = ORIENTED_EDGE ( 'NONE', *, *, #97, .T. ) ;
#196 = VECTOR ( 'NONE', #59, 39.37007874015748854 ) ;
#197 = CARTESIAN_POINT ( 'NONE',  ( 0.0000000000000000000, 0.0000000000000000000, 2.229093999999999465 ) ) ;
#198 = ORIENTED_EDGE ( 'NONE', *, *, #212, .T. ) ;
#199 = PRESENTATION_STYLE_ASSIGNMENT (( #225 ) ) ;
#200 = EDGE_CURVE ( 'NONE', #47, #296, #312, .T. ) ;
#201 = FACE_OUTER_BOUND ( 'NONE', #167, .T. ) ;
#202 = DIRECTION ( 'NONE',  ( 0.0000000000000000000, 0.0000000000000000000, -1.000000000000000000 ) ) ;
#203 = APPLICATION_CONTEXT ( 'automotive_design' ) ;
#204 =( NAMED_UNIT ( * ) PLANE_ANGLE_UNIT ( ) SI_UNIT ( $, .RADIAN. ) );
#205 = CONICAL_SURFACE ( 'NONE', #272, 0.1031100000000002570, 0.7853981633974318477 ) ;
#206 = CARTESIAN_POINT ( 'NONE',  ( -0.1181100000000000066, 0.0000000000000000000, 2.244094000000000033 ) ) ;
#207 = DIRECTION ( 'NONE',  ( 1.000000000000000000, 0.0000000000000000000, -0.0000000000000000000 ) ) ;
#208 = FACE_OUTER_BOUND ( 'NONE', #271, .T. ) ;
#209 = ADVANCED_FACE ( 'NONE', ( #85 ), #156, .T. ) ;
#210 = DIRECTION ( 'NONE',  ( -1.000000000000000000, 0.0000000000000000000, 0.0000000000000000000 ) ) ;
#211 = CARTESIAN_POINT ( 'NONE',  ( 0.007499999999999999722, 0.0000000000000000000, 1.707404996040164512E-17 ) ) ;
#212 = EDGE_CURVE ( 'NONE', #114, #302, #232, .T. ) ;
#213 =( NAMED_UNIT ( * ) SI_UNIT ( $, .STERADIAN. ) SOLID_ANGLE_UNIT ( ) );
#214 = ORIENTED_EDGE ( 'NONE', *, *, #160, .F. ) ;
#215 = ORIENTED_EDGE ( 'NONE', *, *, #289, .F. ) ;
#216 = EDGE_CURVE ( 'NONE', #302, #296, #249, .T. ) ;
#217 = CYLINDRICAL_SURFACE ( 'NONE', #56, 0.1181100000000000066 ) ;
#218 = ORIENTED_EDGE ( 'NONE', *, *, #188, .F. ) ;
#219 = CARTESIAN_POINT ( 'NONE',  ( 0.1181100000000000066, 1.446430334472939084E-17, 0.6299209999999998422 ) ) ;
#220 = ORIENTED_EDGE ( 'NONE', *, *, #50, .T. ) ;
#221 = PRESENTATION_LAYER_ASSIGNMENT (  '', '', ( #277 ) ) ;
#222 = SHAPE_DEFINITION_REPRESENTATION ( #53, #226 ) ;
#223 = ORIENTED_EDGE ( 'NONE', *, *, #251, .T. ) ;
#224 = DIRECTION ( 'NONE',  ( -1.000000000000000000, 0.0000000000000000000, 0.0000000000000000000 ) ) ;
#225 = SURFACE_STYLE_USAGE ( .BOTH. , #126 ) ;
#226 = ADVANCED_BREP_SHAPE_REPRESENTATION ( 'Micro_DMM-060-490', ( #89, #3 ), #108 ) ;
#227 =( CONVERSION_BASED_UNIT ( 'INCH', #104 ) LENGTH_UNIT ( ) NAMED_UNIT ( #92 ) );
#228 = CARTESIAN_POINT ( 'NONE',  ( 0.0000000000000000000, 0.0000000000000000000, 2.244094000000000033 ) ) ;
#229 = DIRECTION ( 'NONE',  ( -0.0000000000000000000, -0.0000000000000000000, -1.000000000000000000 ) ) ;
#230 = AXIS2_PLACEMENT_3D ( 'NONE', #303, #173, #279 ) ;
#231 = CARTESIAN_POINT ( 'NONE',  ( -0.007499999999999999722, 7.688332605047084406E-18, 1.707404996040164512E-17 ) ) ;
#232 = LINE ( 'NONE', #211, #283 ) ;
#233 = DIRECTION ( 'NONE',  ( -0.7071067811865490160, 8.659560562354951347E-17, 0.7071067811865460184 ) ) ;
#234 = CARTESIAN_POINT ( 'NONE',  ( 0.0000000000000000000, 0.0000000000000000000, 0.1105599999999995892 ) ) ;
#235 = VECTOR ( 'NONE', #133, 39.37007874015748143 ) ;
#236 = STYLED_ITEM ( 'NONE', ( #326 ), #226 ) ;
#237 = APPLICATION_CONTEXT ( 'automotive_design' ) ;
#238 = CARTESIAN_POINT ( 'NONE',  ( -0.1031100000000002570, 0.0000000000000000000, 2.244094000000000033 ) ) ;
#239 = DIRECTION ( 'NONE',  ( 0.0000000000000000000, 0.0000000000000000000, 1.000000000000000000 ) ) ;
#240 = ORIENTED_EDGE ( 'NONE', *, *, #16, .T. ) ;
#241 = FILL_AREA_STYLE_COLOUR ( '', #168 ) ;
#242 = EDGE_LOOP ( 'NONE', ( #11, #71 ) ) ;
#243 = VECTOR ( 'NONE', #288, 39.37007874015748143 ) ;
#244 = PLANE ( 'NONE',  #320 ) ;
#245 = ORIENTED_EDGE ( 'NONE', *, *, #38, .T. ) ;
#246 = ORIENTED_EDGE ( 'NONE', *, *, #322, .T. ) ;
#247 = DIRECTION ( 'NONE',  ( 1.000000000000000000, 0.0000000000000000000, 0.0000000000000000000 ) ) ;
#248 = EDGE_LOOP ( 'NONE', ( #214, #164, #246, #88 ) ) ;
#249 = CIRCLE ( 'NONE', #107, 0.1180600000000000399 ) ;
#250 = CONICAL_SURFACE ( 'NONE', #102, 0.1031100000000002570, 0.7853981633974318477 ) ;
#251 = EDGE_CURVE ( 'NONE', #325, #298, #82, .T. ) ;
#252 = DIRECTION ( 'NONE',  ( 0.0000000000000000000, 0.0000000000000000000, 1.000000000000000000 ) ) ;
#253 =( LENGTH_UNIT ( ) NAMED_UNIT ( * ) SI_UNIT ( $, .METRE. ) );
#254 = DIRECTION ( 'NONE',  ( 1.000000000000000000, 0.0000000000000000000, 0.0000000000000000000 ) ) ;
#255 = DIRECTION ( 'NONE',  ( 0.0000000000000000000, 0.0000000000000000000, 1.000000000000000000 ) ) ;
#256 = PRODUCT ( 'Micro_DMM-060-490', 'Micro_DMM-060-490', '', ( #125 ) ) ;
#257 = AXIS2_PLACEMENT_3D ( 'NONE', #123, #175, #155 ) ;
#258 = CYLINDRICAL_SURFACE ( 'NONE', #142, 0.1181100000000000066 ) ;
#259 = EDGE_CURVE ( 'NONE', #298, #266, #179, .T. ) ;
#260 = AXIS2_PLACEMENT_3D ( 'NONE', #35, #229, #261 ) ;
#261 = DIRECTION ( 'NONE',  ( -1.000000000000000000, 0.0000000000000000000, 0.0000000000000000000 ) ) ;
#262 = DIRECTION ( 'NONE',  ( -0.0000000000000000000, -0.0000000000000000000, -1.000000000000000000 ) ) ;
#263 = PLANE ( 'NONE',  #182 ) ;
#264 = PRODUCT_DEFINITION_CONTEXT ( 'detailed design', #237, 'design' ) ;
#265 = AXIS2_PLACEMENT_3D ( 'NONE', #49, #176, #224 ) ;
#266 = VERTEX_POINT ( 'NONE', #180 ) ;
#267 = SURFACE_SIDE_STYLE ('',( #118 ) ) ;
#268 = ORIENTED_EDGE ( 'NONE', *, *, #309, .T. ) ;
#269 = LENGTH_MEASURE_WITH_UNIT ( LENGTH_MEASURE( 0.02539999999999999897 ), #146 );
#270 = ORIENTED_EDGE ( 'NONE', *, *, #44, .F. ) ;
#271 = EDGE_LOOP ( 'NONE', ( #270, #193, #42, #139 ) ) ;
#272 = AXIS2_PLACEMENT_3D ( 'NONE', #161, #308, #313 ) ;
#273 = VECTOR ( 'NONE', #129, 39.37007874015748143 ) ;
#274 = ORIENTED_EDGE ( 'NONE', *, *, #194, .F. ) ;
#275 = VERTEX_POINT ( 'NONE', #231 ) ;
#276 = FACE_OUTER_BOUND ( 'NONE', #295, .T. ) ;
#277 = STYLED_ITEM ( 'NONE', ( #199 ), #89 ) ;
#278 = CARTESIAN_POINT ( 'NONE',  ( 0.0000000000000000000, 0.0000000000000000000, 0.0000000000000000000 ) ) ;
#279 = DIRECTION ( 'NONE',  ( -1.000000000000000000, 0.0000000000000000000, 0.0000000000000000000 ) ) ;
#280 = ADVANCED_FACE ( 'NONE', ( #208 ), #250, .T. ) ;
#281 = CARTESIAN_POINT ( 'NONE',  ( 0.1180600000000000815, 0.0000000000000000000, 0.6299209999999999532 ) ) ;
#282 = CARTESIAN_POINT ( 'NONE',  ( 0.1031100000000002570, 1.354581824536888722E-17, 2.244094000000000033 ) ) ;
#283 = VECTOR ( 'NONE', #185, 39.37007874015748143 ) ;
#284 = CARTESIAN_POINT ( 'NONE',  ( 0.0000000000000000000, 0.0000000000000000000, 2.229093999999999465 ) ) ;
#285 = FACE_OUTER_BOUND ( 'NONE', #117, .T. ) ;
#286 = LINE ( 'NONE', #181, #196 ) ;
#287 = DIRECTION ( 'NONE',  ( -1.000000000000000000, 0.0000000000000000000, 0.0000000000000000000 ) ) ;
#288 = DIRECTION ( 'NONE',  ( -0.0000000000000000000, -0.0000000000000000000, -1.000000000000000000 ) ) ;
#289 = EDGE_CURVE ( 'NONE', #17, #19, #286, .T. ) ;
#290 = DIRECTION ( 'NONE',  ( -0.0000000000000000000, -0.0000000000000000000, -1.000000000000000000 ) ) ;
#291 = CIRCLE ( 'NONE', #120, 0.1181100000000000066 ) ;
#292 = VECTOR ( 'NONE', #37, 39.37007874015748854 ) ;
#293 = EDGE_LOOP ( 'NONE', ( #91, #268, #94, #69 ) ) ;
#294 = DIRECTION ( 'NONE',  ( 1.000000000000000000, 0.0000000000000000000, -0.0000000000000000000 ) ) ;
#295 = EDGE_LOOP ( 'NONE', ( #187, #321, #198, #119 ) ) ;
#296 = VERTEX_POINT ( 'NONE', #83 ) ;
#297 = LENGTH_MEASURE_WITH_UNIT ( LENGTH_MEASURE( 0.02539999999999999897 ), #186 );
#298 = VERTEX_POINT ( 'NONE', #61 ) ;
#299 = VECTOR ( 'NONE', #1, 39.37007874015748143 ) ;
#300 = DIRECTION ( 'NONE',  ( -0.0000000000000000000, -0.0000000000000000000, -1.000000000000000000 ) ) ;
#301 = EDGE_CURVE ( 'NONE', #266, #323, #183, .T. ) ;
#302 = VERTEX_POINT ( 'NONE', #20 ) ;
#303 = CARTESIAN_POINT ( 'NONE',  ( 0.0000000000000000000, 0.0000000000000000000, 1.707404996040164512E-17 ) ) ;
#304 = CIRCLE ( 'NONE', #33, 0.1031100000000002570 ) ;
#305 = ADVANCED_FACE ( 'NONE', ( #144 ), #244, .F. ) ;
#306 = PLANE ( 'NONE',  #152 ) ;
#307 = AXIS2_PLACEMENT_3D ( 'NONE', #75, #5, #124 ) ;
#308 = DIRECTION ( 'NONE',  ( 0.0000000000000000000, 0.0000000000000000000, -1.000000000000000000 ) ) ;
#309 = EDGE_CURVE ( 'NONE', #19, #298, #30, .T. ) ;
#310 = APPLICATION_PROTOCOL_DEFINITION ( 'draft international standard', 'automotive_design', 1998, #237 ) ;
#311 = DIMENSIONAL_EXPONENTS ( 1.000000000000000000, 0.0000000000000000000, 0.0000000000000000000, 0.0000000000000000000, 0.0000000000000000000, 0.0000000000000000000, 0.0000000000000000000 ) ;
#312 = LINE ( 'NONE', #136, #243 ) ;
#313 = DIRECTION ( 'NONE',  ( -1.000000000000000000, 0.0000000000000000000, 0.0000000000000000000 ) ) ;
#314 = ADVANCED_FACE ( 'NONE', ( #138 ), #217, .T. ) ;
#315 = CIRCLE ( 'NONE', #307, 0.1180600000000000815 ) ;
#316 = PRESENTATION_LAYER_ASSIGNMENT (  '', '', ( #236 ) ) ;
#317 = DIRECTION ( 'NONE',  ( -0.0000000000000000000, -0.0000000000000000000, -1.000000000000000000 ) ) ;
#318 = FACE_OUTER_BOUND ( 'NONE', #45, .T. ) ;
#319 = APPLICATION_PROTOCOL_DEFINITION ( 'draft international standard', 'automotive_design', 1998, #203 ) ;
#320 = AXIS2_PLACEMENT_3D ( 'NONE', #46, #239, #294 ) ;
#321 = ORIENTED_EDGE ( 'NONE', *, *, #103, .F. ) ;
#322 = EDGE_CURVE ( 'NONE', #296, #302, #154, .T. ) ;
#323 = VERTEX_POINT ( 'NONE', #219 ) ;
#324 = CARTESIAN_POINT ( 'NONE',  ( 0.0000000000000000000, 0.0000000000000000000, 2.244094000000000033 ) ) ;
#325 = VERTEX_POINT ( 'NONE', #238 ) ;
#326 = PRESENTATION_STYLE_ASSIGNMENT (( #93 ) ) ;
#327 = ORIENTED_EDGE ( 'NONE', *, *, #301, .F. ) ;
#328 = CYLINDRICAL_SURFACE ( 'NONE', #265, 0.1180600000000000538 ) ;
#329 = FILL_AREA_STYLE_COLOUR ( '', #143 ) ;
ENDSEC;
END-ISO-10303-21;
