ISO-10303-21;
HEADER;
FILE_DESCRIPTION (( 'STEP AP214' ),
    '1' );
FILE_NAME ('59261.STEP',
    '2023-06-22T22:24:54',
    ( '' ),
    ( '' ),
    'SwSTEP 2.0',
    'SolidWorks 2023',
    '' );
FILE_SCHEMA (( 'AUTOMOTIVE_DESIGN' ));
ENDSEC;

DATA;
#1 = UNCERTAINTY_MEASURE_WITH_UNIT (LENGTH_MEASURE( 1.000000000000000082E-05 ), #239, 'distance_accuracy_value', 'NONE');
#2 = PRESENTATION_STYLE_ASSIGNMENT (( #262 ) ) ;
#3 = PRODUCT ( '59261', '59261', '', ( #235 ) ) ;
#4 =( NAMED_UNIT ( * ) SI_UNIT ( $, .STERADIAN. ) SOLID_ANGLE_UNIT ( ) );
#5 = VECTOR ( 'NONE', #193, 39.37007874015748143 ) ;
#6 = DIRECTION ( 'NONE',  ( 0.000000000000000000, -0.000000000000000000, 1.000000000000000000 ) ) ;
#7 = COLOUR_RGB ( '',0.7921568627450980005, 0.8196078431372548767, 0.9333333333333333481 ) ;
#8 = CARTESIAN_POINT ( 'NONE',  ( 0.000000000000000000, 0.000000000000000000, -0.1875000000000000555 ) ) ;
#9 = ORIENTED_EDGE ( 'NONE', *, *, #139, .F. ) ;
#10 = UNCERTAINTY_MEASURE_WITH_UNIT (LENGTH_MEASURE( 1.000000000000000082E-05 ), #258, 'distance_accuracy_value', 'NONE');
#11 = EDGE_LOOP ( 'NONE', ( #69, #171, #45, #226 ) ) ;
#12 = ORIENTED_EDGE ( 'NONE', *, *, #144, .F. ) ;
#13 = AXIS2_PLACEMENT_3D ( 'NONE', #259, #308, #61 ) ;
#14 = DIMENSIONAL_EXPONENTS ( 1.000000000000000000, 0.000000000000000000, 0.000000000000000000, 0.000000000000000000, 0.000000000000000000, 0.000000000000000000, 0.000000000000000000 ) ;
#15 = EDGE_CURVE ( 'NONE', #49, #152, #150, .T. ) ;
#16 = VECTOR ( 'NONE', #228, 39.37007874015748143 ) ;
#17 = CARTESIAN_POINT ( 'NONE',  ( -0.1875000000000000555, 1.500000000000000222, 0.000000000000000000 ) ) ;
#18 = PRESENTATION_LAYER_ASSIGNMENT (  '', '', ( #103 ) ) ;
#19 = CARTESIAN_POINT ( 'NONE',  ( 0.1875000000000000278, 3.500000000000000000, 2.296212748401288342E-17 ) ) ;
#20 =( NAMED_UNIT ( * ) SI_UNIT ( $, .STERADIAN. ) SOLID_ANGLE_UNIT ( ) );
#21 = ADVANCED_FACE ( 'NONE', ( #177 ), #277, .T. ) ;
#22 = DIRECTION ( 'NONE',  ( 0.000000000000000000, 0.000000000000000000, 1.000000000000000000 ) ) ;
#23 = CIRCLE ( 'NONE', #163, 0.1875000000000000555 ) ;
#24 = FACE_OUTER_BOUND ( 'NONE', #148, .T. ) ;
#25 = FACE_OUTER_BOUND ( 'NONE', #294, .T. ) ;
#26 = EDGE_CURVE ( 'NONE', #30, #28, #72, .T. ) ;
#27 = FILL_AREA_STYLE_COLOUR ( '', #197 ) ;
#28 = VERTEX_POINT ( 'NONE', #211 ) ;
#29 = PRESENTATION_STYLE_ASSIGNMENT (( #247 ) ) ;
#30 = VERTEX_POINT ( 'NONE', #57 ) ;
#31 = SURFACE_SIDE_STYLE ('',( #81 ) ) ;
#32 = ORIENTED_EDGE ( 'NONE', *, *, #248, .T. ) ;
#33 =( GEOMETRIC_REPRESENTATION_CONTEXT ( 3 ) GLOBAL_UNCERTAINTY_ASSIGNED_CONTEXT ( ( #189 ) ) GLOBAL_UNIT_ASSIGNED_CONTEXT ( ( #76, #207, #55 ) ) REPRESENTATION_CONTEXT ( 'NONE', 'WORKASPACE' ) );
#34 = PRESENTATION_STYLE_ASSIGNMENT (( #252 ) ) ;
#35 = CLOSED_SHELL ( 'NONE', ( #21, #51, #204, #90 ) ) ;
#36 = DIRECTION ( 'NONE',  ( -0.000000000000000000, -1.000000000000000000, -0.000000000000000000 ) ) ;
#37 = DIRECTION ( 'NONE',  ( -0.000000000000000000, -1.000000000000000000, -0.000000000000000000 ) ) ;
#38 = CIRCLE ( 'NONE', #307, 0.1875000000000000555 ) ;
#39 = EDGE_CURVE ( 'NONE', #298, #100, #77, .T. ) ;
#40 = CARTESIAN_POINT ( 'NONE',  ( 8.787654976534311230E-35, 1.500000000000000222, 0.000000000000000000 ) ) ;
#41 = FILL_AREA_STYLE_COLOUR ( '', #304 ) ;
#42 = STYLED_ITEM ( 'NONE', ( #157 ), #216 ) ;
#43 =( NAMED_UNIT ( * ) SI_UNIT ( $, .STERADIAN. ) SOLID_ANGLE_UNIT ( ) );
#44 = UNCERTAINTY_MEASURE_WITH_UNIT (LENGTH_MEASURE( 1.000000000000000082E-05 ), #88, 'distance_accuracy_value', 'NONE');
#45 = ORIENTED_EDGE ( 'NONE', *, *, #272, .F. ) ;
#46 = DIRECTION ( 'NONE',  ( -1.000000000000000000, 0.000000000000000000, 0.000000000000000000 ) ) ;
#47 = FILL_AREA_STYLE_COLOUR ( '', #261 ) ;
#48 = AXIS2_PLACEMENT_3D ( 'NONE', #270, #176, #46 ) ;
#49 = VERTEX_POINT ( 'NONE', #17 ) ;
#50 = CARTESIAN_POINT ( 'NONE',  ( 0.000000000000000000, 1.500000000000000222, 0.000000000000000000 ) ) ;
#51 = ADVANCED_FACE ( 'NONE', ( #160 ), #291, .F. ) ;
#52 = FILL_AREA_STYLE_COLOUR ( '', #208 ) ;
#53 = DIMENSIONAL_EXPONENTS ( 1.000000000000000000, 0.000000000000000000, 0.000000000000000000, 0.000000000000000000, 0.000000000000000000, 0.000000000000000000, 0.000000000000000000 ) ;
#54 = MECHANICAL_DESIGN_GEOMETRIC_PRESENTATION_REPRESENTATION (  '', ( #103 ), #158 ) ;
#55 =( NAMED_UNIT ( * ) SI_UNIT ( $, .STERADIAN. ) SOLID_ANGLE_UNIT ( ) );
#56 = MECHANICAL_DESIGN_GEOMETRIC_PRESENTATION_REPRESENTATION (  '', ( #42 ), #118 ) ;
#57 = CARTESIAN_POINT ( 'NONE',  ( 0.000000000000000000, 1.500000000000000222, -0.1875000000000000555 ) ) ;
#58 = DIRECTION ( 'NONE',  ( -1.000000000000000000, 0.000000000000000000, 0.000000000000000000 ) ) ;
#59 = PLANE ( 'NONE',  #289 ) ;
#60 = SURFACE_SIDE_STYLE ('',( #309 ) ) ;
#61 = DIRECTION ( 'NONE',  ( 0.000000000000000000, 0.000000000000000000, -1.000000000000000000 ) ) ;
#62 =( LENGTH_UNIT ( ) NAMED_UNIT ( * ) SI_UNIT ( $, .METRE. ) );
#63 = VECTOR ( 'NONE', #36, 39.37007874015748143 ) ;
#64 = DIRECTION ( 'NONE',  ( 0.000000000000000000, 0.000000000000000000, -1.000000000000000000 ) ) ;
#65 = ORIENTED_EDGE ( 'NONE', *, *, #131, .T. ) ;
#66 = UNCERTAINTY_MEASURE_WITH_UNIT (LENGTH_MEASURE( 1.000000000000000082E-05 ), #221, 'distance_accuracy_value', 'NONE');
#67 = DIRECTION ( 'NONE',  ( -0.000000000000000000, -1.000000000000000000, -0.000000000000000000 ) ) ;
#68 =( LENGTH_UNIT ( ) NAMED_UNIT ( * ) SI_UNIT ( $, .METRE. ) );
#69 = ORIENTED_EDGE ( 'NONE', *, *, #166, .T. ) ;
#70 = MECHANICAL_DESIGN_GEOMETRIC_PRESENTATION_REPRESENTATION (  '', ( #203 ), #245 ) ;
#71 = ADVANCED_FACE ( 'NONE', ( #24 ), #59, .T. ) ;
#72 = CIRCLE ( 'NONE', #213, 0.1875000000000000555 ) ;
#73 = DIRECTION ( 'NONE',  ( -3.061616997868380553E-17, 1.000000000000000000, -0.000000000000000000 ) ) ;
#74 = LENGTH_MEASURE_WITH_UNIT ( LENGTH_MEASURE( 0.02539999999999999897 ), #68 );
#75 = ORIENTED_EDGE ( 'NONE', *, *, #39, .F. ) ;
#76 =( CONVERSION_BASED_UNIT ( 'INCH', #128 ) LENGTH_UNIT ( ) NAMED_UNIT ( #120 ) );
#77 = LINE ( 'NONE', #19, #5 ) ;
#78 = DIMENSIONAL_EXPONENTS ( 1.000000000000000000, 0.000000000000000000, 0.000000000000000000, 0.000000000000000000, 0.000000000000000000, 0.000000000000000000, 0.000000000000000000 ) ;
#79 = MECHANICAL_DESIGN_GEOMETRIC_PRESENTATION_REPRESENTATION (  '', ( #236 ), #267 ) ;
#80 = DIRECTION ( 'NONE',  ( -1.000000000000000000, 0.000000000000000000, 0.000000000000000000 ) ) ;
#81 = SURFACE_STYLE_FILL_AREA ( #154 ) ;
#82 = DIRECTION ( 'NONE',  ( -3.061616997868380553E-17, 1.000000000000000000, -0.000000000000000000 ) ) ;
#83 = AXIS2_PLACEMENT_3D ( 'NONE', #173, #67, #172 ) ;
#84 = DIRECTION ( 'NONE',  ( -3.061616997868380553E-17, 1.000000000000000000, -0.000000000000000000 ) ) ;
#85 = MANIFOLD_SOLID_BREP ( 'Revolve - Cutting Edge', #111 ) ;
#86 = CARTESIAN_POINT ( 'NONE',  ( 0.000000000000000000, 0.000000000000000000, 0.000000000000000000 ) ) ;
#87 = PRODUCT_DEFINITION_CONTEXT ( 'detailed design', #178, 'design' ) ;
#88 =( CONVERSION_BASED_UNIT ( 'INCH', #290 ) LENGTH_UNIT ( ) NAMED_UNIT ( #14 ) );
#89 = EDGE_CURVE ( 'NONE', #28, #30, #23, .T. ) ;
#90 = ADVANCED_FACE ( 'NONE', ( #301 ), #243, .F. ) ;
#91 = DIRECTION ( 'NONE',  ( 0.000000000000000000, -1.000000000000000000, -0.000000000000000000 ) ) ;
#92 =( CONVERSION_BASED_UNIT ( 'INCH', #260 ) LENGTH_UNIT ( ) NAMED_UNIT ( #123 ) );
#93 = FILL_AREA_STYLE ('',( #167 ) ) ;
#94 = PRESENTATION_STYLE_ASSIGNMENT (( #225 ) ) ;
#95 = SURFACE_SIDE_STYLE ('',( #124 ) ) ;
#96 = ORIENTED_EDGE ( 'NONE', *, *, #144, .T. ) ;
#97 = CARTESIAN_POINT ( 'NONE',  ( 0.000000000000000000, 1.500000000000000222, 0.000000000000000000 ) ) ;
#98 = ORIENTED_EDGE ( 'NONE', *, *, #89, .F. ) ;
#99 = ADVANCED_FACE ( 'NONE', ( #25 ), #179, .T. ) ;
#100 = VERTEX_POINT ( 'NONE', #205 ) ;
#101 =( LENGTH_UNIT ( ) NAMED_UNIT ( * ) SI_UNIT ( $, .METRE. ) );
#102 = DIRECTION ( 'NONE',  ( -3.061616997868380553E-17, 1.000000000000000000, -0.000000000000000000 ) ) ;
#103 = STYLED_ITEM ( 'NONE', ( #2 ), #85 ) ;
#104 = FILL_AREA_STYLE ('',( #52 ) ) ;
#105 = FACE_OUTER_BOUND ( 'NONE', #279, .T. ) ;
#106 = CIRCLE ( 'NONE', #13, 0.1875000000000000278 ) ;
#107 = DIRECTION ( 'NONE',  ( -3.061616997868380553E-17, 1.000000000000000000, -0.000000000000000000 ) ) ;
#108 = CARTESIAN_POINT ( 'NONE',  ( 0.000000000000000000, 1.500000000000000222, 0.000000000000000000 ) ) ;
#109 = CARTESIAN_POINT ( 'NONE',  ( 0.000000000000000000, 0.000000000000000000, 0.000000000000000000 ) ) ;
#110 = DIRECTION ( 'NONE',  ( -1.000000000000000000, 0.000000000000000000, 0.000000000000000000 ) ) ;
#111 = CLOSED_SHELL ( 'NONE', ( #227, #99, #216, #71 ) ) ;
#112 = CIRCLE ( 'NONE', #48, 0.1875000000000000555 ) ;
#113 = DIRECTION ( 'NONE',  ( 1.000000000000000000, 0.000000000000000000, 0.000000000000000000 ) ) ;
#114 = LENGTH_MEASURE_WITH_UNIT ( LENGTH_MEASURE( 0.02539999999999999897 ), #62 );
#115 =( NAMED_UNIT ( * ) PLANE_ANGLE_UNIT ( ) SI_UNIT ( $, .RADIAN. ) );
#116 = EDGE_LOOP ( 'NONE', ( #297, #32 ) ) ;
#117 = AXIS2_PLACEMENT_3D ( 'NONE', #40, #263, #168 ) ;
#118 =( GEOMETRIC_REPRESENTATION_CONTEXT ( 3 ) GLOBAL_UNCERTAINTY_ASSIGNED_CONTEXT ( ( #10 ) ) GLOBAL_UNIT_ASSIGNED_CONTEXT ( ( #258, #231, #182 ) ) REPRESENTATION_CONTEXT ( 'NONE', 'WORKASPACE' ) );
#119 = DIRECTION ( 'NONE',  ( 3.061616997868380553E-17, -1.000000000000000000, 0.000000000000000000 ) ) ;
#120 = DIMENSIONAL_EXPONENTS ( 1.000000000000000000, 0.000000000000000000, 0.000000000000000000, 0.000000000000000000, 0.000000000000000000, 0.000000000000000000, 0.000000000000000000 ) ;
#121 = EDGE_LOOP ( 'NONE', ( #244, #174, #199, #242 ) ) ;
#122 = DIRECTION ( 'NONE',  ( -3.061616997868380553E-17, 1.000000000000000000, -0.000000000000000000 ) ) ;
#123 = DIMENSIONAL_EXPONENTS ( 1.000000000000000000, 0.000000000000000000, 0.000000000000000000, 0.000000000000000000, 0.000000000000000000, 0.000000000000000000, 0.000000000000000000 ) ;
#124 = SURFACE_STYLE_FILL_AREA ( #170 ) ;
#125 = ORIENTED_EDGE ( 'NONE', *, *, #89, .T. ) ;
#126 = AXIS2_PLACEMENT_3D ( 'NONE', #255, #184, #282 ) ;
#127 = EDGE_LOOP ( 'NONE', ( #269, #125, #65, #9 ) ) ;
#128 = LENGTH_MEASURE_WITH_UNIT ( LENGTH_MEASURE( 0.02539999999999999897 ), #101 );
#129 = DIRECTION ( 'NONE',  ( -1.000000000000000000, 0.000000000000000000, 0.000000000000000000 ) ) ;
#130 = CYLINDRICAL_SURFACE ( 'NONE', #126, 0.1875000000000000555 ) ;
#131 = EDGE_CURVE ( 'NONE', #30, #273, #295, .T. ) ;
#132 =( LENGTH_UNIT ( ) NAMED_UNIT ( * ) SI_UNIT ( $, .METRE. ) );
#133 =( NAMED_UNIT ( * ) PLANE_ANGLE_UNIT ( ) SI_UNIT ( $, .RADIAN. ) );
#134 = APPLICATION_PROTOCOL_DEFINITION ( 'draft international standard', 'automotive_design', 1998, #178 ) ;
#135 = SURFACE_SIDE_STYLE ('',( #194 ) ) ;
#136 = SURFACE_STYLE_USAGE ( .BOTH. , #60 ) ;
#137 = CARTESIAN_POINT ( 'NONE',  ( -6.123233995736759873E-17, 3.500000000000000000, 0.000000000000000000 ) ) ;
#138 = PRESENTATION_STYLE_ASSIGNMENT (( #136 ) ) ;
#139 = EDGE_CURVE ( 'NONE', #143, #273, #181, .T. ) ;
#140 = PRESENTATION_LAYER_ASSIGNMENT (  '', '', ( #42 ) ) ;
#141 = CARTESIAN_POINT ( 'NONE',  ( 0.1875000000000000555, 3.500000000000000000, 0.000000000000000000 ) ) ;
#142 = DIMENSIONAL_EXPONENTS ( 1.000000000000000000, 0.000000000000000000, 0.000000000000000000, 0.000000000000000000, 0.000000000000000000, 0.000000000000000000, 0.000000000000000000 ) ;
#143 = VERTEX_POINT ( 'NONE', #278 ) ;
#144 = EDGE_CURVE ( 'NONE', #298, #49, #112, .T. ) ;
#145 = UNCERTAINTY_MEASURE_WITH_UNIT (LENGTH_MEASURE( 1.000000000000000082E-05 ), #195, 'distance_accuracy_value', 'NONE');
#146 = CARTESIAN_POINT ( 'NONE',  ( -0.1875000000000001943, 3.500000000000000000, 0.000000000000000000 ) ) ;
#147 = AXIS2_PLACEMENT_3D ( 'NONE', #50, #222, #6 ) ;
#148 = EDGE_LOOP ( 'NONE', ( #201, #196 ) ) ;
#149 = SURFACE_SIDE_STYLE ('',( #292 ) ) ;
#150 = LINE ( 'NONE', #249, #218 ) ;
#151 = SURFACE_SIDE_STYLE ('',( #185 ) ) ;
#152 = VERTEX_POINT ( 'NONE', #146 ) ;
#153 = AXIS2_PLACEMENT_3D ( 'NONE', #137, #107, #110 ) ;
#154 = FILL_AREA_STYLE ('',( #280 ) ) ;
#155 = PRODUCT_DEFINITION ( 'UNKNOWN', '', #254, #87 ) ;
#156 =( NAMED_UNIT ( * ) PLANE_ANGLE_UNIT ( ) SI_UNIT ( $, .RADIAN. ) );
#157 = PRESENTATION_STYLE_ASSIGNMENT (( #210 ) ) ;
#158 =( GEOMETRIC_REPRESENTATION_CONTEXT ( 3 ) GLOBAL_UNCERTAINTY_ASSIGNED_CONTEXT ( ( #44 ) ) GLOBAL_UNIT_ASSIGNED_CONTEXT ( ( #88, #188, #43 ) ) REPRESENTATION_CONTEXT ( 'NONE', 'WORKASPACE' ) );
#159 = APPLICATION_CONTEXT ( 'automotive_design' ) ;
#160 = FACE_OUTER_BOUND ( 'NONE', #271, .T. ) ;
#161 = FILL_AREA_STYLE ('',( #41 ) ) ;
#162 = PRESENTATION_LAYER_ASSIGNMENT (  '', '', ( #203 ) ) ;
#163 = AXIS2_PLACEMENT_3D ( 'NONE', #108, #268, #64 ) ;
#164 = SHAPE_DEFINITION_REPRESENTATION ( #264, #303 ) ;
#165 = CARTESIAN_POINT ( 'NONE',  ( 0.000000000000000000, 0.000000000000000000, -0.1875000000000000278 ) ) ;
#166 = EDGE_CURVE ( 'NONE', #49, #298, #38, .T. ) ;
#167 = FILL_AREA_STYLE_COLOUR ( '', #7 ) ;
#168 = DIRECTION ( 'NONE',  ( -1.000000000000000000, -3.061616997868380553E-17, 0.000000000000000000 ) ) ;
#169 = MECHANICAL_DESIGN_GEOMETRIC_PRESENTATION_REPRESENTATION (  '', ( #299 ), #33 ) ;
#170 = FILL_AREA_STYLE ('',( #27 ) ) ;
#171 = ORIENTED_EDGE ( 'NONE', *, *, #39, .T. ) ;
#172 = DIRECTION ( 'NONE',  ( 0.000000000000000000, 0.000000000000000000, -1.000000000000000000 ) ) ;
#173 = CARTESIAN_POINT ( 'NONE',  ( 0.000000000000000000, 0.000000000000000000, 0.000000000000000000 ) ) ;
#174 = ORIENTED_EDGE ( 'NONE', *, *, #232, .T. ) ;
#175 = PRESENTATION_LAYER_ASSIGNMENT (  '', '', ( #236 ) ) ;
#176 = DIRECTION ( 'NONE',  ( -3.061616997868380553E-17, 1.000000000000000000, -0.000000000000000000 ) ) ;
#177 = FACE_OUTER_BOUND ( 'NONE', #11, .T. ) ;
#178 = APPLICATION_CONTEXT ( 'automotive_design' ) ;
#179 = PLANE ( 'NONE',  #147 ) ;
#180 = ORIENTED_EDGE ( 'NONE', *, *, #15, .T. ) ;
#181 = CIRCLE ( 'NONE', #83, 0.1875000000000000278 ) ;
#182 =( NAMED_UNIT ( * ) SI_UNIT ( $, .STERADIAN. ) SOLID_ANGLE_UNIT ( ) );
#183 = CARTESIAN_POINT ( 'NONE',  ( -6.123233995736759873E-17, 3.500000000000000000, 0.000000000000000000 ) ) ;
#184 = DIRECTION ( 'NONE',  ( -0.000000000000000000, -1.000000000000000000, -0.000000000000000000 ) ) ;
#185 = SURFACE_STYLE_FILL_AREA ( #104 ) ;
#186 = CIRCLE ( 'NONE', #253, 0.1875000000000001110 ) ;
#187 = CARTESIAN_POINT ( 'NONE',  ( 0.000000000000000000, 0.000000000000000000, 0.000000000000000000 ) ) ;
#188 =( NAMED_UNIT ( * ) PLANE_ANGLE_UNIT ( ) SI_UNIT ( $, .RADIAN. ) );
#189 = UNCERTAINTY_MEASURE_WITH_UNIT (LENGTH_MEASURE( 1.000000000000000082E-05 ), #76, 'distance_accuracy_value', 'NONE');
#190 = STYLED_ITEM ( 'NONE', ( #29 ), #191 ) ;
#191 = MANIFOLD_SOLID_BREP ( 'Revolve - Tool Body (Straight Shanked)', #35 ) ;
#192 =( NAMED_UNIT ( * ) SI_UNIT ( $, .STERADIAN. ) SOLID_ANGLE_UNIT ( ) );
#193 = DIRECTION ( 'NONE',  ( -3.061616997868380553E-17, 1.000000000000000000, -0.000000000000000000 ) ) ;
#194 = SURFACE_STYLE_FILL_AREA ( #93 ) ;
#195 =( CONVERSION_BASED_UNIT ( 'INCH', #202 ) LENGTH_UNIT ( ) NAMED_UNIT ( #53 ) );
#196 = ORIENTED_EDGE ( 'NONE', *, *, #139, .T. ) ;
#197 = COLOUR_RGB ( '',1.000000000000000000, 0.000000000000000000, 0.000000000000000000 ) ;
#198 = DIRECTION ( 'NONE',  ( 1.000000000000000000, 3.061616997868380553E-17, 0.000000000000000000 ) ) ;
#199 = ORIENTED_EDGE ( 'NONE', *, *, #234, .F. ) ;
#200 = CYLINDRICAL_SURFACE ( 'NONE', #224, 0.1875000000000000833 ) ;
#201 = ORIENTED_EDGE ( 'NONE', *, *, #234, .T. ) ;
#202 = LENGTH_MEASURE_WITH_UNIT ( LENGTH_MEASURE( 0.02539999999999999897 ), #250 );
#203 = STYLED_ITEM ( 'NONE', ( #138 ), #71 ) ;
#204 = ADVANCED_FACE ( 'NONE', ( #105 ), #200, .T. ) ;
#205 = CARTESIAN_POINT ( 'NONE',  ( 0.1875000000000000555, 3.500000000000000000, 2.296212748401288342E-17 ) ) ;
#206 = FACE_OUTER_BOUND ( 'NONE', #121, .T. ) ;
#207 =( NAMED_UNIT ( * ) PLANE_ANGLE_UNIT ( ) SI_UNIT ( $, .RADIAN. ) );
#208 = COLOUR_RGB ( '',1.000000000000000000, 0.000000000000000000, 0.000000000000000000 ) ;
#209 = CARTESIAN_POINT ( 'NONE',  ( -6.123233995736759873E-17, 3.500000000000000000, 0.000000000000000000 ) ) ;
#210 = SURFACE_STYLE_USAGE ( .BOTH. , #31 ) ;
#211 = CARTESIAN_POINT ( 'NONE',  ( 2.296212748401288034E-17, 1.500000000000000222, 0.1875000000000000555 ) ) ;
#212 = LINE ( 'NONE', #286, #63 ) ;
#213 = AXIS2_PLACEMENT_3D ( 'NONE', #306, #37, #257 ) ;
#214 = AXIS2_PLACEMENT_3D ( 'NONE', #187, #240, #215 ) ;
#215 = DIRECTION ( 'NONE',  ( 0.000000000000000000, 0.000000000000000000, -1.000000000000000000 ) ) ;
#216 = ADVANCED_FACE ( 'NONE', ( #256 ), #130, .T. ) ;
#217 = CARTESIAN_POINT ( 'NONE',  ( 0.1875000000000000555, 1.500000000000000222, 2.296212748401288342E-17 ) ) ;
#218 = VECTOR ( 'NONE', #73, 39.37007874015748143 ) ;
#219 = PRESENTATION_LAYER_ASSIGNMENT (  '', '', ( #190 ) ) ;
#220 = APPLICATION_PROTOCOL_DEFINITION ( 'draft international standard', 'automotive_design', 1998, #159 ) ;
#221 =( CONVERSION_BASED_UNIT ( 'INCH', #74 ) LENGTH_UNIT ( ) NAMED_UNIT ( #251 ) );
#222 = DIRECTION ( 'NONE',  ( 0.000000000000000000, 1.000000000000000000, 0.000000000000000000 ) ) ;
#223 = ORIENTED_EDGE ( 'NONE', *, *, #248, .F. ) ;
#224 = AXIS2_PLACEMENT_3D ( 'NONE', #209, #102, #80 ) ;
#225 = SURFACE_STYLE_USAGE ( .BOTH. , #95 ) ;
#226 = ORIENTED_EDGE ( 'NONE', *, *, #15, .F. ) ;
#227 = ADVANCED_FACE ( 'NONE', ( #206 ), #233, .T. ) ;
#228 = DIRECTION ( 'NONE',  ( -0.000000000000000000, -1.000000000000000000, -0.000000000000000000 ) ) ;
#229 = COLOUR_RGB ( '',1.000000000000000000, 0.000000000000000000, 0.000000000000000000 ) ;
#230 = ORIENTED_EDGE ( 'NONE', *, *, #26, .F. ) ;
#231 =( NAMED_UNIT ( * ) PLANE_ANGLE_UNIT ( ) SI_UNIT ( $, .RADIAN. ) );
#232 = EDGE_CURVE ( 'NONE', #28, #143, #212, .T. ) ;
#233 = CYLINDRICAL_SURFACE ( 'NONE', #214, 0.1875000000000000555 ) ;
#234 = EDGE_CURVE ( 'NONE', #273, #143, #106, .T. ) ;
#235 = PRODUCT_CONTEXT ( 'NONE', #159, 'mechanical' ) ;
#236 = STYLED_ITEM ( 'NONE', ( #94 ), #99 ) ;
#237 = DIRECTION ( 'NONE',  ( 0.000000000000000000, 0.000000000000000000, -1.000000000000000000 ) ) ;
#238 =( GEOMETRIC_REPRESENTATION_CONTEXT ( 3 ) GLOBAL_UNCERTAINTY_ASSIGNED_CONTEXT ( ( #300 ) ) GLOBAL_UNIT_ASSIGNED_CONTEXT ( ( #92, #133, #192 ) ) REPRESENTATION_CONTEXT ( 'NONE', 'WORKASPACE' ) );
#239 =( CONVERSION_BASED_UNIT ( 'INCH', #114 ) LENGTH_UNIT ( ) NAMED_UNIT ( #142 ) );
#240 = DIRECTION ( 'NONE',  ( -0.000000000000000000, -1.000000000000000000, -0.000000000000000000 ) ) ;
#241 = PRESENTATION_LAYER_ASSIGNMENT (  '', '', ( #299 ) ) ;
#242 = ORIENTED_EDGE ( 'NONE', *, *, #131, .F. ) ;
#243 = PLANE ( 'NONE',  #281 ) ;
#244 = ORIENTED_EDGE ( 'NONE', *, *, #26, .T. ) ;
#245 =( GEOMETRIC_REPRESENTATION_CONTEXT ( 3 ) GLOBAL_UNCERTAINTY_ASSIGNED_CONTEXT ( ( #1 ) ) GLOBAL_UNIT_ASSIGNED_CONTEXT ( ( #239, #287, #20 ) ) REPRESENTATION_CONTEXT ( 'NONE', 'WORKASPACE' ) );
#246 = MECHANICAL_DESIGN_GEOMETRIC_PRESENTATION_REPRESENTATION (  '', ( #190 ), #274 ) ;
#247 = SURFACE_STYLE_USAGE ( .BOTH. , #149 ) ;
#248 = EDGE_CURVE ( 'NONE', #100, #152, #186, .T. ) ;
#249 = CARTESIAN_POINT ( 'NONE',  ( -0.1875000000000001388, 3.500000000000000000, 0.000000000000000000 ) ) ;
#250 =( LENGTH_UNIT ( ) NAMED_UNIT ( * ) SI_UNIT ( $, .METRE. ) );
#251 = DIMENSIONAL_EXPONENTS ( 1.000000000000000000, 0.000000000000000000, 0.000000000000000000, 0.000000000000000000, 0.000000000000000000, 0.000000000000000000, 0.000000000000000000 ) ;
#252 = SURFACE_STYLE_USAGE ( .BOTH. , #151 ) ;
#253 = AXIS2_PLACEMENT_3D ( 'NONE', #288, #84, #58 ) ;
#254 = PRODUCT_DEFINITION_FORMATION_WITH_SPECIFIED_SOURCE ( 'ANY', '', #3, .NOT_KNOWN. ) ;
#255 = CARTESIAN_POINT ( 'NONE',  ( 0.000000000000000000, 0.000000000000000000, 0.000000000000000000 ) ) ;
#256 = FACE_OUTER_BOUND ( 'NONE', #127, .T. ) ;
#257 = DIRECTION ( 'NONE',  ( 0.000000000000000000, 0.000000000000000000, -1.000000000000000000 ) ) ;
#258 =( CONVERSION_BASED_UNIT ( 'INCH', #285 ) LENGTH_UNIT ( ) NAMED_UNIT ( #78 ) );
#259 = CARTESIAN_POINT ( 'NONE',  ( 0.000000000000000000, 0.000000000000000000, 0.000000000000000000 ) ) ;
#260 = LENGTH_MEASURE_WITH_UNIT ( LENGTH_MEASURE( 0.02539999999999999897 ), #132 );
#261 = COLOUR_RGB ( '',0.7921568627450980005, 0.8196078431372548767, 0.9333333333333333481 ) ;
#262 = SURFACE_STYLE_USAGE ( .BOTH. , #135 ) ;
#263 = DIRECTION ( 'NONE',  ( -3.061616997868380553E-17, 1.000000000000000000, 0.000000000000000000 ) ) ;
#264 = PRODUCT_DEFINITION_SHAPE ( 'NONE', 'NONE',  #155 ) ;
#265 = AXIS2_PLACEMENT_3D ( 'NONE', #183, #82, #129 ) ;
#266 =( LENGTH_UNIT ( ) NAMED_UNIT ( * ) SI_UNIT ( $, .METRE. ) );
#267 =( GEOMETRIC_REPRESENTATION_CONTEXT ( 3 ) GLOBAL_UNCERTAINTY_ASSIGNED_CONTEXT ( ( #66 ) ) GLOBAL_UNIT_ASSIGNED_CONTEXT ( ( #221, #115, #4 ) ) REPRESENTATION_CONTEXT ( 'NONE', 'WORKASPACE' ) );
#268 = DIRECTION ( 'NONE',  ( -0.000000000000000000, -1.000000000000000000, -0.000000000000000000 ) ) ;
#269 = ORIENTED_EDGE ( 'NONE', *, *, #232, .F. ) ;
#270 = CARTESIAN_POINT ( 'NONE',  ( 0.000000000000000000, 1.500000000000000222, 0.000000000000000000 ) ) ;
#271 = EDGE_LOOP ( 'NONE', ( #302, #12 ) ) ;
#272 = EDGE_CURVE ( 'NONE', #152, #100, #293, .T. ) ;
#273 = VERTEX_POINT ( 'NONE', #165 ) ;
#274 =( GEOMETRIC_REPRESENTATION_CONTEXT ( 3 ) GLOBAL_UNCERTAINTY_ASSIGNED_CONTEXT ( ( #145 ) ) GLOBAL_UNIT_ASSIGNED_CONTEXT ( ( #195, #156, #305 ) ) REPRESENTATION_CONTEXT ( 'NONE', 'WORKASPACE' ) );
#275 = AXIS2_PLACEMENT_3D ( 'NONE', #86, #22, #113 ) ;
#276 = DIRECTION ( 'NONE',  ( -1.000000000000000000, 0.000000000000000000, 0.000000000000000000 ) ) ;
#277 = CYLINDRICAL_SURFACE ( 'NONE', #265, 0.1875000000000000833 ) ;
#278 = CARTESIAN_POINT ( 'NONE',  ( 2.296212748401287726E-17, 0.000000000000000000, 0.1875000000000000278 ) ) ;
#279 = EDGE_LOOP ( 'NONE', ( #75, #96, #180, #223 ) ) ;
#280 = FILL_AREA_STYLE_COLOUR ( '', #229 ) ;
#281 = AXIS2_PLACEMENT_3D ( 'NONE', #141, #119, #198 ) ;
#282 = DIRECTION ( 'NONE',  ( 0.000000000000000000, 0.000000000000000000, -1.000000000000000000 ) ) ;
#283 =( LENGTH_UNIT ( ) NAMED_UNIT ( * ) SI_UNIT ( $, .METRE. ) );
#284 = PRODUCT_RELATED_PRODUCT_CATEGORY ( 'part', '', ( #3 ) ) ;
#285 = LENGTH_MEASURE_WITH_UNIT ( LENGTH_MEASURE( 0.02539999999999999897 ), #283 );
#286 = CARTESIAN_POINT ( 'NONE',  ( 2.296212748401288034E-17, 0.000000000000000000, 0.1875000000000000555 ) ) ;
#287 =( NAMED_UNIT ( * ) PLANE_ANGLE_UNIT ( ) SI_UNIT ( $, .RADIAN. ) );
#288 = CARTESIAN_POINT ( 'NONE',  ( -6.123233995736759873E-17, 3.500000000000000000, 0.000000000000000000 ) ) ;
#289 = AXIS2_PLACEMENT_3D ( 'NONE', #109, #91, #237 ) ;
#290 = LENGTH_MEASURE_WITH_UNIT ( LENGTH_MEASURE( 0.02539999999999999897 ), #266 );
#291 = PLANE ( 'NONE',  #117 ) ;
#292 = SURFACE_STYLE_FILL_AREA ( #296 ) ;
#293 = CIRCLE ( 'NONE', #153, 0.1875000000000001110 ) ;
#294 = EDGE_LOOP ( 'NONE', ( #230, #98 ) ) ;
#295 = LINE ( 'NONE', #8, #16 ) ;
#296 = FILL_AREA_STYLE ('',( #47 ) ) ;
#297 = ORIENTED_EDGE ( 'NONE', *, *, #272, .T. ) ;
#298 = VERTEX_POINT ( 'NONE', #217 ) ;
#299 = STYLED_ITEM ( 'NONE', ( #34 ), #227 ) ;
#300 = UNCERTAINTY_MEASURE_WITH_UNIT (LENGTH_MEASURE( 1.000000000000000082E-05 ), #92, 'distance_accuracy_value', 'NONE');
#301 = FACE_OUTER_BOUND ( 'NONE', #116, .T. ) ;
#302 = ORIENTED_EDGE ( 'NONE', *, *, #166, .F. ) ;
#303 = ADVANCED_BREP_SHAPE_REPRESENTATION ( '59261', ( #85, #191, #275 ), #238 ) ;
#304 = COLOUR_RGB ( '',1.000000000000000000, 0.000000000000000000, 0.000000000000000000 ) ;
#305 =( NAMED_UNIT ( * ) SI_UNIT ( $, .STERADIAN. ) SOLID_ANGLE_UNIT ( ) );
#306 = CARTESIAN_POINT ( 'NONE',  ( 0.000000000000000000, 1.500000000000000222, 0.000000000000000000 ) ) ;
#307 = AXIS2_PLACEMENT_3D ( 'NONE', #97, #122, #276 ) ;
#308 = DIRECTION ( 'NONE',  ( -0.000000000000000000, -1.000000000000000000, -0.000000000000000000 ) ) ;
#309 = SURFACE_STYLE_FILL_AREA ( #161 ) ;
ENDSEC;
END-ISO-10303-21;
