ISO-10303-21;
HEADER;
FILE_DESCRIPTION (( 'STEP AP214' ),
    '1' );
FILE_NAME ('86075.STEP',
    '2023-07-01T00:00:30',
    ( '' ),
    ( '' ),
    'SwSTEP 2.0',
    'SolidWorks 2023',
    '' );
FILE_SCHEMA (( 'AUTOMOTIVE_DESIGN' ));
ENDSEC;

DATA;
#1 =( CONVERSION_BASED_UNIT ( 'INCH', #146 ) LENGTH_UNIT ( ) NAMED_UNIT ( #359 ) );
#2 = STYLED_ITEM ( 'NONE', ( #148 ), #362 ) ;
#3 =( LENGTH_UNIT ( ) NAMED_UNIT ( * ) SI_UNIT ( $, .METRE. ) );
#4 = MANIFOLD_SOLID_BREP ( 'Revolve - Tool Body (Straight Shanked)', #279 ) ;
#5 = FILL_AREA_STYLE ('',( #11 ) ) ;
#6 = CARTESIAN_POINT ( 'NONE',  ( 0.000000000000000000, 0.06250000000000001388, 0.000000000000000000 ) ) ;
#7 = DIMENSIONAL_EXPONENTS ( 1.000000000000000000, 0.000000000000000000, 0.000000000000000000, 0.000000000000000000, 0.000000000000000000, 0.000000000000000000, 0.000000000000000000 ) ;
#8 = MANIFOLD_SOLID_BREP ( 'Revolve - Cutting Edge', #123 ) ;
#9 = CARTESIAN_POINT ( 'NONE',  ( -7.654042494670957545E-18, 0.06250000000000001388, 0.000000000000000000 ) ) ;
#10 = DIRECTION ( 'NONE',  ( -0.000000000000000000, -1.000000000000000000, -0.000000000000000000 ) ) ;
#11 = FILL_AREA_STYLE_COLOUR ( '', #238 ) ;
#12 = AXIS2_PLACEMENT_3D ( 'NONE', #310, #109, #313 ) ;
#13 = FACE_OUTER_BOUND ( 'NONE', #213, .T. ) ;
#14 = CYLINDRICAL_SURFACE ( 'NONE', #114, 0.06249999999999991673 ) ;
#15 =( GEOMETRIC_REPRESENTATION_CONTEXT ( 3 ) GLOBAL_UNCERTAINTY_ASSIGNED_CONTEXT ( ( #340 ) ) GLOBAL_UNIT_ASSIGNED_CONTEXT ( ( #122, #262, #237 ) ) REPRESENTATION_CONTEXT ( 'NONE', 'WORKASPACE' ) );
#16 = CARTESIAN_POINT ( 'NONE',  ( 0.000000000000000000, 0.06250000000000001388, 0.000000000000000000 ) ) ;
#17 =( GEOMETRIC_REPRESENTATION_CONTEXT ( 3 ) GLOBAL_UNCERTAINTY_ASSIGNED_CONTEXT ( ( #41 ) ) GLOBAL_UNIT_ASSIGNED_CONTEXT ( ( #333, #125, #178 ) ) REPRESENTATION_CONTEXT ( 'NONE', 'WORKASPACE' ) );
#18 = PRESENTATION_STYLE_ASSIGNMENT (( #271 ) ) ;
#19 = EDGE_CURVE ( 'NONE', #278, #365, #305, .T. ) ;
#20 =( NAMED_UNIT ( * ) PLANE_ANGLE_UNIT ( ) SI_UNIT ( $, .RADIAN. ) );
#21 = ORIENTED_EDGE ( 'NONE', *, *, #19, .F. ) ;
#22 = UNCERTAINTY_MEASURE_WITH_UNIT (LENGTH_MEASURE( 1.000000000000000082E-05 ), #1, 'distance_accuracy_value', 'NONE');
#23 = CARTESIAN_POINT ( 'NONE',  ( 7.654042494670946760E-18, 0.000000000000000000, 0.06249999999999991673 ) ) ;
#24 = ORIENTED_EDGE ( 'NONE', *, *, #332, .F. ) ;
#25 = AXIS2_PLACEMENT_3D ( 'NONE', #137, #110, #317 ) ;
#26 =( LENGTH_UNIT ( ) NAMED_UNIT ( * ) SI_UNIT ( $, .METRE. ) );
#27 = ORIENTED_EDGE ( 'NONE', *, *, #46, .F. ) ;
#28 = DIRECTION ( 'NONE',  ( -1.000000000000000000, 0.000000000000000000, 0.000000000000000000 ) ) ;
#29 = DIRECTION ( 'NONE',  ( -1.000000000000000000, 0.000000000000000000, 0.000000000000000000 ) ) ;
#30 = ADVANCED_BREP_SHAPE_REPRESENTATION ( '86075', ( #8, #4, #268 ), #293 ) ;
#31 =( LENGTH_UNIT ( ) NAMED_UNIT ( * ) SI_UNIT ( $, .METRE. ) );
#32 = VERTEX_POINT ( 'NONE', #358 ) ;
#33 =( GEOMETRIC_REPRESENTATION_CONTEXT ( 3 ) GLOBAL_UNCERTAINTY_ASSIGNED_CONTEXT ( ( #186 ) ) GLOBAL_UNIT_ASSIGNED_CONTEXT ( ( #108, #20, #162 ) ) REPRESENTATION_CONTEXT ( 'NONE', 'WORKASPACE' ) );
#34 = DIRECTION ( 'NONE',  ( 0.000000000000000000, 0.000000000000000000, 1.000000000000000000 ) ) ;
#35 = CARTESIAN_POINT ( 'NONE',  ( 0.000000000000000000, 0.06250000000000001388, -0.06249999999999995143 ) ) ;
#36 = ADVANCED_FACE ( 'NONE', ( #266 ), #60, .T. ) ;
#37 = EDGE_LOOP ( 'NONE', ( #373, #182, #221, #288, #274 ) ) ;
#38 = DIRECTION ( 'NONE',  ( -1.000000000000000000, 0.000000000000000000, 0.000000000000000000 ) ) ;
#39 = STYLED_ITEM ( 'NONE', ( #256 ), #4 ) ;
#40 = CYLINDRICAL_SURFACE ( 'NONE', #12, 0.06249999999999991673 ) ;
#41 = UNCERTAINTY_MEASURE_WITH_UNIT (LENGTH_MEASURE( 1.000000000000000082E-05 ), #333, 'distance_accuracy_value', 'NONE');
#42 = EDGE_CURVE ( 'NONE', #278, #43, #93, .T. ) ;
#43 = VERTEX_POINT ( 'NONE', #35 ) ;
#44 = FILL_AREA_STYLE_COLOUR ( '', #219 ) ;
#45 = DIRECTION ( 'NONE',  ( 0.000000000000000000, 0.000000000000000000, -1.000000000000000000 ) ) ;
#46 = EDGE_CURVE ( 'NONE', #250, #103, #360, .T. ) ;
#47 = ORIENTED_EDGE ( 'NONE', *, *, #302, .T. ) ;
#48 = AXIS2_PLACEMENT_3D ( 'NONE', #85, #354, #229 ) ;
#49 = CARTESIAN_POINT ( 'NONE',  ( 3.061616997868383141E-16, 2.500000000000000000, 0.000000000000000000 ) ) ;
#50 = EDGE_LOOP ( 'NONE', ( #21, #185 ) ) ;
#51 = CARTESIAN_POINT ( 'NONE',  ( 3.061616997868383141E-16, 2.500000000000000000, 0.000000000000000000 ) ) ;
#52 = VERTEX_POINT ( 'NONE', #151 ) ;
#53 = DIRECTION ( 'NONE',  ( -1.253589134178188357E-16, 1.000000000000000000, -0.000000000000000000 ) ) ;
#54 = SURFACE_STYLE_USAGE ( .BOTH. , #370 ) ;
#55 = COLOUR_RGB ( '',1.000000000000000000, 0.000000000000000000, 0.000000000000000000 ) ;
#56 = AXIS2_PLACEMENT_3D ( 'NONE', #113, #196, #28 ) ;
#57 = CARTESIAN_POINT ( 'NONE',  ( -7.654042494670957545E-18, 0.06250000000000001388, 0.000000000000000000 ) ) ;
#58 = SURFACE_STYLE_FILL_AREA ( #5 ) ;
#59 = APPLICATION_CONTEXT ( 'automotive_design' ) ;
#60 = CYLINDRICAL_SURFACE ( 'NONE', #363, 0.06249999999999947264 ) ;
#61 = AXIS2_PLACEMENT_3D ( 'NONE', #86, #246, #334 ) ;
#62 =( NAMED_UNIT ( * ) SI_UNIT ( $, .STERADIAN. ) SOLID_ANGLE_UNIT ( ) );
#63 = CARTESIAN_POINT ( 'NONE',  ( 3.061616997868383141E-16, 2.500000000000000000, 0.000000000000000000 ) ) ;
#64 =( CONVERSION_BASED_UNIT ( 'INCH', #202 ) LENGTH_UNIT ( ) NAMED_UNIT ( #248 ) );
#65 = DIRECTION ( 'NONE',  ( 0.000000000000000000, 0.000000000000000000, -1.000000000000000000 ) ) ;
#66 = SURFACE_SIDE_STYLE ('',( #180 ) ) ;
#67 = ADVANCED_FACE ( 'NONE', ( #13 ), #14, .T. ) ;
#68 = VECTOR ( 'NONE', #53, 39.37007874015748143 ) ;
#69 = SURFACE_STYLE_FILL_AREA ( #181 ) ;
#70 = CARTESIAN_POINT ( 'NONE',  ( 0.000000000000000000, 0.000000000000000000, -0.06249999999999991673 ) ) ;
#71 = LENGTH_MEASURE_WITH_UNIT ( LENGTH_MEASURE( 0.02539999999999999897 ), #3 );
#72 = SURFACE_STYLE_FILL_AREA ( #287 ) ;
#73 = DIMENSIONAL_EXPONENTS ( 1.000000000000000000, 0.000000000000000000, 0.000000000000000000, 0.000000000000000000, 0.000000000000000000, 0.000000000000000000, 0.000000000000000000 ) ;
#74 = EDGE_CURVE ( 'NONE', #309, #52, #285, .T. ) ;
#75 = STYLED_ITEM ( 'NONE', ( #353 ), #168 ) ;
#76 = DIMENSIONAL_EXPONENTS ( 1.000000000000000000, 0.000000000000000000, 0.000000000000000000, 0.000000000000000000, 0.000000000000000000, 0.000000000000000000, 0.000000000000000000 ) ;
#77 = PRODUCT_CONTEXT ( 'NONE', #147, 'mechanical' ) ;
#78 = UNCERTAINTY_MEASURE_WITH_UNIT (LENGTH_MEASURE( 1.000000000000000082E-05 ), #369, 'distance_accuracy_value', 'NONE');
#79 = SURFACE_STYLE_USAGE ( .BOTH. , #157 ) ;
#80 = DIRECTION ( 'NONE',  ( 0.000000000000000000, 0.000000000000000000, -1.000000000000000000 ) ) ;
#81 =( LENGTH_UNIT ( ) NAMED_UNIT ( * ) SI_UNIT ( $, .METRE. ) );
#82 = CARTESIAN_POINT ( 'NONE',  ( 0.000000000000000000, 0.06250000000000001388, 0.000000000000000000 ) ) ;
#83 = SURFACE_STYLE_USAGE ( .BOTH. , #89 ) ;
#84 =( GEOMETRIC_REPRESENTATION_CONTEXT ( 3 ) GLOBAL_UNCERTAINTY_ASSIGNED_CONTEXT ( ( #78 ) ) GLOBAL_UNIT_ASSIGNED_CONTEXT ( ( #369, #316, #111 ) ) REPRESENTATION_CONTEXT ( 'NONE', 'WORKASPACE' ) );
#85 = CARTESIAN_POINT ( 'NONE',  ( 5.098699340907939775E-16, 0.8749999999999997780, 0.000000000000000000 ) ) ;
#86 = CARTESIAN_POINT ( 'NONE',  ( 0.000000000000000000, 0.8749999999999997780, 0.000000000000000000 ) ) ;
#87 = DIRECTION ( 'NONE',  ( -0.000000000000000000, -1.000000000000000000, -0.000000000000000000 ) ) ;
#88 = EDGE_CURVE ( 'NONE', #32, #307, #211, .T. ) ;
#89 = SURFACE_SIDE_STYLE ('',( #284 ) ) ;
#90 = CIRCLE ( 'NONE', #299, 0.06249999999999956979 ) ;
#91 = ORIENTED_EDGE ( 'NONE', *, *, #332, .T. ) ;
#92 = ADVANCED_FACE ( 'NONE', ( #304 ), #40, .T. ) ;
#93 = LINE ( 'NONE', #70, #218 ) ;
#94 =( LENGTH_UNIT ( ) NAMED_UNIT ( * ) SI_UNIT ( $, .METRE. ) );
#95 = STYLED_ITEM ( 'NONE', ( #112 ), #8 ) ;
#96 = MECHANICAL_DESIGN_GEOMETRIC_PRESENTATION_REPRESENTATION (  '', ( #75 ), #17 ) ;
#97 = ADVANCED_FACE ( 'NONE', ( #244 ), #169, .T. ) ;
#98 = CARTESIAN_POINT ( 'NONE',  ( 3.061616997868383141E-16, 2.500000000000000000, 0.000000000000000000 ) ) ;
#99 =( NAMED_UNIT ( * ) SI_UNIT ( $, .STERADIAN. ) SOLID_ANGLE_UNIT ( ) );
#100 = MECHANICAL_DESIGN_GEOMETRIC_PRESENTATION_REPRESENTATION (  '', ( #95 ), #15 ) ;
#101 = DIRECTION ( 'NONE',  ( -1.253589134178188357E-16, 1.000000000000000000, -0.000000000000000000 ) ) ;
#102 = APPLICATION_PROTOCOL_DEFINITION ( 'draft international standard', 'automotive_design', 1998, #147 ) ;
#103 = VERTEX_POINT ( 'NONE', #247 ) ;
#104 = EDGE_CURVE ( 'NONE', #32, #193, #342, .T. ) ;
#105 = ORIENTED_EDGE ( 'NONE', *, *, #74, .F. ) ;
#106 = PRESENTATION_LAYER_ASSIGNMENT (  '', '', ( #263 ) ) ;
#107 = MECHANICAL_DESIGN_GEOMETRIC_PRESENTATION_REPRESENTATION (  '', ( #263 ), #84 ) ;
#108 =( CONVERSION_BASED_UNIT ( 'INCH', #71 ) LENGTH_UNIT ( ) NAMED_UNIT ( #154 ) );
#109 = DIRECTION ( 'NONE',  ( -0.000000000000000000, -1.000000000000000000, -0.000000000000000000 ) ) ;
#110 = DIRECTION ( 'NONE',  ( 1.253589134178188357E-16, -1.000000000000000000, 0.000000000000000000 ) ) ;
#111 =( NAMED_UNIT ( * ) SI_UNIT ( $, .STERADIAN. ) SOLID_ANGLE_UNIT ( ) );
#112 = PRESENTATION_STYLE_ASSIGNMENT (( #54 ) ) ;
#113 = CARTESIAN_POINT ( 'NONE',  ( 5.098699340907939775E-16, 0.8749999999999997780, 0.000000000000000000 ) ) ;
#114 = AXIS2_PLACEMENT_3D ( 'NONE', #346, #368, #80 ) ;
#115 = CIRCLE ( 'NONE', #231, 0.06249999999999995143 ) ;
#116 = ORIENTED_EDGE ( 'NONE', *, *, #42, .T. ) ;
#117 = VECTOR ( 'NONE', #311, 39.37007874015748143 ) ;
#118 =( LENGTH_UNIT ( ) NAMED_UNIT ( * ) SI_UNIT ( $, .METRE. ) );
#119 = DIRECTION ( 'NONE',  ( -0.000000000000000000, -1.000000000000000000, -0.000000000000000000 ) ) ;
#120 = SURFACE_SIDE_STYLE ('',( #322 ) ) ;
#121 = FILL_AREA_STYLE ('',( #195 ) ) ;
#122 =( CONVERSION_BASED_UNIT ( 'INCH', #257 ) LENGTH_UNIT ( ) NAMED_UNIT ( #73 ) );
#123 = CLOSED_SHELL ( 'NONE', ( #362, #92, #168, #67, #222 ) ) ;
#124 = EDGE_CURVE ( 'NONE', #365, #278, #252, .T. ) ;
#125 =( NAMED_UNIT ( * ) PLANE_ANGLE_UNIT ( ) SI_UNIT ( $, .RADIAN. ) );
#126 = VECTOR ( 'NONE', #184, 39.37007874015748143 ) ;
#127 = AXIS2_PLACEMENT_3D ( 'NONE', #149, #233, #258 ) ;
#128 = CARTESIAN_POINT ( 'NONE',  ( 0.06249999999999988898, 2.500000000000000000, 7.654042494670898997E-18 ) ) ;
#129 = FILL_AREA_STYLE_COLOUR ( '', #235 ) ;
#130 = SURFACE_STYLE_USAGE ( .BOTH. , #66 ) ;
#131 = APPLICATION_PROTOCOL_DEFINITION ( 'draft international standard', 'automotive_design', 1998, #59 ) ;
#132 = AXIS2_PLACEMENT_3D ( 'NONE', #236, #65, #297 ) ;
#133 = FACE_OUTER_BOUND ( 'NONE', #136, .T. ) ;
#134 = DIRECTION ( 'NONE',  ( -0.000000000000000000, -1.000000000000000000, -0.000000000000000000 ) ) ;
#135 = PRODUCT_DEFINITION_CONTEXT ( 'detailed design', #59, 'design' ) ;
#136 = EDGE_LOOP ( 'NONE', ( #24, #163, #327, #272 ) ) ;
#137 = CARTESIAN_POINT ( 'NONE',  ( 0.06249999999999988204, 2.500000000000000000, 0.000000000000000000 ) ) ;
#138 = CIRCLE ( 'NONE', #199, 0.06249999999999995143 ) ;
#139 = EDGE_CURVE ( 'NONE', #193, #355, #228, .T. ) ;
#140 = DIRECTION ( 'NONE',  ( -1.000000000000000000, 0.000000000000000000, 0.000000000000000000 ) ) ;
#141 =( CONVERSION_BASED_UNIT ( 'INCH', #173 ) LENGTH_UNIT ( ) NAMED_UNIT ( #76 ) );
#142 = ORIENTED_EDGE ( 'NONE', *, *, #215, .F. ) ;
#143 = AXIS2_PLACEMENT_3D ( 'NONE', #49, #254, #140 ) ;
#144 = ORIENTED_EDGE ( 'NONE', *, *, #74, .T. ) ;
#145 =( NAMED_UNIT ( * ) PLANE_ANGLE_UNIT ( ) SI_UNIT ( $, .RADIAN. ) );
#146 = LENGTH_MEASURE_WITH_UNIT ( LENGTH_MEASURE( 0.02539999999999999897 ), #118 );
#147 = APPLICATION_CONTEXT ( 'automotive_design' ) ;
#148 = PRESENTATION_STYLE_ASSIGNMENT (( #234 ) ) ;
#149 = CARTESIAN_POINT ( 'NONE',  ( 0.000000000000000000, 0.8749999999999997780, 0.000000000000000000 ) ) ;
#150 = MECHANICAL_DESIGN_GEOMETRIC_PRESENTATION_REPRESENTATION (  '', ( #223 ), #33 ) ;
#151 = CARTESIAN_POINT ( 'NONE',  ( -0.06249999999999996531, 0.06250000000000001388, 7.654042494670952923E-18 ) ) ;
#152 = AXIS2_PLACEMENT_3D ( 'NONE', #57, #164, #198 ) ;
#153 = DIRECTION ( 'NONE',  ( 1.000000000000000000, 0.000000000000000000, 0.000000000000000000 ) ) ;
#154 = DIMENSIONAL_EXPONENTS ( 1.000000000000000000, 0.000000000000000000, 0.000000000000000000, 0.000000000000000000, 0.000000000000000000, 0.000000000000000000, 0.000000000000000000 ) ;
#155 = DIRECTION ( 'NONE',  ( 0.000000000000000000, 0.000000000000000000, -1.000000000000000000 ) ) ;
#156 = MECHANICAL_DESIGN_GEOMETRIC_PRESENTATION_REPRESENTATION (  '', ( #39 ), #208 ) ;
#157 = SURFACE_SIDE_STYLE ('',( #72 ) ) ;
#158 = PRODUCT_DEFINITION_FORMATION_WITH_SPECIFIED_SOURCE ( 'ANY', '', #291, .NOT_KNOWN. ) ;
#159 = UNCERTAINTY_MEASURE_WITH_UNIT (LENGTH_MEASURE( 1.000000000000000082E-05 ), #212, 'distance_accuracy_value', 'NONE');
#160 = SHAPE_DEFINITION_REPRESENTATION ( #323, #30 ) ;
#161 = CARTESIAN_POINT ( 'NONE',  ( 5.098699340907939775E-16, 0.8749999999999997780, 0.000000000000000000 ) ) ;
#162 =( NAMED_UNIT ( * ) SI_UNIT ( $, .STERADIAN. ) SOLID_ANGLE_UNIT ( ) );
#163 = ORIENTED_EDGE ( 'NONE', *, *, #289, .T. ) ;
#164 = DIRECTION ( 'NONE',  ( 0.000000000000000000, 0.000000000000000000, 1.000000000000000000 ) ) ;
#165 = AXIS2_PLACEMENT_3D ( 'NONE', #336, #119, #351 ) ;
#166 = ORIENTED_EDGE ( 'NONE', *, *, #88, .T. ) ;
#167 = ORIENTED_EDGE ( 'NONE', *, *, #88, .F. ) ;
#168 = ADVANCED_FACE ( 'NONE', ( #172 ), #331, .T. ) ;
#169 = CYLINDRICAL_SURFACE ( 'NONE', #143, 0.06249999999999947264 ) ;
#170 = DIRECTION ( 'NONE',  ( -1.253589134178188357E-16, 1.000000000000000000, -0.000000000000000000 ) ) ;
#171 = ORIENTED_EDGE ( 'NONE', *, *, #289, .F. ) ;
#172 = FACE_OUTER_BOUND ( 'NONE', #50, .T. ) ;
#173 = LENGTH_MEASURE_WITH_UNIT ( LENGTH_MEASURE( 0.02539999999999999897 ), #214 );
#174 = PRESENTATION_LAYER_ASSIGNMENT (  '', '', ( #75 ) ) ;
#175 = ORIENTED_EDGE ( 'NONE', *, *, #242, .T. ) ;
#176 = DIRECTION ( 'NONE',  ( -1.253589134178188357E-16, 1.000000000000000000, -0.000000000000000000 ) ) ;
#177 = DIRECTION ( 'NONE',  ( 1.000000000000000000, 0.000000000000000000, 0.000000000000000000 ) ) ;
#178 =( NAMED_UNIT ( * ) SI_UNIT ( $, .STERADIAN. ) SOLID_ANGLE_UNIT ( ) );
#179 = AXIS2_PLACEMENT_3D ( 'NONE', #241, #220, #345 ) ;
#180 = SURFACE_STYLE_FILL_AREA ( #205 ) ;
#181 = FILL_AREA_STYLE ('',( #44 ) ) ;
#182 = ORIENTED_EDGE ( 'NONE', *, *, #269, .T. ) ;
#183 = UNCERTAINTY_MEASURE_WITH_UNIT (LENGTH_MEASURE( 1.000000000000000082E-05 ), #64, 'distance_accuracy_value', 'NONE');
#184 = DIRECTION ( 'NONE',  ( -1.253589134178188357E-16, 1.000000000000000000, -0.000000000000000000 ) ) ;
#185 = ORIENTED_EDGE ( 'NONE', *, *, #124, .F. ) ;
#186 = UNCERTAINTY_MEASURE_WITH_UNIT (LENGTH_MEASURE( 1.000000000000000082E-05 ), #108, 'distance_accuracy_value', 'NONE');
#187 = EDGE_CURVE ( 'NONE', #43, #250, #115, .T. ) ;
#188 = CARTESIAN_POINT ( 'NONE',  ( 0.000000000000000000, 0.000000000000000000, 0.000000000000000000 ) ) ;
#189 = ORIENTED_EDGE ( 'NONE', *, *, #215, .T. ) ;
#190 = FACE_OUTER_BOUND ( 'NONE', #290, .T. ) ;
#191 = ORIENTED_EDGE ( 'NONE', *, *, #302, .F. ) ;
#192 = LENGTH_MEASURE_WITH_UNIT ( LENGTH_MEASURE( 0.02539999999999999897 ), #26 );
#193 = VERTEX_POINT ( 'NONE', #300 ) ;
#194 = PLANE ( 'NONE',  #25 ) ;
#195 = FILL_AREA_STYLE_COLOUR ( '', #341 ) ;
#196 = DIRECTION ( 'NONE',  ( -1.253589134178188357E-16, 1.000000000000000000, -0.000000000000000000 ) ) ;
#197 = FILL_AREA_STYLE ('',( #232 ) ) ;
#198 = DIRECTION ( 'NONE',  ( 1.000000000000000000, 0.000000000000000000, 0.000000000000000000 ) ) ;
#199 = AXIS2_PLACEMENT_3D ( 'NONE', #82, #87, #45 ) ;
#200 =( NAMED_UNIT ( * ) PLANE_ANGLE_UNIT ( ) SI_UNIT ( $, .RADIAN. ) );
#201 = SURFACE_SIDE_STYLE ('',( #58 ) ) ;
#202 = LENGTH_MEASURE_WITH_UNIT ( LENGTH_MEASURE( 0.02539999999999999897 ), #94 );
#203 = EDGE_CURVE ( 'NONE', #355, #307, #240, .T. ) ;
#204 = AXIS2_PLACEMENT_3D ( 'NONE', #98, #101, #207 ) ;
#205 = FILL_AREA_STYLE ('',( #129 ) ) ;
#206 = PRODUCT_DEFINITION ( 'UNKNOWN', '', #158, #135 ) ;
#207 = DIRECTION ( 'NONE',  ( -1.000000000000000000, 0.000000000000000000, 0.000000000000000000 ) ) ;
#208 =( GEOMETRIC_REPRESENTATION_CONTEXT ( 3 ) GLOBAL_UNCERTAINTY_ASSIGNED_CONTEXT ( ( #22 ) ) GLOBAL_UNIT_ASSIGNED_CONTEXT ( ( #1, #200, #325 ) ) REPRESENTATION_CONTEXT ( 'NONE', 'WORKASPACE' ) );
#209 = PRESENTATION_LAYER_ASSIGNMENT (  '', '', ( #2 ) ) ;
#210 = FILL_AREA_STYLE ('',( #243 ) ) ;
#211 = LINE ( 'NONE', #338, #126 ) ;
#212 =( CONVERSION_BASED_UNIT ( 'INCH', #326 ) LENGTH_UNIT ( ) NAMED_UNIT ( #282 ) );
#213 = EDGE_LOOP ( 'NONE', ( #371, #227, #116, #171, #105 ) ) ;
#214 =( LENGTH_UNIT ( ) NAMED_UNIT ( * ) SI_UNIT ( $, .METRE. ) );
#215 = EDGE_CURVE ( 'NONE', #193, #32, #270, .T. ) ;
#216 =( NAMED_UNIT ( * ) PLANE_ANGLE_UNIT ( ) SI_UNIT ( $, .RADIAN. ) );
#217 = ORIENTED_EDGE ( 'NONE', *, *, #139, .F. ) ;
#218 = VECTOR ( 'NONE', #10, 39.37007874015748143 ) ;
#219 = COLOUR_RGB ( '',1.000000000000000000, 0.000000000000000000, 0.000000000000000000 ) ;
#220 = DIRECTION ( 'NONE',  ( 1.224646799147353207E-16, -0.000000000000000000, 1.000000000000000000 ) ) ;
#221 = ORIENTED_EDGE ( 'NONE', *, *, #242, .F. ) ;
#222 = ADVANCED_FACE ( 'NONE', ( #133 ), #224, .T. ) ;
#223 = STYLED_ITEM ( 'NONE', ( #301 ), #67 ) ;
#224 = SPHERICAL_SURFACE ( 'NONE', #152, 0.06249999999999997918 ) ;
#225 =( GEOMETRIC_REPRESENTATION_CONTEXT ( 3 ) GLOBAL_UNCERTAINTY_ASSIGNED_CONTEXT ( ( #183 ) ) GLOBAL_UNIT_ASSIGNED_CONTEXT ( ( #64, #330, #62 ) ) REPRESENTATION_CONTEXT ( 'NONE', 'WORKASPACE' ) );
#226 = SURFACE_STYLE_USAGE ( .BOTH. , #120 ) ;
#227 = ORIENTED_EDGE ( 'NONE', *, *, #124, .T. ) ;
#228 = LINE ( 'NONE', #319, #68 ) ;
#229 = DIRECTION ( 'NONE',  ( -1.000000000000000000, -1.253589134178188357E-16, 0.000000000000000000 ) ) ;
#230 = EDGE_LOOP ( 'NONE', ( #303, #337, #191, #167 ) ) ;
#231 = AXIS2_PLACEMENT_3D ( 'NONE', #6, #361, #155 ) ;
#232 = FILL_AREA_STYLE_COLOUR ( '', #292 ) ;
#233 = DIRECTION ( 'NONE',  ( 0.000000000000000000, 1.000000000000000000, 0.000000000000000000 ) ) ;
#234 = SURFACE_STYLE_USAGE ( .BOTH. , #201 ) ;
#235 = COLOUR_RGB ( '',1.000000000000000000, 0.000000000000000000, 0.000000000000000000 ) ;
#236 = CARTESIAN_POINT ( 'NONE',  ( -7.654042494670957545E-18, 0.06250000000000001388, 0.000000000000000000 ) ) ;
#237 =( NAMED_UNIT ( * ) SI_UNIT ( $, .STERADIAN. ) SOLID_ANGLE_UNIT ( ) );
#238 = COLOUR_RGB ( '',1.000000000000000000, 0.000000000000000000, 0.000000000000000000 ) ;
#239 = DIRECTION ( 'NONE',  ( 0.000000000000000000, 0.000000000000000000, -1.000000000000000000 ) ) ;
#240 = CIRCLE ( 'NONE', #204, 0.06249999999999956979 ) ;
#241 = CARTESIAN_POINT ( 'NONE',  ( -7.654042494670957545E-18, 0.06250000000000001388, 0.000000000000000000 ) ) ;
#242 = EDGE_CURVE ( 'NONE', #250, #309, #367, .T. ) ;
#243 = FILL_AREA_STYLE_COLOUR ( '', #329 ) ;
#244 = FACE_OUTER_BOUND ( 'NONE', #347, .T. ) ;
#245 = LINE ( 'NONE', #23, #117 ) ;
#246 = DIRECTION ( 'NONE',  ( -0.000000000000000000, -1.000000000000000000, -0.000000000000000000 ) ) ;
#247 = CARTESIAN_POINT ( 'NONE',  ( -3.827021247335479543E-18, 3.414809992080329023E-17, 0.000000000000000000 ) ) ;
#248 = DIMENSIONAL_EXPONENTS ( 1.000000000000000000, 0.000000000000000000, 0.000000000000000000, 0.000000000000000000, 0.000000000000000000, 0.000000000000000000, 0.000000000000000000 ) ;
#249 = FILL_AREA_STYLE_COLOUR ( '', #55 ) ;
#250 = VERTEX_POINT ( 'NONE', #276 ) ;
#251 = DIRECTION ( 'NONE',  ( 0.000000000000000000, 0.000000000000000000, -1.000000000000000000 ) ) ;
#252 = CIRCLE ( 'NONE', #372, 0.06249999999999988204 ) ;
#253 = ORIENTED_EDGE ( 'NONE', *, *, #203, .F. ) ;
#254 = DIRECTION ( 'NONE',  ( -1.253589134178188357E-16, 1.000000000000000000, -0.000000000000000000 ) ) ;
#255 = CARTESIAN_POINT ( 'NONE',  ( 7.654042494670951382E-18, 0.06250000000000001388, 0.06249999999999993755 ) ) ;
#256 = PRESENTATION_STYLE_ASSIGNMENT (( #83 ) ) ;
#257 = LENGTH_MEASURE_WITH_UNIT ( LENGTH_MEASURE( 0.02539999999999999897 ), #31 );
#258 = DIRECTION ( 'NONE',  ( 0.000000000000000000, -0.000000000000000000, 1.000000000000000000 ) ) ;
#259 = MECHANICAL_DESIGN_GEOMETRIC_PRESENTATION_REPRESENTATION (  '', ( #2 ), #225 ) ;
#260 = ADVANCED_FACE ( 'NONE', ( #190 ), #286, .F. ) ;
#261 = FACE_OUTER_BOUND ( 'NONE', #352, .T. ) ;
#262 =( NAMED_UNIT ( * ) PLANE_ANGLE_UNIT ( ) SI_UNIT ( $, .RADIAN. ) );
#263 = STYLED_ITEM ( 'NONE', ( #308 ), #92 ) ;
#264 = STYLED_ITEM ( 'NONE', ( #18 ), #222 ) ;
#265 = PRODUCT_RELATED_PRODUCT_CATEGORY ( 'part', '', ( #291 ) ) ;
#266 = FACE_OUTER_BOUND ( 'NONE', #230, .T. ) ;
#267 = AXIS2_PLACEMENT_3D ( 'NONE', #16, #134, #239 ) ;
#268 = AXIS2_PLACEMENT_3D ( 'NONE', #188, #339, #153 ) ;
#269 = EDGE_CURVE ( 'NONE', #365, #309, #245, .T. ) ;
#270 = CIRCLE ( 'NONE', #306, 0.06249999999999936856 ) ;
#271 = SURFACE_STYLE_USAGE ( .BOTH. , #343 ) ;
#272 = ORIENTED_EDGE ( 'NONE', *, *, #46, .T. ) ;
#273 = UNCERTAINTY_MEASURE_WITH_UNIT (LENGTH_MEASURE( 1.000000000000000082E-05 ), #141, 'distance_accuracy_value', 'NONE');
#274 = ORIENTED_EDGE ( 'NONE', *, *, #42, .F. ) ;
#275 = DIMENSIONAL_EXPONENTS ( 1.000000000000000000, 0.000000000000000000, 0.000000000000000000, 0.000000000000000000, 0.000000000000000000, 0.000000000000000000, 0.000000000000000000 ) ;
#276 = CARTESIAN_POINT ( 'NONE',  ( 0.06249999999999996531, 0.06250000000000001388, 0.000000000000000000 ) ) ;
#277 = ADVANCED_FACE ( 'NONE', ( #348 ), #194, .F. ) ;
#278 = VERTEX_POINT ( 'NONE', #314 ) ;
#279 = CLOSED_SHELL ( 'NONE', ( #36, #260, #97, #277 ) ) ;
#280 = MECHANICAL_DESIGN_GEOMETRIC_PRESENTATION_REPRESENTATION (  '', ( #264 ), #324 ) ;
#281 =( NAMED_UNIT ( * ) SI_UNIT ( $, .STERADIAN. ) SOLID_ANGLE_UNIT ( ) );
#282 = DIMENSIONAL_EXPONENTS ( 1.000000000000000000, 0.000000000000000000, 0.000000000000000000, 0.000000000000000000, 0.000000000000000000, 0.000000000000000000, 0.000000000000000000 ) ;
#283 = EDGE_LOOP ( 'NONE', ( #47, #315 ) ) ;
#284 = SURFACE_STYLE_FILL_AREA ( #121 ) ;
#285 = CIRCLE ( 'NONE', #267, 0.06249999999999995143 ) ;
#286 = PLANE ( 'NONE',  #48 ) ;
#287 = FILL_AREA_STYLE ('',( #249 ) ) ;
#288 = ORIENTED_EDGE ( 'NONE', *, *, #187, .F. ) ;
#289 = EDGE_CURVE ( 'NONE', #52, #43, #138, .T. ) ;
#290 = EDGE_LOOP ( 'NONE', ( #318, #142 ) ) ;
#291 = PRODUCT ( '86075', '86075', '', ( #77 ) ) ;
#292 = COLOUR_RGB ( '',0.7921568627450980005, 0.8196078431372548767, 0.9333333333333333481 ) ;
#293 =( GEOMETRIC_REPRESENTATION_CONTEXT ( 3 ) GLOBAL_UNCERTAINTY_ASSIGNED_CONTEXT ( ( #159 ) ) GLOBAL_UNIT_ASSIGNED_CONTEXT ( ( #212, #216, #99 ) ) REPRESENTATION_CONTEXT ( 'NONE', 'WORKASPACE' ) );
#294 = SPHERICAL_SURFACE ( 'NONE', #364, 0.06249999999999997918 ) ;
#295 = DIRECTION ( 'NONE',  ( -1.000000000000000000, 0.000000000000000000, 0.000000000000000000 ) ) ;
#296 =( LENGTH_UNIT ( ) NAMED_UNIT ( * ) SI_UNIT ( $, .METRE. ) );
#297 = DIRECTION ( 'NONE',  ( -1.000000000000000000, 0.000000000000000000, 0.000000000000000000 ) ) ;
#298 = LENGTH_MEASURE_WITH_UNIT ( LENGTH_MEASURE( 0.02539999999999999897 ), #81 );
#299 = AXIS2_PLACEMENT_3D ( 'NONE', #51, #170, #29 ) ;
#300 = CARTESIAN_POINT ( 'NONE',  ( 0.06249999999999988898, 0.8749999999999997780, 7.654042494670898997E-18 ) ) ;
#301 = PRESENTATION_STYLE_ASSIGNMENT (( #130 ) ) ;
#302 = EDGE_CURVE ( 'NONE', #307, #355, #90, .T. ) ;
#303 = ORIENTED_EDGE ( 'NONE', *, *, #104, .T. ) ;
#304 = FACE_OUTER_BOUND ( 'NONE', #37, .T. ) ;
#305 = CIRCLE ( 'NONE', #61, 0.06249999999999988204 ) ;
#306 = AXIS2_PLACEMENT_3D ( 'NONE', #161, #366, #38 ) ;
#307 = VERTEX_POINT ( 'NONE', #320 ) ;
#308 = PRESENTATION_STYLE_ASSIGNMENT (( #79 ) ) ;
#309 = VERTEX_POINT ( 'NONE', #255 ) ;
#310 = CARTESIAN_POINT ( 'NONE',  ( 0.000000000000000000, 0.000000000000000000, 0.000000000000000000 ) ) ;
#311 = DIRECTION ( 'NONE',  ( -0.000000000000000000, -1.000000000000000000, -0.000000000000000000 ) ) ;
#312 = PRESENTATION_LAYER_ASSIGNMENT (  '', '', ( #95 ) ) ;
#313 = DIRECTION ( 'NONE',  ( 0.000000000000000000, 0.000000000000000000, -1.000000000000000000 ) ) ;
#314 = CARTESIAN_POINT ( 'NONE',  ( 0.000000000000000000, 0.8749999999999997780, -0.06249999999999988204 ) ) ;
#315 = ORIENTED_EDGE ( 'NONE', *, *, #203, .T. ) ;
#316 =( NAMED_UNIT ( * ) PLANE_ANGLE_UNIT ( ) SI_UNIT ( $, .RADIAN. ) );
#317 = DIRECTION ( 'NONE',  ( 1.000000000000000000, 1.253589134178188357E-16, 0.000000000000000000 ) ) ;
#318 = ORIENTED_EDGE ( 'NONE', *, *, #104, .F. ) ;
#319 = CARTESIAN_POINT ( 'NONE',  ( 0.06249999999999977796, 2.500000000000000000, 7.654042494670892834E-18 ) ) ;
#320 = CARTESIAN_POINT ( 'NONE',  ( -0.06249999999999926448, 2.500000000000000000, 0.000000000000000000 ) ) ;
#321 = SURFACE_STYLE_FILL_AREA ( #197 ) ;
#322 = SURFACE_STYLE_FILL_AREA ( #210 ) ;
#323 = PRODUCT_DEFINITION_SHAPE ( 'NONE', 'NONE',  #206 ) ;
#324 =( GEOMETRIC_REPRESENTATION_CONTEXT ( 3 ) GLOBAL_UNCERTAINTY_ASSIGNED_CONTEXT ( ( #273 ) ) GLOBAL_UNIT_ASSIGNED_CONTEXT ( ( #141, #145, #281 ) ) REPRESENTATION_CONTEXT ( 'NONE', 'WORKASPACE' ) );
#325 =( NAMED_UNIT ( * ) SI_UNIT ( $, .STERADIAN. ) SOLID_ANGLE_UNIT ( ) );
#326 = LENGTH_MEASURE_WITH_UNIT ( LENGTH_MEASURE( 0.02539999999999999897 ), #296 );
#327 = ORIENTED_EDGE ( 'NONE', *, *, #187, .T. ) ;
#328 = PRESENTATION_LAYER_ASSIGNMENT (  '', '', ( #39 ) ) ;
#329 = COLOUR_RGB ( '',1.000000000000000000, 0.000000000000000000, 0.000000000000000000 ) ;
#330 =( NAMED_UNIT ( * ) PLANE_ANGLE_UNIT ( ) SI_UNIT ( $, .RADIAN. ) );
#331 = PLANE ( 'NONE',  #127 ) ;
#332 = EDGE_CURVE ( 'NONE', #52, #103, #357, .T. ) ;
#333 =( CONVERSION_BASED_UNIT ( 'INCH', #298 ) LENGTH_UNIT ( ) NAMED_UNIT ( #275 ) );
#334 = DIRECTION ( 'NONE',  ( 0.000000000000000000, 0.000000000000000000, -1.000000000000000000 ) ) ;
#335 = PRESENTATION_LAYER_ASSIGNMENT (  '', '', ( #264 ) ) ;
#336 = CARTESIAN_POINT ( 'NONE',  ( 0.000000000000000000, 0.06250000000000001388, 0.000000000000000000 ) ) ;
#337 = ORIENTED_EDGE ( 'NONE', *, *, #139, .T. ) ;
#338 = CARTESIAN_POINT ( 'NONE',  ( -0.06249999999999916039, 2.500000000000000000, 0.000000000000000000 ) ) ;
#339 = DIRECTION ( 'NONE',  ( 0.000000000000000000, 0.000000000000000000, 1.000000000000000000 ) ) ;
#340 = UNCERTAINTY_MEASURE_WITH_UNIT (LENGTH_MEASURE( 1.000000000000000082E-05 ), #122, 'distance_accuracy_value', 'NONE');
#341 = COLOUR_RGB ( '',0.7921568627450980005, 0.8196078431372548767, 0.9333333333333333481 ) ;
#342 = CIRCLE ( 'NONE', #56, 0.06249999999999936856 ) ;
#343 = SURFACE_SIDE_STYLE ('',( #69 ) ) ;
#344 = DIRECTION ( 'NONE',  ( -0.000000000000000000, -1.000000000000000000, -0.000000000000000000 ) ) ;
#345 = DIRECTION ( 'NONE',  ( 1.000000000000000000, 0.000000000000000000, -1.224646799147353454E-16 ) ) ;
#346 = CARTESIAN_POINT ( 'NONE',  ( 0.000000000000000000, 0.000000000000000000, 0.000000000000000000 ) ) ;
#347 = EDGE_LOOP ( 'NONE', ( #217, #189, #166, #253 ) ) ;
#348 = FACE_OUTER_BOUND ( 'NONE', #283, .T. ) ;
#349 = PRESENTATION_LAYER_ASSIGNMENT (  '', '', ( #223 ) ) ;
#350 = CARTESIAN_POINT ( 'NONE',  ( 0.000000000000000000, 0.8749999999999997780, 0.000000000000000000 ) ) ;
#351 = DIRECTION ( 'NONE',  ( 0.000000000000000000, 0.000000000000000000, -1.000000000000000000 ) ) ;
#352 = EDGE_LOOP ( 'NONE', ( #144, #91, #27, #175 ) ) ;
#353 = PRESENTATION_STYLE_ASSIGNMENT (( #226 ) ) ;
#354 = DIRECTION ( 'NONE',  ( -1.253589134178188357E-16, 1.000000000000000000, 0.000000000000000000 ) ) ;
#355 = VERTEX_POINT ( 'NONE', #128 ) ;
#356 = CARTESIAN_POINT ( 'NONE',  ( 7.654042494670945219E-18, 0.8749999999999997780, 0.06249999999999988204 ) ) ;
#357 = CIRCLE ( 'NONE', #179, 0.06249999999999997918 ) ;
#358 = CARTESIAN_POINT ( 'NONE',  ( -0.06249999999999885508, 0.8749999999999997780, 0.000000000000000000 ) ) ;
#359 = DIMENSIONAL_EXPONENTS ( 1.000000000000000000, 0.000000000000000000, 0.000000000000000000, 0.000000000000000000, 0.000000000000000000, 0.000000000000000000, 0.000000000000000000 ) ;
#360 = CIRCLE ( 'NONE', #132, 0.06249999999999997918 ) ;
#361 = DIRECTION ( 'NONE',  ( -0.000000000000000000, -1.000000000000000000, -0.000000000000000000 ) ) ;
#362 = ADVANCED_FACE ( 'NONE', ( #261 ), #294, .T. ) ;
#363 = AXIS2_PLACEMENT_3D ( 'NONE', #63, #176, #295 ) ;
#364 = AXIS2_PLACEMENT_3D ( 'NONE', #9, #34, #177 ) ;
#365 = VERTEX_POINT ( 'NONE', #356 ) ;
#366 = DIRECTION ( 'NONE',  ( -1.253589134178188357E-16, 1.000000000000000000, -0.000000000000000000 ) ) ;
#367 = CIRCLE ( 'NONE', #165, 0.06249999999999995143 ) ;
#368 = DIRECTION ( 'NONE',  ( -0.000000000000000000, -1.000000000000000000, -0.000000000000000000 ) ) ;
#369 =( CONVERSION_BASED_UNIT ( 'INCH', #192 ) LENGTH_UNIT ( ) NAMED_UNIT ( #7 ) );
#370 = SURFACE_SIDE_STYLE ('',( #321 ) ) ;
#371 = ORIENTED_EDGE ( 'NONE', *, *, #269, .F. ) ;
#372 = AXIS2_PLACEMENT_3D ( 'NONE', #350, #344, #251 ) ;
#373 = ORIENTED_EDGE ( 'NONE', *, *, #19, .T. ) ;
ENDSEC;
END-ISO-10303-21;
