ISO-10303-21;
HEADER;
FILE_DESCRIPTION (( 'STEP AP214' ),
    '1' );
FILE_NAME ('59504.STEP',
    '2023-07-24T15:08:11',
    ( '' ),
    ( '' ),
    'SwSTEP 2.0',
    'SolidWorks 2023',
    '' );
FILE_SCHEMA (( 'AUTOMOTIVE_DESIGN' ));
ENDSEC;

DATA;
#1 = CARTESIAN_POINT ( 'NONE',  ( 8.000000000000000000, 40.00000000000000000, 9.797174393178825657E-16 ) ) ;
#2 = DIRECTION ( 'NONE',  ( -1.279215233315390572E-16, 1.000000000000000000, -0.000000000000000000 ) ) ;
#3 = CYLINDRICAL_SURFACE ( 'NONE', #128, 8.000000000000000000 ) ;
#4 = PRESENTATION_STYLE_ASSIGNMENT (( #217 ) ) ;
#5 = AXIS2_PLACEMENT_3D ( 'NONE', #27, #173, #268 ) ;
#6 = SURFACE_STYLE_FILL_AREA ( #62 ) ;
#7 = FILL_AREA_STYLE_COLOUR ( '', #256 ) ;
#8 = ADVANCED_BREP_SHAPE_REPRESENTATION ( '59504', ( #269, #10, #145 ), #211 ) ;
#9 = APPLICATION_CONTEXT ( 'automotive_design' ) ;
#10 = MANIFOLD_SOLID_BREP ( 'Revolve - Tool Body (Straight Shanked)', #89 ) ;
#11 = FILL_AREA_STYLE ('',( #227 ) ) ;
#12 = PLANE ( 'NONE',  #230 ) ;
#13 = ADVANCED_FACE ( 'NONE', ( #336 ), #55, .T. ) ;
#14 =( NAMED_UNIT ( * ) PLANE_ANGLE_UNIT ( ) SI_UNIT ( $, .RADIAN. ) );
#15 =( NAMED_UNIT ( * ) SI_UNIT ( $, .STERADIAN. ) SOLID_ANGLE_UNIT ( ) );
#16 = ORIENTED_EDGE ( 'NONE', *, *, #146, .T. ) ;
#17 =( GEOMETRIC_REPRESENTATION_CONTEXT ( 3 ) GLOBAL_UNCERTAINTY_ASSIGNED_CONTEXT ( ( #32 ) ) GLOBAL_UNIT_ASSIGNED_CONTEXT ( ( #350, #347, #296 ) ) REPRESENTATION_CONTEXT ( 'NONE', 'WORKASPACE' ) );
#18 = STYLED_ITEM ( 'NONE', ( #136 ), #91 ) ;
#19 = ORIENTED_EDGE ( 'NONE', *, *, #162, .T. ) ;
#20 = CIRCLE ( 'NONE', #25, 8.000000000000001776 ) ;
#21 = ORIENTED_EDGE ( 'NONE', *, *, #205, .F. ) ;
#22 = CIRCLE ( 'NONE', #331, 8.000000000000000000 ) ;
#23 = DIRECTION ( 'NONE',  ( -1.279215233315390572E-16, 1.000000000000000000, -0.000000000000000000 ) ) ;
#24 =( LENGTH_UNIT ( ) NAMED_UNIT ( * ) SI_UNIT ( .MILLI., .METRE. ) );
#25 = AXIS2_PLACEMENT_3D ( 'NONE', #210, #185, #177 ) ;
#26 = EDGE_LOOP ( 'NONE', ( #365, #304, #258, #289 ) ) ;
#27 = CARTESIAN_POINT ( 'NONE',  ( 0.000000000000000000, 0.000000000000000000, 0.000000000000000000 ) ) ;
#28 = ORIENTED_EDGE ( 'NONE', *, *, #58, .F. ) ;
#29 = UNCERTAINTY_MEASURE_WITH_UNIT (LENGTH_MEASURE( 1.000000000000000082E-05 ), #130, 'distance_accuracy_value', 'NONE');
#30 = SURFACE_STYLE_USAGE ( .BOTH. , #38 ) ;
#31 = DIRECTION ( 'NONE',  ( -1.279215233315390572E-16, 1.000000000000000000, -0.000000000000000000 ) ) ;
#32 = UNCERTAINTY_MEASURE_WITH_UNIT (LENGTH_MEASURE( 1.000000000000000082E-05 ), #350, 'distance_accuracy_value', 'NONE');
#33 = AXIS2_PLACEMENT_3D ( 'NONE', #279, #326, #71 ) ;
#34 = ADVANCED_FACE ( 'NONE', ( #313 ), #36, .T. ) ;
#35 = DIRECTION ( 'NONE',  ( -0.000000000000000000, -1.000000000000000000, -0.000000000000000000 ) ) ;
#36 = CYLINDRICAL_SURFACE ( 'NONE', #5, 8.000000000000000000 ) ;
#37 = CARTESIAN_POINT ( 'NONE',  ( 0.000000000000000000, 0.000000000000000000, 0.000000000000000000 ) ) ;
#38 = SURFACE_SIDE_STYLE ('',( #6 ) ) ;
#39 = PRODUCT_DEFINITION ( 'UNKNOWN', '', #85, #318 ) ;
#40 = FACE_OUTER_BOUND ( 'NONE', #287, .T. ) ;
#41 = CARTESIAN_POINT ( 'NONE',  ( 9.797174393178825657E-16, 1.000000000000000000, 8.000000000000000000 ) ) ;
#42 = ORIENTED_EDGE ( 'NONE', *, *, #66, .F. ) ;
#43 = AXIS2_PLACEMENT_3D ( 'NONE', #276, #97, #70 ) ;
#44 =( NAMED_UNIT ( * ) SI_UNIT ( $, .STERADIAN. ) SOLID_ANGLE_UNIT ( ) );
#45 = CARTESIAN_POINT ( 'NONE',  ( 0.000000000000000000, 40.00000000000000000, 0.000000000000000000 ) ) ;
#46 =( LENGTH_UNIT ( ) NAMED_UNIT ( * ) SI_UNIT ( .MILLI., .METRE. ) );
#47 = PRESENTATION_LAYER_ASSIGNMENT (  '', '', ( #349 ) ) ;
#48 =( LENGTH_UNIT ( ) NAMED_UNIT ( * ) SI_UNIT ( .MILLI., .METRE. ) );
#49 = EDGE_CURVE ( 'NONE', #341, #311, #61, .T. ) ;
#50 = COLOUR_RGB ( '',1.000000000000000000, 0.000000000000000000, 0.000000000000000000 ) ;
#51 = PRESENTATION_LAYER_ASSIGNMENT (  '', '', ( #285 ) ) ;
#52 = ORIENTED_EDGE ( 'NONE', *, *, #92, .T. ) ;
#53 = ORIENTED_EDGE ( 'NONE', *, *, #92, .F. ) ;
#54 = VECTOR ( 'NONE', #68, 1000.000000000000000 ) ;
#55 = CYLINDRICAL_SURFACE ( 'NONE', #266, 7.999999999999998224 ) ;
#56 = VERTEX_POINT ( 'NONE', #370 ) ;
#57 = ORIENTED_EDGE ( 'NONE', *, *, #124, .F. ) ;
#58 = EDGE_CURVE ( 'NONE', #311, #283, #59, .T. ) ;
#59 = CIRCLE ( 'NONE', #43, 8.000000000000001776 ) ;
#60 = DIRECTION ( 'NONE',  ( 0.000000000000000000, 0.000000000000000000, -1.000000000000000000 ) ) ;
#61 = LINE ( 'NONE', #317, #171 ) ;
#62 = FILL_AREA_STYLE ('',( #301 ) ) ;
#63 = FACE_OUTER_BOUND ( 'NONE', #110, .T. ) ;
#64 = MECHANICAL_DESIGN_GEOMETRIC_PRESENTATION_REPRESENTATION (  '', ( #240 ), #356 ) ;
#65 = CLOSED_SHELL ( 'NONE', ( #192, #75, #119, #91, #34, #247 ) ) ;
#66 = EDGE_CURVE ( 'NONE', #56, #341, #260, .T. ) ;
#67 = AXIS2_PLACEMENT_3D ( 'NONE', #112, #116, #131 ) ;
#68 = DIRECTION ( 'NONE',  ( -0.000000000000000000, -1.000000000000000000, -0.000000000000000000 ) ) ;
#69 = PLANE ( 'NONE',  #305 ) ;
#70 = DIRECTION ( 'NONE',  ( -1.000000000000000000, 0.000000000000000000, 0.000000000000000000 ) ) ;
#71 = DIRECTION ( 'NONE',  ( -1.224646799147353454E-16, 0.000000000000000000, -1.000000000000000000 ) ) ;
#72 = FILL_AREA_STYLE ('',( #184 ) ) ;
#73 = SURFACE_STYLE_FILL_AREA ( #11 ) ;
#74 = CARTESIAN_POINT ( 'NONE',  ( 0.000000000000000000, 0.000000000000000000, -8.000000000000000000 ) ) ;
#75 = ADVANCED_FACE ( 'NONE', ( #209 ), #135, .T. ) ;
#76 =( NAMED_UNIT ( * ) PLANE_ANGLE_UNIT ( ) SI_UNIT ( $, .RADIAN. ) );
#77 = ORIENTED_EDGE ( 'NONE', *, *, #124, .T. ) ;
#78 = FACE_OUTER_BOUND ( 'NONE', #90, .T. ) ;
#79 = DIRECTION ( 'NONE',  ( 0.000000000000000000, 0.000000000000000000, -1.000000000000000000 ) ) ;
#80 = EDGE_LOOP ( 'NONE', ( #293, #292, #140, #28 ) ) ;
#81 = CIRCLE ( 'NONE', #33, 1.000000000000000000 ) ;
#82 =( GEOMETRIC_REPRESENTATION_CONTEXT ( 3 ) GLOBAL_UNCERTAINTY_ASSIGNED_CONTEXT ( ( #295 ) ) GLOBAL_UNIT_ASSIGNED_CONTEXT ( ( #238, #99, #178 ) ) REPRESENTATION_CONTEXT ( 'NONE', 'WORKASPACE' ) );
#83 = FILL_AREA_STYLE ('',( #202 ) ) ;
#84 = ORIENTED_EDGE ( 'NONE', *, *, #223, .F. ) ;
#85 = PRODUCT_DEFINITION_FORMATION_WITH_SPECIFIED_SOURCE ( 'ANY', '', #191, .NOT_KNOWN. ) ;
#86 = DIRECTION ( 'NONE',  ( -1.000000000000000000, 0.000000000000000000, 0.000000000000000000 ) ) ;
#87 = AXIS2_PLACEMENT_3D ( 'NONE', #239, #100, #215 ) ;
#88 = SURFACE_STYLE_FILL_AREA ( #234 ) ;
#89 = CLOSED_SHELL ( 'NONE', ( #325, #261, #13, #114 ) ) ;
#90 = EDGE_LOOP ( 'NONE', ( #42, #193 ) ) ;
#91 = ADVANCED_FACE ( 'NONE', ( #63 ), #340, .T. ) ;
#92 = EDGE_CURVE ( 'NONE', #334, #137, #329, .T. ) ;
#93 = FILL_AREA_STYLE ('',( #319 ) ) ;
#94 =( GEOMETRIC_REPRESENTATION_CONTEXT ( 3 ) GLOBAL_UNCERTAINTY_ASSIGNED_CONTEXT ( ( #29 ) ) GLOBAL_UNIT_ASSIGNED_CONTEXT ( ( #130, #160, #44 ) ) REPRESENTATION_CONTEXT ( 'NONE', 'WORKASPACE' ) );
#95 = AXIS2_PLACEMENT_3D ( 'NONE', #127, #242, #345 ) ;
#96 = UNCERTAINTY_MEASURE_WITH_UNIT (LENGTH_MEASURE( 1.000000000000000082E-05 ), #354, 'distance_accuracy_value', 'NONE');
#97 = DIRECTION ( 'NONE',  ( -1.279215233315390572E-16, 1.000000000000000000, -0.000000000000000000 ) ) ;
#98 = FACE_OUTER_BOUND ( 'NONE', #26, .T. ) ;
#99 =( NAMED_UNIT ( * ) PLANE_ANGLE_UNIT ( ) SI_UNIT ( $, .RADIAN. ) );
#100 = DIRECTION ( 'NONE',  ( -0.000000000000000000, -1.000000000000000000, -0.000000000000000000 ) ) ;
#101 = CIRCLE ( 'NONE', #139, 7.999999999999994671 ) ;
#102 = PRESENTATION_LAYER_ASSIGNMENT (  '', '', ( #206 ) ) ;
#103 =( GEOMETRIC_REPRESENTATION_CONTEXT ( 3 ) GLOBAL_UNCERTAINTY_ASSIGNED_CONTEXT ( ( #149 ) ) GLOBAL_UNIT_ASSIGNED_CONTEXT ( ( #277, #133, #224 ) ) REPRESENTATION_CONTEXT ( 'NONE', 'WORKASPACE' ) );
#104 = DIRECTION ( 'NONE',  ( 0.000000000000000000, 0.000000000000000000, -1.000000000000000000 ) ) ;
#105 =( NAMED_UNIT ( * ) SI_UNIT ( $, .STERADIAN. ) SOLID_ANGLE_UNIT ( ) );
#106 = ORIENTED_EDGE ( 'NONE', *, *, #205, .T. ) ;
#107 =( NAMED_UNIT ( * ) PLANE_ANGLE_UNIT ( ) SI_UNIT ( $, .RADIAN. ) );
#108 =( NAMED_UNIT ( * ) SI_UNIT ( $, .STERADIAN. ) SOLID_ANGLE_UNIT ( ) );
#109 = PLANE ( 'NONE',  #67 ) ;
#110 = EDGE_LOOP ( 'NONE', ( #144, #19, #117, #335 ) ) ;
#111 = PRESENTATION_STYLE_ASSIGNMENT (( #175 ) ) ;
#112 = CARTESIAN_POINT ( 'NONE',  ( 8.000000000000000000, 89.00000000000000000, 0.000000000000000000 ) ) ;
#113 = EDGE_LOOP ( 'NONE', ( #21, #57 ) ) ;
#114 = ADVANCED_FACE ( 'NONE', ( #40 ), #109, .F. ) ;
#115 = PRESENTATION_STYLE_ASSIGNMENT (( #330 ) ) ;
#116 = DIRECTION ( 'NONE',  ( 1.279215233315390572E-16, -1.000000000000000000, 0.000000000000000000 ) ) ;
#117 = ORIENTED_EDGE ( 'NONE', *, *, #141, .T. ) ;
#118 = AXIS2_PLACEMENT_3D ( 'NONE', #186, #298, #155 ) ;
#119 = ADVANCED_FACE ( 'NONE', ( #228 ), #12, .T. ) ;
#120 = SURFACE_STYLE_FILL_AREA ( #83 ) ;
#121 = COLOUR_RGB ( '',0.7921568627450980005, 0.8196078431372548767, 0.9333333333333333481 ) ;
#122 = EDGE_LOOP ( 'NONE', ( #106, #367, #84, #53 ) ) ;
#123 = MECHANICAL_DESIGN_GEOMETRIC_PRESENTATION_REPRESENTATION (  '', ( #18 ), #218 ) ;
#124 = EDGE_CURVE ( 'NONE', #220, #334, #312, .T. ) ;
#125 = EDGE_CURVE ( 'NONE', #254, #189, #179, .T. ) ;
#126 = CARTESIAN_POINT ( 'NONE',  ( 0.000000000000000000, 0.000000000000000000, 0.000000000000000000 ) ) ;
#127 = CARTESIAN_POINT ( 'NONE',  ( 4.553649124439119412E-15, 40.00000000000000000, 0.000000000000000000 ) ) ;
#128 = AXIS2_PLACEMENT_3D ( 'NONE', #344, #300, #275 ) ;
#129 = DIRECTION ( 'NONE',  ( -0.000000000000000000, -1.000000000000000000, -0.000000000000000000 ) ) ;
#130 =( LENGTH_UNIT ( ) NAMED_UNIT ( * ) SI_UNIT ( .MILLI., .METRE. ) );
#131 = DIRECTION ( 'NONE',  ( 1.000000000000000000, 1.279215233315390572E-16, 0.000000000000000000 ) ) ;
#132 = PRESENTATION_STYLE_ASSIGNMENT (( #303 ) ) ;
#133 =( NAMED_UNIT ( * ) PLANE_ANGLE_UNIT ( ) SI_UNIT ( $, .RADIAN. ) );
#134 = COLOUR_RGB ( '',1.000000000000000000, 0.000000000000000000, 0.000000000000000000 ) ;
#135 = TOROIDAL_SURFACE ( 'NONE', #195, 7.000000000000000000, 1.000000000000000000 ) ;
#136 = PRESENTATION_STYLE_ASSIGNMENT (( #284 ) ) ;
#137 = VERTEX_POINT ( 'NONE', #369 ) ;
#138 = APPLICATION_CONTEXT ( 'automotive_design' ) ;
#139 = AXIS2_PLACEMENT_3D ( 'NONE', #207, #232, #337 ) ;
#140 = ORIENTED_EDGE ( 'NONE', *, *, #198, .T. ) ;
#141 = EDGE_CURVE ( 'NONE', #137, #254, #169, .T. ) ;
#142 = PRESENTATION_LAYER_ASSIGNMENT (  '', '', ( #166 ) ) ;
#143 = ORIENTED_EDGE ( 'NONE', *, *, #125, .T. ) ;
#144 = ORIENTED_EDGE ( 'NONE', *, *, #213, .F. ) ;
#145 = AXIS2_PLACEMENT_3D ( 'NONE', #37, #351, #188 ) ;
#146 = EDGE_CURVE ( 'NONE', #189, #254, #216, .T. ) ;
#147 = FILL_AREA_STYLE_COLOUR ( '', #50 ) ;
#148 =( GEOMETRIC_REPRESENTATION_CONTEXT ( 3 ) GLOBAL_UNCERTAINTY_ASSIGNED_CONTEXT ( ( #96 ) ) GLOBAL_UNIT_ASSIGNED_CONTEXT ( ( #354, #76, #15 ) ) REPRESENTATION_CONTEXT ( 'NONE', 'WORKASPACE' ) );
#149 = UNCERTAINTY_MEASURE_WITH_UNIT (LENGTH_MEASURE( 1.000000000000000082E-05 ), #277, 'distance_accuracy_value', 'NONE');
#150 = DIRECTION ( 'NONE',  ( 0.000000000000000000, 0.000000000000000000, -1.000000000000000000 ) ) ;
#151 = CARTESIAN_POINT ( 'NONE',  ( 0.000000000000000000, 0.000000000000000000, 0.000000000000000000 ) ) ;
#152 = SURFACE_SIDE_STYLE ('',( #299 ) ) ;
#153 = AXIS2_PLACEMENT_3D ( 'NONE', #219, #156, #302 ) ;
#154 = CYLINDRICAL_SURFACE ( 'NONE', #264, 7.999999999999998224 ) ;
#155 = DIRECTION ( 'NONE',  ( 0.000000000000000000, 0.000000000000000000, -1.000000000000000000 ) ) ;
#156 = DIRECTION ( 'NONE',  ( -0.000000000000000000, -1.000000000000000000, -0.000000000000000000 ) ) ;
#157 = SURFACE_STYLE_FILL_AREA ( #72 ) ;
#158 = CARTESIAN_POINT ( 'NONE',  ( -8.000000000000000000, 89.00000000000000000, 0.000000000000000000 ) ) ;
#159 = PRESENTATION_LAYER_ASSIGNMENT (  '', '', ( #226 ) ) ;
#160 =( NAMED_UNIT ( * ) PLANE_ANGLE_UNIT ( ) SI_UNIT ( $, .RADIAN. ) );
#161 = DIRECTION ( 'NONE',  ( -0.000000000000000000, -1.000000000000000000, -0.000000000000000000 ) ) ;
#162 = EDGE_CURVE ( 'NONE', #359, #137, #290, .T. ) ;
#163 = DIRECTION ( 'NONE',  ( 0.000000000000000000, 1.000000000000000000, 0.000000000000000000 ) ) ;
#164 = PRODUCT_DEFINITION_SHAPE ( 'NONE', 'NONE',  #39 ) ;
#165 = CARTESIAN_POINT ( 'NONE',  ( 0.000000000000000000, 1.000000000000000000, 0.000000000000000000 ) ) ;
#166 = STYLED_ITEM ( 'NONE', ( #132 ), #119 ) ;
#167 = SURFACE_STYLE_USAGE ( .BOTH. , #231 ) ;
#168 = ORIENTED_EDGE ( 'NONE', *, *, #125, .F. ) ;
#169 = CIRCLE ( 'NONE', #259, 1.000000000000000000 ) ;
#170 = EDGE_LOOP ( 'NONE', ( #196, #332, #168, #229 ) ) ;
#171 = VECTOR ( 'NONE', #31, 1000.000000000000000 ) ;
#172 = CARTESIAN_POINT ( 'NONE',  ( 9.797174393178825657E-16, 40.00000000000000000, 8.000000000000000000 ) ) ;
#173 = DIRECTION ( 'NONE',  ( -0.000000000000000000, -1.000000000000000000, -0.000000000000000000 ) ) ;
#174 = UNCERTAINTY_MEASURE_WITH_UNIT (LENGTH_MEASURE( 1.000000000000000082E-05 ), #46, 'distance_accuracy_value', 'NONE');
#175 = SURFACE_STYLE_USAGE ( .BOTH. , #183 ) ;
#176 = FILL_AREA_STYLE_COLOUR ( '', #267 ) ;
#177 = DIRECTION ( 'NONE',  ( -1.000000000000000000, 0.000000000000000000, 0.000000000000000000 ) ) ;
#178 =( NAMED_UNIT ( * ) SI_UNIT ( $, .STERADIAN. ) SOLID_ANGLE_UNIT ( ) );
#179 = CIRCLE ( 'NONE', #255, 7.000000000000000000 ) ;
#180 = AXIS2_PLACEMENT_3D ( 'NONE', #357, #161, #187 ) ;
#181 = UNCERTAINTY_MEASURE_WITH_UNIT (LENGTH_MEASURE( 1.000000000000000082E-05 ), #243, 'distance_accuracy_value', 'NONE');
#182 = SHAPE_DEFINITION_REPRESENTATION ( #164, #8 ) ;
#183 = SURFACE_SIDE_STYLE ('',( #204 ) ) ;
#184 = FILL_AREA_STYLE_COLOUR ( '', #324 ) ;
#185 = DIRECTION ( 'NONE',  ( -1.279215233315390572E-16, 1.000000000000000000, -0.000000000000000000 ) ) ;
#186 = CARTESIAN_POINT ( 'NONE',  ( 0.000000000000000000, 40.00000000000000000, 0.000000000000000000 ) ) ;
#187 = DIRECTION ( 'NONE',  ( 0.000000000000000000, 0.000000000000000000, -1.000000000000000000 ) ) ;
#188 = DIRECTION ( 'NONE',  ( 1.000000000000000000, 0.000000000000000000, 0.000000000000000000 ) ) ;
#189 = VERTEX_POINT ( 'NONE', #270 ) ;
#190 = MECHANICAL_DESIGN_GEOMETRIC_PRESENTATION_REPRESENTATION (  '', ( #166 ), #148 ) ;
#191 = PRODUCT ( '59504', '59504', '', ( #249 ) ) ;
#192 = ADVANCED_FACE ( 'NONE', ( #212 ), #3, .T. ) ;
#193 = ORIENTED_EDGE ( 'NONE', *, *, #297, .F. ) ;
#194 = MECHANICAL_DESIGN_GEOMETRIC_PRESENTATION_REPRESENTATION (  '', ( #349 ), #17 ) ;
#195 = AXIS2_PLACEMENT_3D ( 'NONE', #165, #282, #79 ) ;
#196 = ORIENTED_EDGE ( 'NONE', *, *, #223, .T. ) ;
#197 = EDGE_LOOP ( 'NONE', ( #262, #77, #52, #361 ) ) ;
#198 = EDGE_CURVE ( 'NONE', #56, #283, #342, .T. ) ;
#199 = VECTOR ( 'NONE', #2, 1000.000000000000000 ) ;
#200 = MECHANICAL_DESIGN_GEOMETRIC_PRESENTATION_REPRESENTATION (  '', ( #285 ), #103 ) ;
#201 =( NAMED_UNIT ( * ) SI_UNIT ( $, .STERADIAN. ) SOLID_ANGLE_UNIT ( ) );
#202 = FILL_AREA_STYLE_COLOUR ( '', #274 ) ;
#203 = UNCERTAINTY_MEASURE_WITH_UNIT (LENGTH_MEASURE( 1.000000000000000082E-05 ), #24, 'distance_accuracy_value', 'NONE');
#204 = SURFACE_STYLE_FILL_AREA ( #93 ) ;
#205 = EDGE_CURVE ( 'NONE', #334, #220, #22, .T. ) ;
#206 = STYLED_ITEM ( 'NONE', ( #294 ), #34 ) ;
#207 = CARTESIAN_POINT ( 'NONE',  ( 4.553649124439119412E-15, 40.00000000000000000, 0.000000000000000000 ) ) ;
#208 = DIRECTION ( 'NONE',  ( -0.000000000000000000, -1.000000000000000000, -0.000000000000000000 ) ) ;
#209 = FACE_OUTER_BOUND ( 'NONE', #170, .T. ) ;
#210 = CARTESIAN_POINT ( 'NONE',  ( -1.714505518806293652E-15, 89.00000000000000000, 0.000000000000000000 ) ) ;
#211 =( GEOMETRIC_REPRESENTATION_CONTEXT ( 3 ) GLOBAL_UNCERTAINTY_ASSIGNED_CONTEXT ( ( #181 ) ) GLOBAL_UNIT_ASSIGNED_CONTEXT ( ( #243, #278, #108 ) ) REPRESENTATION_CONTEXT ( 'NONE', 'WORKASPACE' ) );
#212 = FACE_OUTER_BOUND ( 'NONE', #122, .T. ) ;
#213 = EDGE_CURVE ( 'NONE', #359, #189, #81, .T. ) ;
#214 = CARTESIAN_POINT ( 'NONE',  ( -1.714505518806293849E-15, 89.00000000000000000, 0.000000000000000000 ) ) ;
#215 = DIRECTION ( 'NONE',  ( 0.000000000000000000, 0.000000000000000000, -1.000000000000000000 ) ) ;
#216 = CIRCLE ( 'NONE', #321, 7.000000000000000000 ) ;
#217 = SURFACE_STYLE_USAGE ( .BOTH. , #152 ) ;
#218 =( GEOMETRIC_REPRESENTATION_CONTEXT ( 3 ) GLOBAL_UNCERTAINTY_ASSIGNED_CONTEXT ( ( #174 ) ) GLOBAL_UNIT_ASSIGNED_CONTEXT ( ( #46, #107, #105 ) ) REPRESENTATION_CONTEXT ( 'NONE', 'WORKASPACE' ) );
#219 = CARTESIAN_POINT ( 'NONE',  ( 0.000000000000000000, 1.000000000000000000, 0.000000000000000000 ) ) ;
#220 = VERTEX_POINT ( 'NONE', #172 ) ;
#221 = DIRECTION ( 'NONE',  ( -1.000000000000000000, 0.000000000000000000, 0.000000000000000000 ) ) ;
#222 = PLANE ( 'NONE',  #343 ) ;
#223 = EDGE_CURVE ( 'NONE', #137, #359, #315, .T. ) ;
#224 =( NAMED_UNIT ( * ) SI_UNIT ( $, .STERADIAN. ) SOLID_ANGLE_UNIT ( ) );
#225 = DIRECTION ( 'NONE',  ( -1.000000000000000000, -1.279215233315390572E-16, 0.000000000000000000 ) ) ;
#226 = STYLED_ITEM ( 'NONE', ( #111 ), #247 ) ;
#227 = FILL_AREA_STYLE_COLOUR ( '', #121 ) ;
#228 = FACE_OUTER_BOUND ( 'NONE', #252, .T. ) ;
#229 = ORIENTED_EDGE ( 'NONE', *, *, #141, .F. ) ;
#230 = AXIS2_PLACEMENT_3D ( 'NONE', #233, #338, #150 ) ;
#231 = SURFACE_SIDE_STYLE ('',( #120 ) ) ;
#232 = DIRECTION ( 'NONE',  ( -1.279215233315390572E-16, 1.000000000000000000, -0.000000000000000000 ) ) ;
#233 = CARTESIAN_POINT ( 'NONE',  ( 0.000000000000000000, 0.000000000000000000, 0.000000000000000000 ) ) ;
#234 = FILL_AREA_STYLE ('',( #147 ) ) ;
#235 = PRESENTATION_LAYER_ASSIGNMENT (  '', '', ( #240 ) ) ;
#236 = VECTOR ( 'NONE', #257, 1000.000000000000000 ) ;
#237 = SURFACE_STYLE_USAGE ( .BOTH. , #265 ) ;
#238 =( LENGTH_UNIT ( ) NAMED_UNIT ( * ) SI_UNIT ( .MILLI., .METRE. ) );
#239 = CARTESIAN_POINT ( 'NONE',  ( 0.000000000000000000, 1.000000000000000000, 0.000000000000000000 ) ) ;
#240 = STYLED_ITEM ( 'NONE', ( #115 ), #269 ) ;
#241 = CARTESIAN_POINT ( 'NONE',  ( 0.000000000000000000, 40.00000000000000000, 0.000000000000000000 ) ) ;
#242 = DIRECTION ( 'NONE',  ( -1.279215233315390572E-16, 1.000000000000000000, -0.000000000000000000 ) ) ;
#243 =( LENGTH_UNIT ( ) NAMED_UNIT ( * ) SI_UNIT ( .MILLI., .METRE. ) );
#244 = DIRECTION ( 'NONE',  ( -1.000000000000000000, 0.000000000000000000, 0.000000000000000000 ) ) ;
#245 = UNCERTAINTY_MEASURE_WITH_UNIT (LENGTH_MEASURE( 1.000000000000000082E-05 ), #48, 'distance_accuracy_value', 'NONE');
#246 = APPLICATION_PROTOCOL_DEFINITION ( 'draft international standard', 'automotive_design', 1998, #138 ) ;
#247 = ADVANCED_FACE ( 'NONE', ( #323 ), #69, .T. ) ;
#248 = CARTESIAN_POINT ( 'NONE',  ( 8.000000000000000000, 89.00000000000000000, 9.797174393178825657E-16 ) ) ;
#249 = PRODUCT_CONTEXT ( 'NONE', #9, 'mechanical' ) ;
#250 = FILL_AREA_STYLE ('',( #7 ) ) ;
#251 = CARTESIAN_POINT ( 'NONE',  ( 9.797174393178825657E-16, 0.000000000000000000, 8.000000000000000000 ) ) ;
#252 = EDGE_LOOP ( 'NONE', ( #143, #16 ) ) ;
#253 =( NAMED_UNIT ( * ) SI_UNIT ( $, .STERADIAN. ) SOLID_ANGLE_UNIT ( ) );
#254 = VERTEX_POINT ( 'NONE', #328 ) ;
#255 = AXIS2_PLACEMENT_3D ( 'NONE', #151, #129, #60 ) ;
#256 = COLOUR_RGB ( '',1.000000000000000000, 0.000000000000000000, 0.000000000000000000 ) ;
#257 = DIRECTION ( 'NONE',  ( -0.000000000000000000, -1.000000000000000000, -0.000000000000000000 ) ) ;
#258 = ORIENTED_EDGE ( 'NONE', *, *, #339, .F. ) ;
#259 = AXIS2_PLACEMENT_3D ( 'NONE', #320, #244, #346 ) ;
#260 = CIRCLE ( 'NONE', #95, 7.999999999999994671 ) ;
#261 = ADVANCED_FACE ( 'NONE', ( #78 ), #222, .F. ) ;
#262 = ORIENTED_EDGE ( 'NONE', *, *, #362, .F. ) ;
#263 = CARTESIAN_POINT ( 'NONE',  ( -8.000000000000003553, 89.00000000000000000, 0.000000000000000000 ) ) ;
#264 = AXIS2_PLACEMENT_3D ( 'NONE', #214, #322, #221 ) ;
#265 = SURFACE_SIDE_STYLE ('',( #88 ) ) ;
#266 = AXIS2_PLACEMENT_3D ( 'NONE', #366, #23, #86 ) ;
#267 = COLOUR_RGB ( '',1.000000000000000000, 0.000000000000000000, 0.000000000000000000 ) ;
#268 = DIRECTION ( 'NONE',  ( 0.000000000000000000, 0.000000000000000000, -1.000000000000000000 ) ) ;
#269 = MANIFOLD_SOLID_BREP ( 'Revolve - Cutting Edge', #65 ) ;
#270 = CARTESIAN_POINT ( 'NONE',  ( 9.184850993605147944E-16, 0.000000000000000000, 7.000000000000000000 ) ) ;
#271 = COLOUR_RGB ( '',1.000000000000000000, 0.000000000000000000, 0.000000000000000000 ) ;
#272 = CARTESIAN_POINT ( 'NONE',  ( 0.000000000000000000, 40.00000000000000000, -8.000000000000000000 ) ) ;
#273 = DIRECTION ( 'NONE',  ( 0.000000000000000000, 0.000000000000000000, -1.000000000000000000 ) ) ;
#274 = COLOUR_RGB ( '',0.7921568627450980005, 0.8196078431372548767, 0.9333333333333333481 ) ;
#275 = DIRECTION ( 'NONE',  ( 0.000000000000000000, 0.000000000000000000, -1.000000000000000000 ) ) ;
#276 = CARTESIAN_POINT ( 'NONE',  ( -1.714505518806293652E-15, 89.00000000000000000, 0.000000000000000000 ) ) ;
#277 =( LENGTH_UNIT ( ) NAMED_UNIT ( * ) SI_UNIT ( .MILLI., .METRE. ) );
#278 =( NAMED_UNIT ( * ) PLANE_ANGLE_UNIT ( ) SI_UNIT ( $, .RADIAN. ) );
#279 = CARTESIAN_POINT ( 'NONE',  ( 8.572527594031473190E-16, 1.000000000000000000, 7.000000000000000000 ) ) ;
#280 = APPLICATION_PROTOCOL_DEFINITION ( 'draft international standard', 'automotive_design', 1998, #9 ) ;
#281 = SURFACE_SIDE_STYLE ('',( #73 ) ) ;
#282 = DIRECTION ( 'NONE',  ( -0.000000000000000000, -1.000000000000000000, -0.000000000000000000 ) ) ;
#283 = VERTEX_POINT ( 'NONE', #263 ) ;
#284 = SURFACE_STYLE_USAGE ( .BOTH. , #307 ) ;
#285 = STYLED_ITEM ( 'NONE', ( #4 ), #75 ) ;
#286 = PRODUCT_RELATED_PRODUCT_CATEGORY ( 'part', '', ( #191 ) ) ;
#287 = EDGE_LOOP ( 'NONE', ( #355, #310 ) ) ;
#288 = PRESENTATION_STYLE_ASSIGNMENT (( #167 ) ) ;
#289 = ORIENTED_EDGE ( 'NONE', *, *, #198, .F. ) ;
#290 = CIRCLE ( 'NONE', #153, 8.000000000000000000 ) ;
#291 = MECHANICAL_DESIGN_GEOMETRIC_PRESENTATION_REPRESENTATION (  '', ( #358 ), #368 ) ;
#292 = ORIENTED_EDGE ( 'NONE', *, *, #297, .T. ) ;
#293 = ORIENTED_EDGE ( 'NONE', *, *, #49, .F. ) ;
#294 = PRESENTATION_STYLE_ASSIGNMENT (( #237 ) ) ;
#295 = UNCERTAINTY_MEASURE_WITH_UNIT (LENGTH_MEASURE( 1.000000000000000082E-05 ), #238, 'distance_accuracy_value', 'NONE');
#296 =( NAMED_UNIT ( * ) SI_UNIT ( $, .STERADIAN. ) SOLID_ANGLE_UNIT ( ) );
#297 = EDGE_CURVE ( 'NONE', #341, #56, #101, .T. ) ;
#298 = DIRECTION ( 'NONE',  ( -0.000000000000000000, -1.000000000000000000, -0.000000000000000000 ) ) ;
#299 = SURFACE_STYLE_FILL_AREA ( #348 ) ;
#300 = DIRECTION ( 'NONE',  ( -0.000000000000000000, -1.000000000000000000, -0.000000000000000000 ) ) ;
#301 = FILL_AREA_STYLE_COLOUR ( '', #271 ) ;
#302 = DIRECTION ( 'NONE',  ( 0.000000000000000000, 0.000000000000000000, -1.000000000000000000 ) ) ;
#303 = SURFACE_STYLE_USAGE ( .BOTH. , #333 ) ;
#304 = ORIENTED_EDGE ( 'NONE', *, *, #49, .T. ) ;
#305 = AXIS2_PLACEMENT_3D ( 'NONE', #45, #163, #360 ) ;
#306 = SURFACE_STYLE_FILL_AREA ( #250 ) ;
#307 = SURFACE_SIDE_STYLE ('',( #306 ) ) ;
#308 = MECHANICAL_DESIGN_GEOMETRIC_PRESENTATION_REPRESENTATION (  '', ( #206 ), #82 ) ;
#309 = PRESENTATION_LAYER_ASSIGNMENT (  '', '', ( #18 ) ) ;
#310 = ORIENTED_EDGE ( 'NONE', *, *, #58, .T. ) ;
#311 = VERTEX_POINT ( 'NONE', #248 ) ;
#312 = CIRCLE ( 'NONE', #118, 8.000000000000000000 ) ;
#313 = FACE_OUTER_BOUND ( 'NONE', #197, .T. ) ;
#314 =( NAMED_UNIT ( * ) PLANE_ANGLE_UNIT ( ) SI_UNIT ( $, .RADIAN. ) );
#315 = CIRCLE ( 'NONE', #87, 8.000000000000000000 ) ;
#316 = PRESENTATION_STYLE_ASSIGNMENT (( #30 ) ) ;
#317 = CARTESIAN_POINT ( 'NONE',  ( 7.999999999999996447, 89.00000000000000000, 9.797174393178823685E-16 ) ) ;
#318 = PRODUCT_DEFINITION_CONTEXT ( 'detailed design', #138, 'design' ) ;
#319 = FILL_AREA_STYLE_COLOUR ( '', #134 ) ;
#320 = CARTESIAN_POINT ( 'NONE',  ( 0.000000000000000000, 1.000000000000000000, -7.000000000000000000 ) ) ;
#321 = AXIS2_PLACEMENT_3D ( 'NONE', #126, #35, #273 ) ;
#322 = DIRECTION ( 'NONE',  ( -1.279215233315390572E-16, 1.000000000000000000, -0.000000000000000000 ) ) ;
#323 = FACE_OUTER_BOUND ( 'NONE', #113, .T. ) ;
#324 = COLOUR_RGB ( '',1.000000000000000000, 0.000000000000000000, 0.000000000000000000 ) ;
#325 = ADVANCED_FACE ( 'NONE', ( #98 ), #154, .T. ) ;
#326 = DIRECTION ( 'NONE',  ( 1.000000000000000000, 0.000000000000000000, -1.224646799147353207E-16 ) ) ;
#327 = LINE ( 'NONE', #251, #54 ) ;
#328 = CARTESIAN_POINT ( 'NONE',  ( 0.000000000000000000, 0.000000000000000000, -7.000000000000000000 ) ) ;
#329 = LINE ( 'NONE', #74, #236 ) ;
#330 = SURFACE_STYLE_USAGE ( .BOTH. , #281 ) ;
#331 = AXIS2_PLACEMENT_3D ( 'NONE', #241, #208, #104 ) ;
#332 = ORIENTED_EDGE ( 'NONE', *, *, #213, .T. ) ;
#333 = SURFACE_SIDE_STYLE ('',( #157 ) ) ;
#334 = VERTEX_POINT ( 'NONE', #272 ) ;
#335 = ORIENTED_EDGE ( 'NONE', *, *, #146, .F. ) ;
#336 = FACE_OUTER_BOUND ( 'NONE', #80, .T. ) ;
#337 = DIRECTION ( 'NONE',  ( -1.000000000000000000, 0.000000000000000000, 0.000000000000000000 ) ) ;
#338 = DIRECTION ( 'NONE',  ( 0.000000000000000000, -1.000000000000000000, -0.000000000000000000 ) ) ;
#339 = EDGE_CURVE ( 'NONE', #283, #311, #20, .T. ) ;
#340 = TOROIDAL_SURFACE ( 'NONE', #180, 7.000000000000000000, 1.000000000000000000 ) ;
#341 = VERTEX_POINT ( 'NONE', #1 ) ;
#342 = LINE ( 'NONE', #158, #199 ) ;
#343 = AXIS2_PLACEMENT_3D ( 'NONE', #352, #353, #225 ) ;
#344 = CARTESIAN_POINT ( 'NONE',  ( 0.000000000000000000, 0.000000000000000000, 0.000000000000000000 ) ) ;
#345 = DIRECTION ( 'NONE',  ( -1.000000000000000000, 0.000000000000000000, 0.000000000000000000 ) ) ;
#346 = DIRECTION ( 'NONE',  ( 0.000000000000000000, 0.000000000000000000, 1.000000000000000000 ) ) ;
#347 =( NAMED_UNIT ( * ) PLANE_ANGLE_UNIT ( ) SI_UNIT ( $, .RADIAN. ) );
#348 = FILL_AREA_STYLE ('',( #176 ) ) ;
#349 = STYLED_ITEM ( 'NONE', ( #316 ), #192 ) ;
#350 =( LENGTH_UNIT ( ) NAMED_UNIT ( * ) SI_UNIT ( .MILLI., .METRE. ) );
#351 = DIRECTION ( 'NONE',  ( 0.000000000000000000, 0.000000000000000000, 1.000000000000000000 ) ) ;
#352 = CARTESIAN_POINT ( 'NONE',  ( 4.553649124439118623E-15, 40.00000000000000000, 0.000000000000000000 ) ) ;
#353 = DIRECTION ( 'NONE',  ( -1.279215233315390572E-16, 1.000000000000000000, 0.000000000000000000 ) ) ;
#354 =( LENGTH_UNIT ( ) NAMED_UNIT ( * ) SI_UNIT ( .MILLI., .METRE. ) );
#355 = ORIENTED_EDGE ( 'NONE', *, *, #339, .T. ) ;
#356 =( GEOMETRIC_REPRESENTATION_CONTEXT ( 3 ) GLOBAL_UNCERTAINTY_ASSIGNED_CONTEXT ( ( #245 ) ) GLOBAL_UNIT_ASSIGNED_CONTEXT ( ( #48, #14, #253 ) ) REPRESENTATION_CONTEXT ( 'NONE', 'WORKASPACE' ) );
#357 = CARTESIAN_POINT ( 'NONE',  ( 0.000000000000000000, 1.000000000000000000, 0.000000000000000000 ) ) ;
#358 = STYLED_ITEM ( 'NONE', ( #288 ), #10 ) ;
#359 = VERTEX_POINT ( 'NONE', #41 ) ;
#360 = DIRECTION ( 'NONE',  ( 0.000000000000000000, -0.000000000000000000, 1.000000000000000000 ) ) ;
#361 = ORIENTED_EDGE ( 'NONE', *, *, #162, .F. ) ;
#362 = EDGE_CURVE ( 'NONE', #220, #359, #327, .T. ) ;
#363 = MECHANICAL_DESIGN_GEOMETRIC_PRESENTATION_REPRESENTATION (  '', ( #226 ), #94 ) ;
#364 = PRESENTATION_LAYER_ASSIGNMENT (  '', '', ( #358 ) ) ;
#365 = ORIENTED_EDGE ( 'NONE', *, *, #66, .T. ) ;
#366 = CARTESIAN_POINT ( 'NONE',  ( -1.714505518806293849E-15, 89.00000000000000000, 0.000000000000000000 ) ) ;
#367 = ORIENTED_EDGE ( 'NONE', *, *, #362, .T. ) ;
#368 =( GEOMETRIC_REPRESENTATION_CONTEXT ( 3 ) GLOBAL_UNCERTAINTY_ASSIGNED_CONTEXT ( ( #203 ) ) GLOBAL_UNIT_ASSIGNED_CONTEXT ( ( #24, #314, #201 ) ) REPRESENTATION_CONTEXT ( 'NONE', 'WORKASPACE' ) );
#369 = CARTESIAN_POINT ( 'NONE',  ( 0.000000000000000000, 1.000000000000000000, -8.000000000000000000 ) ) ;
#370 = CARTESIAN_POINT ( 'NONE',  ( -7.999999999999989342, 40.00000000000000000, 0.000000000000000000 ) ) ;
ENDSEC;
END-ISO-10303-21;
