ISO-10303-21;
HEADER;
FILE_DESCRIPTION (( 'STEP AP214' ),
    '1' );
FILE_NAME ('Micro_SEM-031-03.STEP',
    '2021-09-02T00:30:22',
    ( '' ),
    ( '' ),
    'SwSTEP 2.0',
    'SolidWorks 2020',
    '' );
FILE_SCHEMA (( 'AUTOMOTIVE_DESIGN' ));
ENDSEC;

DATA;
#1 = CARTESIAN_POINT ( 'NONE',  ( 0.0000000000000000000, 0.0000000000000000000, 1.500000000000000222 ) ) ;
#2 = AXIS2_PLACEMENT_3D ( 'NONE', #9, #106, #272 ) ;
#3 = DIRECTION ( 'NONE',  ( -1.224646799147353454E-16, -0.0000000000000000000, -1.000000000000000000 ) ) ;
#4 = LENGTH_MEASURE_WITH_UNIT ( LENGTH_MEASURE( 0.02539999999999999897 ), #294 );
#5 = STYLED_ITEM ( 'NONE', ( #145 ), #51 ) ;
#6 = CARTESIAN_POINT ( 'NONE',  ( -0.06250000000000000000, 0.0000000000000000000, 1.500000000000000222 ) ) ;
#7 = DIRECTION ( 'NONE',  ( -1.000000000000000000, 0.0000000000000000000, 0.0000000000000000000 ) ) ;
#8 = EDGE_LOOP ( 'NONE', ( #256, #78, #239, #197 ) ) ;
#9 = CARTESIAN_POINT ( 'NONE',  ( 0.0000000000000000000, 0.0000000000000000000, 1.500000000000000222 ) ) ;
#10 = COLOUR_RGB ( '',0.7921568627450980005, 0.8196078431372548767, 0.9333333333333333481 ) ;
#11 = ORIENTED_EDGE ( 'NONE', *, *, #241, .T. ) ;
#12 = LINE ( 'NONE', #64, #142 ) ;
#13 = ADVANCED_FACE ( 'NONE', ( #238 ), #288, .T. ) ;
#14 = DIRECTION ( 'NONE',  ( -1.224646799147353454E-16, -0.0000000000000000000, -1.000000000000000000 ) ) ;
#15 = DIRECTION ( 'NONE',  ( -1.000000000000000000, 0.0000000000000000000, 1.224646799147353454E-16 ) ) ;
#16 = CARTESIAN_POINT ( 'NONE',  ( 0.0000000000000000000, 0.0000000000000000000, 1.500000000000000222 ) ) ;
#17 =( NAMED_UNIT ( * ) PLANE_ANGLE_UNIT ( ) SI_UNIT ( $, .RADIAN. ) );
#18 = CIRCLE ( 'NONE', #2, 0.04750000000000064587 ) ;
#19 =( GEOMETRIC_REPRESENTATION_CONTEXT ( 3 ) GLOBAL_UNCERTAINTY_ASSIGNED_CONTEXT ( ( #253 ) ) GLOBAL_UNIT_ASSIGNED_CONTEXT ( ( #249, #251, #292 ) ) REPRESENTATION_CONTEXT ( 'NONE', 'WORKASPACE' ) );
#20 = EDGE_CURVE ( 'NONE', #273, #199, #83, .T. ) ;
#21 = CARTESIAN_POINT ( 'NONE',  ( 7.715274834628326610E-18, 0.0000000000000000000, 0.06300000000000000044 ) ) ;
#22 = ORIENTED_EDGE ( 'NONE', *, *, #110, .T. ) ;
#23 = CARTESIAN_POINT ( 'NONE',  ( 0.0000000000000000000, 0.0000000000000000000, 1.485000000000000764 ) ) ;
#24 = EDGE_CURVE ( 'NONE', #108, #295, #58, .T. ) ;
#25 = VECTOR ( 'NONE', #182, 39.37007874015748143 ) ;
#26 = LENGTH_MEASURE_WITH_UNIT ( LENGTH_MEASURE( 0.02539999999999999897 ), #124 );
#27 = LINE ( 'NONE', #118, #285 ) ;
#28 = SURFACE_STYLE_FILL_AREA ( #136 ) ;
#29 = DIRECTION ( 'NONE',  ( 0.0000000000000000000, 0.0000000000000000000, 1.000000000000000000 ) ) ;
#30 = CIRCLE ( 'NONE', #201, 0.01558439999999999652 ) ;
#31 = CARTESIAN_POINT ( 'NONE',  ( 0.06250000000000004163, 7.654042494670960626E-18, 0.3290715893364450362 ) ) ;
#32 = DIRECTION ( 'NONE',  ( 1.000000000000000000, 0.0000000000000000000, 0.0000000000000000000 ) ) ;
#33 = VERTEX_POINT ( 'NONE', #151 ) ;
#34 = ORIENTED_EDGE ( 'NONE', *, *, #20, .F. ) ;
#35 = DIMENSIONAL_EXPONENTS ( 1.000000000000000000, 0.0000000000000000000, 0.0000000000000000000, 0.0000000000000000000, 0.0000000000000000000, 0.0000000000000000000, 0.0000000000000000000 ) ;
#36 = PLANE ( 'NONE',  #246 ) ;
#37 = CIRCLE ( 'NONE', #69, 0.01558440000000000519 ) ;
#38 = CONICAL_SURFACE ( 'NONE', #250, 0.01558440000000000519, 0.1745329251994404141 ) ;
#39 = DIRECTION ( 'NONE',  ( -1.224646799147353454E-16, -0.0000000000000000000, -1.000000000000000000 ) ) ;
#40 = ORIENTED_EDGE ( 'NONE', *, *, #135, .T. ) ;
#41 = DIRECTION ( 'NONE',  ( 1.224646799147353454E-16, 0.0000000000000000000, 1.000000000000000000 ) ) ;
#42 = CARTESIAN_POINT ( 'NONE',  ( 0.06250000000000000000, 7.654042494670956004E-18, 1.485000000000000764 ) ) ;
#43 = CIRCLE ( 'NONE', #168, 0.06250000000000000000 ) ;
#44 = ORIENTED_EDGE ( 'NONE', *, *, #155, .F. ) ;
#45 = ADVANCED_FACE ( 'NONE', ( #221 ), #243, .T. ) ;
#46 = PRESENTATION_STYLE_ASSIGNMENT (( #164 ) ) ;
#47 = PRODUCT_DEFINITION ( 'UNKNOWN', '', #123, #66 ) ;
#48 =( GEOMETRIC_REPRESENTATION_CONTEXT ( 3 ) GLOBAL_UNCERTAINTY_ASSIGNED_CONTEXT ( ( #163 ) ) GLOBAL_UNIT_ASSIGNED_CONTEXT ( ( #158, #17, #115 ) ) REPRESENTATION_CONTEXT ( 'NONE', 'WORKASPACE' ) );
#49 = ORIENTED_EDGE ( 'NONE', *, *, #110, .F. ) ;
#50 = CARTESIAN_POINT ( 'NONE',  ( -0.04750000000000064587, 0.0000000000000000000, 1.500000000000000222 ) ) ;
#51 = MANIFOLD_SOLID_BREP ( 'Cut-Revolve1', #205 ) ;
#52 = SURFACE_STYLE_FILL_AREA ( #53 ) ;
#53 = FILL_AREA_STYLE ('',( #264 ) ) ;
#54 = ORIENTED_EDGE ( 'NONE', *, *, #258, .F. ) ;
#55 = CIRCLE ( 'NONE', #175, 0.01558440000000000519 ) ;
#56 = STYLED_ITEM ( 'NONE', ( #46 ), #81 ) ;
#57 = DIRECTION ( 'NONE',  ( 0.0000000000000000000, 0.0000000000000000000, 1.000000000000000000 ) ) ;
#58 = LINE ( 'NONE', #287, #194 ) ;
#59 = DIRECTION ( 'NONE',  ( -1.224646799147353454E-16, -0.0000000000000000000, -1.000000000000000000 ) ) ;
#60 = EDGE_LOOP ( 'NONE', ( #148, #22 ) ) ;
#61 = CARTESIAN_POINT ( 'NONE',  ( -0.01558439999999999652, 0.0000000000000000000, 3.817077115326402183E-18 ) ) ;
#62 =( GEOMETRIC_REPRESENTATION_CONTEXT ( 3 ) GLOBAL_UNCERTAINTY_ASSIGNED_CONTEXT ( ( #188 ) ) GLOBAL_UNIT_ASSIGNED_CONTEXT ( ( #117, #278, #75 ) ) REPRESENTATION_CONTEXT ( 'NONE', 'WORKASPACE' ) );
#63 = ORIENTED_EDGE ( 'NONE', *, *, #212, .T. ) ;
#64 = CARTESIAN_POINT ( 'NONE',  ( -0.01558439999999999652, 1.908538557663201862E-18, 0.06300000000000000044 ) ) ;
#65 = ADVANCED_FACE ( 'NONE', ( #68 ), #161, .T. ) ;
#66 = PRODUCT_DEFINITION_CONTEXT ( 'detailed design', #94, 'design' ) ;
#67 = CARTESIAN_POINT ( 'NONE',  ( 0.0000000000000000000, 0.0000000000000000000, 1.485000000000000764 ) ) ;
#68 = FACE_OUTER_BOUND ( 'NONE', #176, .T. ) ;
#69 = AXIS2_PLACEMENT_3D ( 'NONE', #254, #14, #191 ) ;
#70 = AXIS2_PLACEMENT_3D ( 'NONE', #67, #207, #244 ) ;
#71 = EDGE_CURVE ( 'NONE', #101, #173, #27, .T. ) ;
#72 = DIRECTION ( 'NONE',  ( -0.7071067811865456854, 0.0000000000000000000, -0.7071067811865493491 ) ) ;
#73 = ADVANCED_FACE ( 'NONE', ( #166 ), #281, .T. ) ;
#74 = DIRECTION ( 'NONE',  ( -1.000000000000000000, 0.0000000000000000000, 0.0000000000000000000 ) ) ;
#75 =( NAMED_UNIT ( * ) SI_UNIT ( $, .STERADIAN. ) SOLID_ANGLE_UNIT ( ) );
#76 = ADVANCED_FACE ( 'NONE', ( #169 ), #228, .T. ) ;
#77 = SURFACE_STYLE_USAGE ( .BOTH. , #146 ) ;
#78 = ORIENTED_EDGE ( 'NONE', *, *, #172, .T. ) ;
#79 = DIRECTION ( 'NONE',  ( -1.224646799147353454E-16, -0.0000000000000000000, -1.000000000000000000 ) ) ;
#80 = VERTEX_POINT ( 'NONE', #31 ) ;
#81 = ADVANCED_BREP_SHAPE_REPRESENTATION ( 'Micro_SEM-031-03', ( #51, #139 ), #19 ) ;
#82 = FACE_OUTER_BOUND ( 'NONE', #178, .T. ) ;
#83 = LINE ( 'NONE', #6, #189 ) ;
#84 = PRESENTATION_LAYER_ASSIGNMENT (  '', '', ( #56 ) ) ;
#85 = CARTESIAN_POINT ( 'NONE',  ( 0.0000000000000000000, 0.0000000000000000000, 1.500000000000000222 ) ) ;
#86 = PRODUCT_DEFINITION_SHAPE ( 'NONE', 'NONE',  #47 ) ;
#87 = DIRECTION ( 'NONE',  ( -0.0000000000000000000, -0.0000000000000000000, -1.000000000000000000 ) ) ;
#88 = CYLINDRICAL_SURFACE ( 'NONE', #234, 0.01558439999999999999 ) ;
#89 = LINE ( 'NONE', #268, #286 ) ;
#90 = AXIS2_PLACEMENT_3D ( 'NONE', #257, #216, #7 ) ;
#91 = ORIENTED_EDGE ( 'NONE', *, *, #279, .T. ) ;
#92 = DIRECTION ( 'NONE',  ( 0.0000000000000000000, 0.0000000000000000000, 1.000000000000000000 ) ) ;
#93 = CIRCLE ( 'NONE', #105, 0.06250000000000000000 ) ;
#94 = APPLICATION_CONTEXT ( 'automotive_design' ) ;
#95 = ADVANCED_FACE ( 'NONE', ( #284 ), #112, .T. ) ;
#96 = DIRECTION ( 'NONE',  ( -0.0000000000000000000, -0.0000000000000000000, -1.000000000000000000 ) ) ;
#97 = VERTEX_POINT ( 'NONE', #50 ) ;
#98 = ORIENTED_EDGE ( 'NONE', *, *, #159, .F. ) ;
#99 = PRODUCT ( 'Micro_SEM-031-03', 'Micro_SEM-031-03', '', ( #119 ) ) ;
#100 = ORIENTED_EDGE ( 'NONE', *, *, #232, .T. ) ;
#101 = VERTEX_POINT ( 'NONE', #144 ) ;
#102 = ORIENTED_EDGE ( 'NONE', *, *, #103, .F. ) ;
#103 = EDGE_CURVE ( 'NONE', #97, #273, #227, .T. ) ;
#104 = ORIENTED_EDGE ( 'NONE', *, *, #279, .F. ) ;
#105 = AXIS2_PLACEMENT_3D ( 'NONE', #160, #39, #226 ) ;
#106 = DIRECTION ( 'NONE',  ( 0.0000000000000000000, 0.0000000000000000000, 1.000000000000000000 ) ) ;
#107 = DIRECTION ( 'NONE',  ( -1.000000000000000000, 0.0000000000000000000, 1.224646799147353454E-16 ) ) ;
#108 = VERTEX_POINT ( 'NONE', #140 ) ;
#109 = LINE ( 'NONE', #187, #210 ) ;
#110 = EDGE_CURVE ( 'NONE', #101, #97, #262, .T. ) ;
#111 = CARTESIAN_POINT ( 'NONE',  ( 0.01558439999999999652, 1.908538557663201091E-18, 2.369500423704768587E-34 ) ) ;
#112 = CONICAL_SURFACE ( 'NONE', #90, 0.04750000000000064587, 0.7853981633974457255 ) ;
#113 = DIRECTION ( 'NONE',  ( 0.0000000000000000000, 0.0000000000000000000, 1.000000000000000000 ) ) ;
#114 = DIRECTION ( 'NONE',  ( 1.000000000000000000, 0.0000000000000000000, 0.0000000000000000000 ) ) ;
#115 =( NAMED_UNIT ( * ) SI_UNIT ( $, .STERADIAN. ) SOLID_ANGLE_UNIT ( ) );
#116 = VECTOR ( 'NONE', #72, 39.37007874015748143 ) ;
#117 =( CONVERSION_BASED_UNIT ( 'INCH', #26 ) LENGTH_UNIT ( ) NAMED_UNIT ( #149 ) );
#118 = CARTESIAN_POINT ( 'NONE',  ( 0.04750000000000064587, 5.817072295950006528E-18, 1.500000000000000222 ) ) ;
#119 = PRODUCT_CONTEXT ( 'NONE', #185, 'mechanical' ) ;
#120 = SHAPE_DEFINITION_REPRESENTATION ( #86, #81 ) ;
#121 = CIRCLE ( 'NONE', #167, 0.06250000000000000000 ) ;
#122 = DIRECTION ( 'NONE',  ( 1.000000000000000000, 0.0000000000000000000, 0.0000000000000000000 ) ) ;
#123 = PRODUCT_DEFINITION_FORMATION_WITH_SPECIFIED_SOURCE ( 'ANY', '', #99, .NOT_KNOWN. ) ;
#124 =( LENGTH_UNIT ( ) NAMED_UNIT ( * ) SI_UNIT ( $, .METRE. ) );
#125 = MECHANICAL_DESIGN_GEOMETRIC_PRESENTATION_REPRESENTATION (  '', ( #56 ), #62 ) ;
#126 = EDGE_CURVE ( 'NONE', #200, #295, #30, .T. ) ;
#127 = ORIENTED_EDGE ( 'NONE', *, *, #172, .F. ) ;
#128 = ORIENTED_EDGE ( 'NONE', *, *, #184, .T. ) ;
#129 = DIRECTION ( 'NONE',  ( -1.000000000000000000, 0.0000000000000000000, 0.0000000000000000000 ) ) ;
#130 = AXIS2_PLACEMENT_3D ( 'NONE', #1, #29, #122 ) ;
#131 = LENGTH_MEASURE_WITH_UNIT ( LENGTH_MEASURE( 0.02539999999999999897 ), #183 );
#132 = CARTESIAN_POINT ( 'NONE',  ( -0.06250000000000000000, 0.0000000000000000000, 1.485000000000000764 ) ) ;
#133 = DIRECTION ( 'NONE',  ( -1.224646799147353454E-16, -0.0000000000000000000, -1.000000000000000000 ) ) ;
#134 = CIRCLE ( 'NONE', #70, 0.06250000000000000000 ) ;
#135 = EDGE_CURVE ( 'NONE', #80, #199, #121, .T. ) ;
#136 = FILL_AREA_STYLE ('',( #283 ) ) ;
#137 = ADVANCED_FACE ( 'NONE', ( #82 ), #177, .F. ) ;
#138 = DIRECTION ( 'NONE',  ( -1.224646799147353454E-16, -0.0000000000000000000, -1.000000000000000000 ) ) ;
#139 = AXIS2_PLACEMENT_3D ( 'NONE', #280, #92, #299 ) ;
#140 = CARTESIAN_POINT ( 'NONE',  ( -0.01558439999999999652, 4.781290526167079511E-18, 0.06300000000000000044 ) ) ;
#141 = DIRECTION ( 'NONE',  ( 1.000000000000000000, 0.0000000000000000000, 0.0000000000000000000 ) ) ;
#142 = VECTOR ( 'NONE', #223, 39.37007874015748143 ) ;
#143 = ORIENTED_EDGE ( 'NONE', *, *, #103, .T. ) ;
#144 = CARTESIAN_POINT ( 'NONE',  ( 0.04750000000000064587, 6.735557395310482421E-18, 1.500000000000000222 ) ) ;
#145 = PRESENTATION_STYLE_ASSIGNMENT (( #77 ) ) ;
#146 = SURFACE_SIDE_STYLE ('',( #52 ) ) ;
#147 = AXIS2_PLACEMENT_3D ( 'NONE', #266, #57, #220 ) ;
#148 = ORIENTED_EDGE ( 'NONE', *, *, #155, .T. ) ;
#149 = DIMENSIONAL_EXPONENTS ( 1.000000000000000000, 0.0000000000000000000, 0.0000000000000000000, 0.0000000000000000000, 0.0000000000000000000, 0.0000000000000000000, 0.0000000000000000000 ) ;
#150 = ORIENTED_EDGE ( 'NONE', *, *, #71, .T. ) ;
#151 = CARTESIAN_POINT ( 'NONE',  ( 0.01558440000000001387, 0.0000000000000000000, 0.06300000000000000044 ) ) ;
#152 = DIRECTION ( 'NONE',  ( 0.0000000000000000000, 0.0000000000000000000, -1.000000000000000000 ) ) ;
#153 = DIRECTION ( 'NONE',  ( -1.224646799147353454E-16, -0.0000000000000000000, -1.000000000000000000 ) ) ;
#154 = CIRCLE ( 'NONE', #277, 0.01558439999999999652 ) ;
#155 = EDGE_CURVE ( 'NONE', #97, #101, #18, .T. ) ;
#156 = DIRECTION ( 'NONE',  ( -1.000000000000000000, 0.0000000000000000000, 0.0000000000000000000 ) ) ;
#157 = ORIENTED_EDGE ( 'NONE', *, *, #20, .T. ) ;
#158 =( CONVERSION_BASED_UNIT ( 'INCH', #4 ) LENGTH_UNIT ( ) NAMED_UNIT ( #247 ) );
#159 = EDGE_CURVE ( 'NONE', #108, #33, #37, .T. ) ;
#160 = CARTESIAN_POINT ( 'NONE',  ( 4.029964685712097154E-17, 0.0000000000000000000, 0.3290715893364450362 ) ) ;
#161 = CYLINDRICAL_SURFACE ( 'NONE', #215, 0.06250000000000000000 ) ;
#162 = ORIENTED_EDGE ( 'NONE', *, *, #24, .F. ) ;
#163 = UNCERTAINTY_MEASURE_WITH_UNIT (LENGTH_MEASURE( 1.000000000000000082E-05 ), #158, 'distance_accuracy_value', 'NONE');
#164 = SURFACE_STYLE_USAGE ( .BOTH. , #233 ) ;
#165 = AXIS2_PLACEMENT_3D ( 'NONE', #192, #193, #74 ) ;
#166 = FACE_OUTER_BOUND ( 'NONE', #186, .T. ) ;
#167 = AXIS2_PLACEMENT_3D ( 'NONE', #218, #3, #141 ) ;
#168 = AXIS2_PLACEMENT_3D ( 'NONE', #23, #152, #248 ) ;
#169 = FACE_OUTER_BOUND ( 'NONE', #289, .T. ) ;
#170 = CARTESIAN_POINT ( 'NONE',  ( 0.0000000000000000000, 0.0000000000000000000, 0.0000000000000000000 ) ) ;
#171 = EDGE_LOOP ( 'NONE', ( #240, #128, #219, #162 ) ) ;
#172 = EDGE_CURVE ( 'NONE', #33, #108, #55, .T. ) ;
#173 = VERTEX_POINT ( 'NONE', #42 ) ;
#174 = DIRECTION ( 'NONE',  ( -1.224646799147353454E-16, -0.0000000000000000000, -1.000000000000000000 ) ) ;
#175 = AXIS2_PLACEMENT_3D ( 'NONE', #260, #138, #156 ) ;
#176 = EDGE_LOOP ( 'NONE', ( #237, #100, #259, #34 ) ) ;
#177 = PLANE ( 'NONE',  #147 ) ;
#178 = EDGE_LOOP ( 'NONE', ( #63, #265 ) ) ;
#179 = EDGE_CURVE ( 'NONE', #199, #80, #93, .T. ) ;
#180 = FACE_OUTER_BOUND ( 'NONE', #60, .T. ) ;
#181 = MECHANICAL_DESIGN_GEOMETRIC_PRESENTATION_REPRESENTATION (  '', ( #5 ), #48 ) ;
#182 = DIRECTION ( 'NONE',  ( 0.1736481776669377974, 0.0000000000000000000, 0.9848077530122067991 ) ) ;
#183 =( LENGTH_UNIT ( ) NAMED_UNIT ( * ) SI_UNIT ( $, .METRE. ) );
#184 = EDGE_CURVE ( 'NONE', #33, #200, #109, .T. ) ;
#185 = APPLICATION_CONTEXT ( 'automotive_design' ) ;
#186 = EDGE_LOOP ( 'NONE', ( #98, #11, #196, #104 ) ) ;
#187 = CARTESIAN_POINT ( 'NONE',  ( 0.01558439999999999999, 1.908538557663201091E-18, -1.908538557663201477E-18 ) ) ;
#188 = UNCERTAINTY_MEASURE_WITH_UNIT (LENGTH_MEASURE( 1.000000000000000082E-05 ), #117, 'distance_accuracy_value', 'NONE');
#189 = VECTOR ( 'NONE', #96, 39.37007874015748143 ) ;
#190 = AXIS2_PLACEMENT_3D ( 'NONE', #85, #214, #129 ) ;
#191 = DIRECTION ( 'NONE',  ( -1.000000000000000000, 0.0000000000000000000, 0.0000000000000000000 ) ) ;
#192 = CARTESIAN_POINT ( 'NONE',  ( 0.0000000000000000000, 0.0000000000000000000, 1.500000000000000222 ) ) ;
#193 = DIRECTION ( 'NONE',  ( 0.0000000000000000000, 0.0000000000000000000, -1.000000000000000000 ) ) ;
#194 = VECTOR ( 'NONE', #79, 39.37007874015748143 ) ;
#195 = ADVANCED_FACE ( 'NONE', ( #180 ), #36, .T. ) ;
#196 = ORIENTED_EDGE ( 'NONE', *, *, #179, .T. ) ;
#197 = ORIENTED_EDGE ( 'NONE', *, *, #126, .F. ) ;
#198 = ORIENTED_EDGE ( 'NONE', *, *, #135, .F. ) ;
#199 = VERTEX_POINT ( 'NONE', #230 ) ;
#200 = VERTEX_POINT ( 'NONE', #111 ) ;
#201 = AXIS2_PLACEMENT_3D ( 'NONE', #213, #153, #245 ) ;
#202 = ORIENTED_EDGE ( 'NONE', *, *, #71, .F. ) ;
#203 = COLOUR_RGB ( '',0.7921568627450980005, 0.8196078431372548767, 0.9333333333333333481 ) ;
#204 = ORIENTED_EDGE ( 'NONE', *, *, #241, .F. ) ;
#205 = CLOSED_SHELL ( 'NONE', ( #298, #73, #95, #65, #13, #195, #76, #275, #45, #137 ) ) ;
#206 = CARTESIAN_POINT ( 'NONE',  ( 2.337285635691545748E-34, 0.0000000000000000000, 1.908538557663201091E-18 ) ) ;
#207 = DIRECTION ( 'NONE',  ( 0.0000000000000000000, 0.0000000000000000000, -1.000000000000000000 ) ) ;
#208 = FACE_OUTER_BOUND ( 'NONE', #261, .T. ) ;
#209 = FACE_OUTER_BOUND ( 'NONE', #171, .T. ) ;
#210 = VECTOR ( 'NONE', #59, 39.37007874015748143 ) ;
#211 = DIRECTION ( 'NONE',  ( 1.224646799147353454E-16, 0.0000000000000000000, 1.000000000000000000 ) ) ;
#212 = EDGE_CURVE ( 'NONE', #295, #200, #154, .T. ) ;
#213 = CARTESIAN_POINT ( 'NONE',  ( 2.337285635691545748E-34, 0.0000000000000000000, 1.908538557663201091E-18 ) ) ;
#214 = DIRECTION ( 'NONE',  ( -0.0000000000000000000, -0.0000000000000000000, -1.000000000000000000 ) ) ;
#215 = AXIS2_PLACEMENT_3D ( 'NONE', #282, #252, #231 ) ;
#216 = DIRECTION ( 'NONE',  ( 0.0000000000000000000, 0.0000000000000000000, -1.000000000000000000 ) ) ;
#217 = ORIENTED_EDGE ( 'NONE', *, *, #258, .T. ) ;
#218 = CARTESIAN_POINT ( 'NONE',  ( 4.029964685712097154E-17, 0.0000000000000000000, 0.3290715893364450362 ) ) ;
#219 = ORIENTED_EDGE ( 'NONE', *, *, #212, .F. ) ;
#220 = DIRECTION ( 'NONE',  ( 1.000000000000000000, 0.0000000000000000000, -0.0000000000000000000 ) ) ;
#221 = FACE_OUTER_BOUND ( 'NONE', #8, .T. ) ;
#222 = AXIS2_PLACEMENT_3D ( 'NONE', #236, #211, #32 ) ;
#223 = DIRECTION ( 'NONE',  ( -0.1736481776669375754, 2.126576849575861278E-17, 0.9848077530122067991 ) ) ;
#224 = CARTESIAN_POINT ( 'NONE',  ( 0.01558440000000001387, 0.0000000000000000000, 0.06300000000000000044 ) ) ;
#225 = ORIENTED_EDGE ( 'NONE', *, *, #263, .F. ) ;
#226 = DIRECTION ( 'NONE',  ( 1.000000000000000000, 0.0000000000000000000, 0.0000000000000000000 ) ) ;
#227 = LINE ( 'NONE', #290, #116 ) ;
#228 = CONICAL_SURFACE ( 'NONE', #165, 0.04750000000000064587, 0.7853981633974457255 ) ;
#229 = DIRECTION ( 'NONE',  ( 1.000000000000000000, 0.0000000000000000000, -0.0000000000000000000 ) ) ;
#230 = CARTESIAN_POINT ( 'NONE',  ( -0.06249999999999995837, 0.0000000000000000000, 0.3290715893364450362 ) ) ;
#231 = DIRECTION ( 'NONE',  ( -1.000000000000000000, 0.0000000000000000000, 0.0000000000000000000 ) ) ;
#232 = EDGE_CURVE ( 'NONE', #173, #80, #89, .T. ) ;
#233 = SURFACE_SIDE_STYLE ('',( #28 ) ) ;
#234 = AXIS2_PLACEMENT_3D ( 'NONE', #270, #271, #15 ) ;
#235 = APPLICATION_PROTOCOL_DEFINITION ( 'draft international standard', 'automotive_design', 1998, #94 ) ;
#236 = CARTESIAN_POINT ( 'NONE',  ( 7.715274834628326610E-18, 0.0000000000000000000, 0.06300000000000000044 ) ) ;
#237 = ORIENTED_EDGE ( 'NONE', *, *, #263, .T. ) ;
#238 = FACE_OUTER_BOUND ( 'NONE', #267, .T. ) ;
#239 = ORIENTED_EDGE ( 'NONE', *, *, #24, .T. ) ;
#240 = ORIENTED_EDGE ( 'NONE', *, *, #159, .T. ) ;
#241 = EDGE_CURVE ( 'NONE', #108, #199, #12, .T. ) ;
#242 = ORIENTED_EDGE ( 'NONE', *, *, #232, .F. ) ;
#243 = CYLINDRICAL_SURFACE ( 'NONE', #255, 0.01558439999999999999 ) ;
#244 = DIRECTION ( 'NONE',  ( 1.000000000000000000, 0.0000000000000000000, 0.0000000000000000000 ) ) ;
#245 = DIRECTION ( 'NONE',  ( -1.000000000000000000, 0.0000000000000000000, 1.224646799147353454E-16 ) ) ;
#246 = AXIS2_PLACEMENT_3D ( 'NONE', #16, #113, #229 ) ;
#247 = DIMENSIONAL_EXPONENTS ( 1.000000000000000000, 0.0000000000000000000, 0.0000000000000000000, 0.0000000000000000000, 0.0000000000000000000, 0.0000000000000000000, 0.0000000000000000000 ) ;
#248 = DIRECTION ( 'NONE',  ( 1.000000000000000000, 0.0000000000000000000, 0.0000000000000000000 ) ) ;
#249 =( CONVERSION_BASED_UNIT ( 'INCH', #131 ) LENGTH_UNIT ( ) NAMED_UNIT ( #35 ) );
#250 = AXIS2_PLACEMENT_3D ( 'NONE', #21, #41, #114 ) ;
#251 =( NAMED_UNIT ( * ) PLANE_ANGLE_UNIT ( ) SI_UNIT ( $, .RADIAN. ) );
#252 = DIRECTION ( 'NONE',  ( -0.0000000000000000000, -0.0000000000000000000, -1.000000000000000000 ) ) ;
#253 = UNCERTAINTY_MEASURE_WITH_UNIT (LENGTH_MEASURE( 1.000000000000000082E-05 ), #249, 'distance_accuracy_value', 'NONE');
#254 = CARTESIAN_POINT ( 'NONE',  ( 7.715274834628326610E-18, 0.0000000000000000000, 0.06300000000000000044 ) ) ;
#255 = AXIS2_PLACEMENT_3D ( 'NONE', #170, #174, #107 ) ;
#256 = ORIENTED_EDGE ( 'NONE', *, *, #184, .F. ) ;
#257 = CARTESIAN_POINT ( 'NONE',  ( 0.0000000000000000000, 0.0000000000000000000, 1.500000000000000222 ) ) ;
#258 = EDGE_CURVE ( 'NONE', #173, #273, #43, .T. ) ;
#259 = ORIENTED_EDGE ( 'NONE', *, *, #179, .F. ) ;
#260 = CARTESIAN_POINT ( 'NONE',  ( 7.715274834628326610E-18, 0.0000000000000000000, 0.06300000000000000044 ) ) ;
#261 = EDGE_LOOP ( 'NONE', ( #204, #127, #91, #40 ) ) ;
#262 = CIRCLE ( 'NONE', #130, 0.04750000000000064587 ) ;
#263 = EDGE_CURVE ( 'NONE', #273, #173, #134, .T. ) ;
#264 = FILL_AREA_STYLE_COLOUR ( '', #10 ) ;
#265 = ORIENTED_EDGE ( 'NONE', *, *, #126, .T. ) ;
#266 = CARTESIAN_POINT ( 'NONE',  ( 0.0000000000000000000, 0.0000000000000000000, 0.0000000000000000000 ) ) ;
#267 = EDGE_LOOP ( 'NONE', ( #242, #217, #157, #198 ) ) ;
#268 = CARTESIAN_POINT ( 'NONE',  ( 0.06250000000000000000, 7.654042494670956004E-18, 1.500000000000000222 ) ) ;
#269 = PRODUCT_RELATED_PRODUCT_CATEGORY ( 'part', '', ( #99 ) ) ;
#270 = CARTESIAN_POINT ( 'NONE',  ( 0.0000000000000000000, 0.0000000000000000000, 0.0000000000000000000 ) ) ;
#271 = DIRECTION ( 'NONE',  ( -1.224646799147353454E-16, -0.0000000000000000000, -1.000000000000000000 ) ) ;
#272 = DIRECTION ( 'NONE',  ( 1.000000000000000000, 0.0000000000000000000, 0.0000000000000000000 ) ) ;
#273 = VERTEX_POINT ( 'NONE', #132 ) ;
#274 = DIRECTION ( 'NONE',  ( -1.000000000000000000, 0.0000000000000000000, 1.224646799147353454E-16 ) ) ;
#275 = ADVANCED_FACE ( 'NONE', ( #208 ), #38, .T. ) ;
#276 = PRESENTATION_LAYER_ASSIGNMENT (  '', '', ( #5 ) ) ;
#277 = AXIS2_PLACEMENT_3D ( 'NONE', #206, #133, #274 ) ;
#278 =( NAMED_UNIT ( * ) PLANE_ANGLE_UNIT ( ) SI_UNIT ( $, .RADIAN. ) );
#279 = EDGE_CURVE ( 'NONE', #33, #80, #293, .T. ) ;
#280 = CARTESIAN_POINT ( 'NONE',  ( 0.0000000000000000000, 0.0000000000000000000, 0.0000000000000000000 ) ) ;
#281 = CONICAL_SURFACE ( 'NONE', #222, 0.01558440000000000519, 0.1745329251994404141 ) ;
#282 = CARTESIAN_POINT ( 'NONE',  ( 0.0000000000000000000, 0.0000000000000000000, 1.500000000000000222 ) ) ;
#283 = FILL_AREA_STYLE_COLOUR ( '', #203 ) ;
#284 = FACE_OUTER_BOUND ( 'NONE', #297, .T. ) ;
#285 = VECTOR ( 'NONE', #291, 39.37007874015748143 ) ;
#286 = VECTOR ( 'NONE', #87, 39.37007874015748143 ) ;
#287 = CARTESIAN_POINT ( 'NONE',  ( -0.01558439999999999999, 0.0000000000000000000, 1.908538557663201477E-18 ) ) ;
#288 = CYLINDRICAL_SURFACE ( 'NONE', #190, 0.06250000000000000000 ) ;
#289 = EDGE_LOOP ( 'NONE', ( #202, #44, #143, #54 ) ) ;
#290 = CARTESIAN_POINT ( 'NONE',  ( -0.04750000000000064587, 0.0000000000000000000, 1.500000000000000222 ) ) ;
#291 = DIRECTION ( 'NONE',  ( 0.7071067811865456854, 8.659560562354911904E-17, -0.7071067811865493491 ) ) ;
#292 =( NAMED_UNIT ( * ) SI_UNIT ( $, .STERADIAN. ) SOLID_ANGLE_UNIT ( ) );
#293 = LINE ( 'NONE', #224, #25 ) ;
#294 =( LENGTH_UNIT ( ) NAMED_UNIT ( * ) SI_UNIT ( $, .METRE. ) );
#295 = VERTEX_POINT ( 'NONE', #61 ) ;
#296 = APPLICATION_PROTOCOL_DEFINITION ( 'draft international standard', 'automotive_design', 1998, #185 ) ;
#297 = EDGE_LOOP ( 'NONE', ( #49, #150, #225, #102 ) ) ;
#298 = ADVANCED_FACE ( 'NONE', ( #209 ), #88, .T. ) ;
#299 = DIRECTION ( 'NONE',  ( 1.000000000000000000, 0.0000000000000000000, 0.0000000000000000000 ) ) ;
ENDSEC;
END-ISO-10303-21;
