ISO-10303-21;
HEADER;
FILE_DESCRIPTION (( 'STEP AP214' ),
    '1' );
FILE_NAME ('Micro_SBMM-100-230.STEP',
    '2021-09-02T17:19:51',
    ( '' ),
    ( '' ),
    'SwSTEP 2.0',
    'SolidWorks 2020',
    '' );
FILE_SCHEMA (( 'AUTOMOTIVE_DESIGN' ));
ENDSEC;

DATA;
#1 = AXIS2_PLACEMENT_3D ( 'NONE', #29, #301, #114 ) ;
#2 = CIRCLE ( 'NONE', #141, 0.1318899999999999517 ) ;
#3 = EDGE_CURVE ( 'NONE', #179, #18, #209, .T. ) ;
#4 = DIRECTION ( 'NONE',  ( 0.0000000000000000000, 0.0000000000000000000, 1.000000000000000000 ) ) ;
#5 = CARTESIAN_POINT ( 'NONE',  ( 0.0000000000000000000, 0.0000000000000000000, 1.181102000000000096 ) ) ;
#6 = AXIS2_PLACEMENT_3D ( 'NONE', #245, #57, #142 ) ;
#7 = APPLICATION_CONTEXT ( 'automotive_design' ) ;
#8 = SPHERICAL_SURFACE ( 'NONE', #216, 0.1968500000000000250 ) ;
#9 = COLOUR_RGB ( '',0.7921568627450980005, 0.8196078431372548767, 0.9333333333333333481 ) ;
#10 = DIRECTION ( 'NONE',  ( 0.0000000000000000000, 0.0000000000000000000, 1.000000000000000000 ) ) ;
#11 = DIRECTION ( 'NONE',  ( 0.0000000000000000000, 0.0000000000000000000, -1.000000000000000000 ) ) ;
#12 = AXIS2_PLACEMENT_3D ( 'NONE', #288, #204, #176 ) ;
#13 = FILL_AREA_STYLE ('',( #252 ) ) ;
#14 =( CONVERSION_BASED_UNIT ( 'INCH', #253 ) LENGTH_UNIT ( ) NAMED_UNIT ( #273 ) );
#15 = DIRECTION ( 'NONE',  ( -0.0000000000000000000, -0.0000000000000000000, -1.000000000000000000 ) ) ;
#16 = VERTEX_POINT ( 'NONE', #342 ) ;
#17 =( NAMED_UNIT ( * ) SI_UNIT ( $, .STERADIAN. ) SOLID_ANGLE_UNIT ( ) );
#18 = VERTEX_POINT ( 'NONE', #183 ) ;
#19 = STYLED_ITEM ( 'NONE', ( #89 ), #152 ) ;
#20 = DIRECTION ( 'NONE',  ( -0.09128369410827939789, 1.117902838040504709E-17, 0.9958249279817943389 ) ) ;
#21 =( NAMED_UNIT ( * ) PLANE_ANGLE_UNIT ( ) SI_UNIT ( $, .RADIAN. ) );
#22 = ORIENTED_EDGE ( 'NONE', *, *, #222, .T. ) ;
#23 = ORIENTED_EDGE ( 'NONE', *, *, #247, .T. ) ;
#24 = ORIENTED_EDGE ( 'NONE', *, *, #222, .F. ) ;
#25 = UNCERTAINTY_MEASURE_WITH_UNIT (LENGTH_MEASURE( 1.000000000000000082E-05 ), #95, 'distance_accuracy_value', 'NONE');
#26 = AXIS2_PLACEMENT_3D ( 'NONE', #269, #139, #325 ) ;
#27 = ADVANCED_FACE ( 'NONE', ( #290 ), #106, .T. ) ;
#28 = CARTESIAN_POINT ( 'NONE',  ( 0.2165355499999996602, 0.0000000000000000000, 2.104510606062141242 ) ) ;
#29 = CARTESIAN_POINT ( 'NONE',  ( 0.0000000000000000000, 0.0000000000000000000, 0.0000000000000000000 ) ) ;
#30 = LINE ( 'NONE', #28, #196 ) ;
#31 = AXIS2_PLACEMENT_3D ( 'NONE', #193, #270, #194 ) ;
#32 = CARTESIAN_POINT ( 'NONE',  ( 0.0000000000000000000, 0.0000000000000000000, 1.889763999999999777 ) ) ;
#33 = EDGE_CURVE ( 'NONE', #72, #159, #130, .T. ) ;
#34 = FACE_OUTER_BOUND ( 'NONE', #267, .T. ) ;
#35 =( NAMED_UNIT ( * ) SI_UNIT ( $, .STERADIAN. ) SOLID_ANGLE_UNIT ( ) );
#36 = CIRCLE ( 'NONE', #233, 0.1968504999999999838 ) ;
#37 = EDGE_CURVE ( 'NONE', #203, #308, #341, .T. ) ;
#38 =( NAMED_UNIT ( * ) PLANE_ANGLE_UNIT ( ) SI_UNIT ( $, .RADIAN. ) );
#39 = LINE ( 'NONE', #232, #312 ) ;
#40 = DIRECTION ( 'NONE',  ( 1.000000000000000000, 0.0000000000000000000, 0.0000000000000000000 ) ) ;
#41 = DIRECTION ( 'NONE',  ( -0.0000000000000000000, -0.0000000000000000000, -1.000000000000000000 ) ) ;
#42 = ORIENTED_EDGE ( 'NONE', *, *, #268, .F. ) ;
#43 = APPLICATION_CONTEXT ( 'automotive_design' ) ;
#44 = CARTESIAN_POINT ( 'NONE',  ( -0.1968504999999999838, 0.0000000000000000000, 1.889763999999999777 ) ) ;
#45 = ORIENTED_EDGE ( 'NONE', *, *, #52, .F. ) ;
#46 = DIRECTION ( 'NONE',  ( -0.0000000000000000000, -0.0000000000000000000, -1.000000000000000000 ) ) ;
#47 = PRODUCT_CONTEXT ( 'NONE', #7, 'mechanical' ) ;
#48 = CARTESIAN_POINT ( 'NONE',  ( -0.1318899999999998962, 0.0000000000000000000, 0.0000000000000000000 ) ) ;
#49 = CARTESIAN_POINT ( 'NONE',  ( 0.0000000000000000000, 0.0000000000000000000, 3.937007999999999619 ) ) ;
#50 = AXIS2_PLACEMENT_3D ( 'NONE', #175, #305, #329 ) ;
#51 = ORIENTED_EDGE ( 'NONE', *, *, #99, .T. ) ;
#52 = EDGE_CURVE ( 'NONE', #16, #295, #124, .T. ) ;
#53 = ORIENTED_EDGE ( 'NONE', *, *, #320, .T. ) ;
#54 = ORIENTED_EDGE ( 'NONE', *, *, #145, .T. ) ;
#55 = DIRECTION ( 'NONE',  ( -0.0000000000000000000, -0.0000000000000000000, -1.000000000000000000 ) ) ;
#56 = DIRECTION ( 'NONE',  ( 1.000000000000000000, 0.0000000000000000000, 0.0000000000000000000 ) ) ;
#57 = DIRECTION ( 'NONE',  ( 0.0000000000000000000, 0.0000000000000000000, 1.000000000000000000 ) ) ;
#58 = AXIS2_PLACEMENT_3D ( 'NONE', #284, #103, #307 ) ;
#59 = ADVANCED_FACE ( 'NONE', ( #34 ), #8, .T. ) ;
#60 = FACE_OUTER_BOUND ( 'NONE', #285, .T. ) ;
#61 = PRESENTATION_LAYER_ASSIGNMENT (  '', '', ( #19 ) ) ;
#62 = DIRECTION ( 'NONE',  ( -0.0000000000000000000, -0.0000000000000000000, -1.000000000000000000 ) ) ;
#63 = AXIS2_PLACEMENT_3D ( 'NONE', #278, #67, #119 ) ;
#64 = DIRECTION ( 'NONE',  ( -1.000000000000000000, 0.0000000000000000000, 0.0000000000000000000 ) ) ;
#65 = ADVANCED_FACE ( 'NONE', ( #297 ), #249, .T. ) ;
#66 = CARTESIAN_POINT ( 'NONE',  ( -0.1818504999999994431, 0.0000000000000000000, 3.937007999999999619 ) ) ;
#67 = DIRECTION ( 'NONE',  ( 0.0000000000000000000, 0.0000000000000000000, 1.000000000000000000 ) ) ;
#68 = FACE_OUTER_BOUND ( 'NONE', #78, .T. ) ;
#69 = ORIENTED_EDGE ( 'NONE', *, *, #3, .T. ) ;
#70 = FACE_OUTER_BOUND ( 'NONE', #154, .T. ) ;
#71 =( GEOMETRIC_REPRESENTATION_CONTEXT ( 3 ) GLOBAL_UNCERTAINTY_ASSIGNED_CONTEXT ( ( #321 ) ) GLOBAL_UNIT_ASSIGNED_CONTEXT ( ( #289, #108, #286 ) ) REPRESENTATION_CONTEXT ( 'NONE', 'WORKASPACE' ) );
#72 = VERTEX_POINT ( 'NONE', #328 ) ;
#73 = AXIS2_PLACEMENT_3D ( 'NONE', #76, #127, #228 ) ;
#74 = CARTESIAN_POINT ( 'NONE',  ( 0.0000000000000000000, 0.0000000000000000000, 3.937007999999999619 ) ) ;
#75 = APPLICATION_PROTOCOL_DEFINITION ( 'draft international standard', 'automotive_design', 1998, #7 ) ;
#76 = CARTESIAN_POINT ( 'NONE',  ( 0.0000000000000000000, 0.0000000000000000000, 3.937007999999999619 ) ) ;
#77 = DIRECTION ( 'NONE',  ( 0.7071067811865419106, 8.659560562354863833E-17, -0.7071067811865531239 ) ) ;
#78 = EDGE_LOOP ( 'NONE', ( #161, #156, #184, #265, #256 ) ) ;
#79 = ADVANCED_FACE ( 'NONE', ( #218 ), #197, .T. ) ;
#80 = ORIENTED_EDGE ( 'NONE', *, *, #52, .T. ) ;
#81 = AXIS2_PLACEMENT_3D ( 'NONE', #323, #4, #92 ) ;
#82 = EDGE_LOOP ( 'NONE', ( #337, #23, #98, #24 ) ) ;
#83 = EDGE_CURVE ( 'NONE', #203, #236, #30, .T. ) ;
#84 = CIRCLE ( 'NONE', #277, 0.1968504999999999838 ) ;
#85 = DIRECTION ( 'NONE',  ( 0.0000000000000000000, 0.0000000000000000000, 1.000000000000000000 ) ) ;
#86 = AXIS2_PLACEMENT_3D ( 'NONE', #155, #41, #157 ) ;
#87 = AXIS2_PLACEMENT_3D ( 'NONE', #111, #62, #217 ) ;
#88 = FILL_AREA_STYLE_COLOUR ( '', #275 ) ;
#89 = PRESENTATION_STYLE_ASSIGNMENT (( #324 ) ) ;
#90 = CARTESIAN_POINT ( 'NONE',  ( 0.0000000000000000000, 0.0000000000000000000, 0.1968500000000000250 ) ) ;
#91 = DIRECTION ( 'NONE',  ( 0.0000000000000000000, 0.0000000000000000000, 1.000000000000000000 ) ) ;
#92 = DIRECTION ( 'NONE',  ( 1.000000000000000000, 0.0000000000000000000, 0.0000000000000000000 ) ) ;
#93 = CARTESIAN_POINT ( 'NONE',  ( -0.1818504999999994431, 0.0000000000000000000, 3.937007999999999619 ) ) ;
#94 = CIRCLE ( 'NONE', #292, 0.1968504999999999838 ) ;
#95 =( CONVERSION_BASED_UNIT ( 'INCH', #311 ) LENGTH_UNIT ( ) NAMED_UNIT ( #255 ) );
#96 = ORIENTED_EDGE ( 'NONE', *, *, #145, .F. ) ;
#97 = AXIS2_PLACEMENT_3D ( 'NONE', #246, #10, #56 ) ;
#98 = ORIENTED_EDGE ( 'NONE', *, *, #334, .T. ) ;
#99 = EDGE_CURVE ( 'NONE', #159, #295, #112, .T. ) ;
#100 = DIRECTION ( 'NONE',  ( -0.0000000000000000000, -0.0000000000000000000, -1.000000000000000000 ) ) ;
#101 = SURFACE_STYLE_USAGE ( .BOTH. , #293 ) ;
#102 = CONICAL_SURFACE ( 'NONE', #189, 0.1818504999999994431, 0.7853981633974403964 ) ;
#103 = DIRECTION ( 'NONE',  ( 0.0000000000000000000, 0.0000000000000000000, 1.000000000000000000 ) ) ;
#104 = ORIENTED_EDGE ( 'NONE', *, *, #138, .T. ) ;
#105 = ADVANCED_FACE ( 'NONE', ( #60 ), #229, .T. ) ;
#106 = CYLINDRICAL_SURFACE ( 'NONE', #244, 0.1968504999999999838 ) ;
#107 = EDGE_LOOP ( 'NONE', ( #294, #177, #53, #316 ) ) ;
#108 =( NAMED_UNIT ( * ) PLANE_ANGLE_UNIT ( ) SI_UNIT ( $, .RADIAN. ) );
#109 = EDGE_LOOP ( 'NONE', ( #291, #335, #129, #343 ) ) ;
#110 = UNCERTAINTY_MEASURE_WITH_UNIT (LENGTH_MEASURE( 1.000000000000000082E-05 ), #14, 'distance_accuracy_value', 'NONE');
#111 = CARTESIAN_POINT ( 'NONE',  ( 0.0000000000000000000, 0.0000000000000000000, 1.181102000000000096 ) ) ;
#112 = CIRCLE ( 'NONE', #330, 0.1968500000000000250 ) ;
#113 = SURFACE_SIDE_STYLE ('',( #298 ) ) ;
#114 = DIRECTION ( 'NONE',  ( -1.000000000000000000, 0.0000000000000000000, 0.0000000000000000000 ) ) ;
#115 = CARTESIAN_POINT ( 'NONE',  ( 0.0000000000000000000, 0.0000000000000000000, 3.922007999999999051 ) ) ;
#116 = DIRECTION ( 'NONE',  ( -0.0000000000000000000, -0.0000000000000000000, -1.000000000000000000 ) ) ;
#117 =( GEOMETRIC_REPRESENTATION_CONTEXT ( 3 ) GLOBAL_UNCERTAINTY_ASSIGNED_CONTEXT ( ( #25 ) ) GLOBAL_UNIT_ASSIGNED_CONTEXT ( ( #95, #21, #17 ) ) REPRESENTATION_CONTEXT ( 'NONE', 'WORKASPACE' ) );
#118 = EDGE_CURVE ( 'NONE', #308, #203, #136, .T. ) ;
#119 = DIRECTION ( 'NONE',  ( 1.000000000000000000, 0.0000000000000000000, -0.0000000000000000000 ) ) ;
#120 = CARTESIAN_POINT ( 'NONE',  ( -0.1318899999999998685, 2.012955005375501365E-17, 1.181102000000000096 ) ) ;
#121 = CARTESIAN_POINT ( 'NONE',  ( 0.1318899999999999517, 1.615186663395443625E-17, 0.3429833309002433550 ) ) ;
#122 = ORIENTED_EDGE ( 'NONE', *, *, #200, .F. ) ;
#123 = FACE_OUTER_BOUND ( 'NONE', #109, .T. ) ;
#124 = CIRCLE ( 'NONE', #279, 0.1968500000000000250 ) ;
#125 = ORIENTED_EDGE ( 'NONE', *, *, #128, .T. ) ;
#126 = MECHANICAL_DESIGN_GEOMETRIC_PRESENTATION_REPRESENTATION (  '', ( #19 ), #117 ) ;
#127 = DIRECTION ( 'NONE',  ( 0.0000000000000000000, 0.0000000000000000000, -1.000000000000000000 ) ) ;
#128 = EDGE_CURVE ( 'NONE', #258, #179, #302, .T. ) ;
#129 = ORIENTED_EDGE ( 'NONE', *, *, #334, .F. ) ;
#130 = CIRCLE ( 'NONE', #31, 0.1318899999999999517 ) ;
#131 = EDGE_LOOP ( 'NONE', ( #125, #104 ) ) ;
#132 =( LENGTH_UNIT ( ) NAMED_UNIT ( * ) SI_UNIT ( $, .METRE. ) );
#133 = ORIENTED_EDGE ( 'NONE', *, *, #99, .F. ) ;
#134 = ADVANCED_BREP_SHAPE_REPRESENTATION ( 'Micro_SBMM-100-230', ( #152, #250 ), #231 ) ;
#135 = ORIENTED_EDGE ( 'NONE', *, *, #251, .T. ) ;
#136 = CIRCLE ( 'NONE', #169, 0.1318899999999998685 ) ;
#137 = DIRECTION ( 'NONE',  ( -1.000000000000000000, 0.0000000000000000000, 0.0000000000000000000 ) ) ;
#138 = EDGE_CURVE ( 'NONE', #179, #258, #296, .T. ) ;
#139 = DIRECTION ( 'NONE',  ( -0.0000000000000000000, -0.0000000000000000000, -1.000000000000000000 ) ) ;
#140 = CONICAL_SURFACE ( 'NONE', #58, 0.2165355499999996602, 0.09141094531249800703 ) ;
#141 = AXIS2_PLACEMENT_3D ( 'NONE', #191, #55, #168 ) ;
#142 = DIRECTION ( 'NONE',  ( 1.000000000000000000, 0.0000000000000000000, 0.0000000000000000000 ) ) ;
#143 = DIRECTION ( 'NONE',  ( 1.000000000000000000, 0.0000000000000000000, 0.0000000000000000000 ) ) ;
#144 = DIRECTION ( 'NONE',  ( -1.000000000000000000, 0.0000000000000000000, 0.0000000000000000000 ) ) ;
#145 = EDGE_CURVE ( 'NONE', #159, #238, #2, .T. ) ;
#146 = CARTESIAN_POINT ( 'NONE',  ( 0.0000000000000000000, 0.0000000000000000000, 1.889763999999999777 ) ) ;
#147 = VECTOR ( 'NONE', #274, 39.37007874015748143 ) ;
#148 = DIRECTION ( 'NONE',  ( 1.000000000000000000, 0.0000000000000000000, 0.0000000000000000000 ) ) ;
#149 = DIRECTION ( 'NONE',  ( 0.0000000000000000000, 0.0000000000000000000, -1.000000000000000000 ) ) ;
#150 = ORIENTED_EDGE ( 'NONE', *, *, #300, .T. ) ;
#151 = DIRECTION ( 'NONE',  ( 1.000000000000000000, 0.0000000000000000000, 0.0000000000000000000 ) ) ;
#152 = MANIFOLD_SOLID_BREP ( 'Cut-Revolve3', #188 ) ;
#153 =( LENGTH_UNIT ( ) NAMED_UNIT ( * ) SI_UNIT ( $, .METRE. ) );
#154 = EDGE_LOOP ( 'NONE', ( #211, #69, #42, #226 ) ) ;
#155 = CARTESIAN_POINT ( 'NONE',  ( 0.0000000000000000000, 0.0000000000000000000, 0.3429833309002433550 ) ) ;
#156 = ORIENTED_EDGE ( 'NONE', *, *, #37, .T. ) ;
#157 = DIRECTION ( 'NONE',  ( -1.000000000000000000, 0.0000000000000000000, 0.0000000000000000000 ) ) ;
#158 = DIRECTION ( 'NONE',  ( -0.0000000000000000000, -0.0000000000000000000, -1.000000000000000000 ) ) ;
#159 = VERTEX_POINT ( 'NONE', #280 ) ;
#160 = ORIENTED_EDGE ( 'NONE', *, *, #299, .T. ) ;
#161 = ORIENTED_EDGE ( 'NONE', *, *, #174, .F. ) ;
#162 = ADVANCED_FACE ( 'NONE', ( #123 ), #140, .T. ) ;
#163 = VECTOR ( 'NONE', #164, 39.37007874015748143 ) ;
#164 = DIRECTION ( 'NONE',  ( -0.0000000000000000000, -0.0000000000000000000, -1.000000000000000000 ) ) ;
#165 = ADVANCED_FACE ( 'NONE', ( #178 ), #243, .T. ) ;
#166 = AXIS2_PLACEMENT_3D ( 'NONE', #146, #198, #143 ) ;
#167 = DIRECTION ( 'NONE',  ( 1.000000000000000000, 0.0000000000000000000, 0.0000000000000000000 ) ) ;
#168 = DIRECTION ( 'NONE',  ( -1.000000000000000000, 0.0000000000000000000, 0.0000000000000000000 ) ) ;
#169 = AXIS2_PLACEMENT_3D ( 'NONE', #5, #116, #220 ) ;
#170 = CARTESIAN_POINT ( 'NONE',  ( 0.0000000000000000000, 0.0000000000000000000, 0.1968500000000000250 ) ) ;
#171 = LINE ( 'NONE', #93, #147 ) ;
#172 = DIRECTION ( 'NONE',  ( 0.0000000000000000000, 0.0000000000000000000, -1.000000000000000000 ) ) ;
#173 = CIRCLE ( 'NONE', #318, 0.1318899999999999517 ) ;
#174 = EDGE_CURVE ( 'NONE', #203, #238, #39, .T. ) ;
#175 = CARTESIAN_POINT ( 'NONE',  ( 0.0000000000000000000, 0.0000000000000000000, 0.1968500000000000250 ) ) ;
#176 = DIRECTION ( 'NONE',  ( -1.000000000000000000, 0.0000000000000000000, 0.0000000000000000000 ) ) ;
#177 = ORIENTED_EDGE ( 'NONE', *, *, #128, .F. ) ;
#178 = FACE_OUTER_BOUND ( 'NONE', #107, .T. ) ;
#179 = VERTEX_POINT ( 'NONE', #207 ) ;
#180 = LINE ( 'NONE', #260, #185 ) ;
#181 = VECTOR ( 'NONE', #77, 39.37007874015748143 ) ;
#182 = CYLINDRICAL_SURFACE ( 'NONE', #12, 0.1318899999999998962 ) ;
#183 = CARTESIAN_POINT ( 'NONE',  ( 0.1968504999999999838, 2.410723347355560646E-17, 3.922007999999999051 ) ) ;
#184 = ORIENTED_EDGE ( 'NONE', *, *, #200, .T. ) ;
#185 = VECTOR ( 'NONE', #46, 39.37007874015748143 ) ;
#186 = ORIENTED_EDGE ( 'NONE', *, *, #219, .T. ) ;
#187 = ORIENTED_EDGE ( 'NONE', *, *, #33, .T. ) ;
#188 = CLOSED_SHELL ( 'NONE', ( #65, #59, #162, #212, #27, #79, #271, #165, #105, #263, #190 ) ) ;
#189 = AXIS2_PLACEMENT_3D ( 'NONE', #74, #149, #262 ) ;
#190 = ADVANCED_FACE ( 'NONE', ( #68 ), #182, .T. ) ;
#191 = CARTESIAN_POINT ( 'NONE',  ( 0.0000000000000000000, 0.0000000000000000000, 0.3429833309002433550 ) ) ;
#192 = FILL_AREA_STYLE ('',( #88 ) ) ;
#193 = CARTESIAN_POINT ( 'NONE',  ( 0.0000000000000000000, 0.0000000000000000000, 0.3429833309002433550 ) ) ;
#194 = DIRECTION ( 'NONE',  ( -1.000000000000000000, 0.0000000000000000000, 0.0000000000000000000 ) ) ;
#195 = CIRCLE ( 'NONE', #166, 0.1968504999999999838 ) ;
#196 = VECTOR ( 'NONE', #303, 39.37007874015748854 ) ;
#197 = CYLINDRICAL_SURFACE ( 'NONE', #26, 0.1968504999999999838 ) ;
#198 = DIRECTION ( 'NONE',  ( 0.0000000000000000000, 0.0000000000000000000, 1.000000000000000000 ) ) ;
#199 =( LENGTH_UNIT ( ) NAMED_UNIT ( * ) SI_UNIT ( $, .METRE. ) );
#200 = EDGE_CURVE ( 'NONE', #308, #72, #336, .T. ) ;
#201 = EDGE_CURVE ( 'NONE', #308, #213, #309, .T. ) ;
#202 = CARTESIAN_POINT ( 'NONE',  ( 0.0000000000000000000, 0.0000000000000000000, 3.922007999999999051 ) ) ;
#203 = VERTEX_POINT ( 'NONE', #287 ) ;
#204 = DIRECTION ( 'NONE',  ( -0.0000000000000000000, -0.0000000000000000000, -1.000000000000000000 ) ) ;
#205 = ORIENTED_EDGE ( 'NONE', *, *, #33, .F. ) ;
#206 = PRESENTATION_LAYER_ASSIGNMENT (  '', '', ( #315 ) ) ;
#207 = CARTESIAN_POINT ( 'NONE',  ( 0.1818504999999994431, 2.318874837419505661E-17, 3.937007999999999619 ) ) ;
#208 = VECTOR ( 'NONE', #15, 39.37007874015748143 ) ;
#209 = LINE ( 'NONE', #314, #181 ) ;
#210 = ORIENTED_EDGE ( 'NONE', *, *, #201, .F. ) ;
#211 = ORIENTED_EDGE ( 'NONE', *, *, #138, .F. ) ;
#212 = ADVANCED_FACE ( 'NONE', ( #70 ), #102, .T. ) ;
#213 = VERTEX_POINT ( 'NONE', #44 ) ;
#214 = PRODUCT_DEFINITION ( 'UNKNOWN', '', #241, #234 ) ;
#215 = DIRECTION ( 'NONE',  ( 1.000000000000000000, 1.224646799147353207E-16, -0.0000000000000000000 ) ) ;
#216 = AXIS2_PLACEMENT_3D ( 'NONE', #276, #167, #248 ) ;
#217 = DIRECTION ( 'NONE',  ( -1.000000000000000000, 0.0000000000000000000, 0.0000000000000000000 ) ) ;
#218 = FACE_OUTER_BOUND ( 'NONE', #340, .T. ) ;
#219 = EDGE_CURVE ( 'NONE', #238, #16, #332, .T. ) ;
#220 = DIRECTION ( 'NONE',  ( -1.000000000000000000, 0.0000000000000000000, 0.0000000000000000000 ) ) ;
#221 = CARTESIAN_POINT ( 'NONE',  ( -0.1968504999999999838, 0.0000000000000000000, 3.922007999999999051 ) ) ;
#222 = EDGE_CURVE ( 'NONE', #345, #213, #180, .T. ) ;
#223 = CARTESIAN_POINT ( 'NONE',  ( 0.0000000000000000000, 1.205358612060782468E-17, 0.0000000000000000000 ) ) ;
#224 = MECHANICAL_DESIGN_GEOMETRIC_PRESENTATION_REPRESENTATION (  '', ( #315 ), #71 ) ;
#225 = LINE ( 'NONE', #333, #163 ) ;
#226 = ORIENTED_EDGE ( 'NONE', *, *, #320, .F. ) ;
#227 = PRODUCT ( 'Micro_SBMM-100-230', 'Micro_SBMM-100-230', '', ( #47 ) ) ;
#228 = DIRECTION ( 'NONE',  ( -1.000000000000000000, 0.0000000000000000000, 0.0000000000000000000 ) ) ;
#229 = CONICAL_SURFACE ( 'NONE', #97, 0.2165355499999996602, 0.09141094531249800703 ) ;
#230 = ORIENTED_EDGE ( 'NONE', *, *, #118, .T. ) ;
#231 =( GEOMETRIC_REPRESENTATION_CONTEXT ( 3 ) GLOBAL_UNCERTAINTY_ASSIGNED_CONTEXT ( ( #110 ) ) GLOBAL_UNIT_ASSIGNED_CONTEXT ( ( #14, #38, #35 ) ) REPRESENTATION_CONTEXT ( 'NONE', 'WORKASPACE' ) );
#232 = CARTESIAN_POINT ( 'NONE',  ( 0.1318899999999998962, 1.615186663395443009E-17, 0.0000000000000000000 ) ) ;
#233 = AXIS2_PLACEMENT_3D ( 'NONE', #202, #11, #40 ) ;
#234 = PRODUCT_DEFINITION_CONTEXT ( 'detailed design', #43, 'design' ) ;
#235 = CARTESIAN_POINT ( 'NONE',  ( 0.0000000000000000000, 0.0000000000000000000, 0.0000000000000000000 ) ) ;
#236 = VERTEX_POINT ( 'NONE', #254 ) ;
#237 = SURFACE_STYLE_FILL_AREA ( #13 ) ;
#238 = VERTEX_POINT ( 'NONE', #121 ) ;
#239 = EDGE_LOOP ( 'NONE', ( #230, #266, #96, #205, #122 ) ) ;
#240 = APPLICATION_PROTOCOL_DEFINITION ( 'draft international standard', 'automotive_design', 1998, #43 ) ;
#241 = PRODUCT_DEFINITION_FORMATION_WITH_SPECIFIED_SOURCE ( 'ANY', '', #227, .NOT_KNOWN. ) ;
#242 = ORIENTED_EDGE ( 'NONE', *, *, #37, .F. ) ;
#243 = CONICAL_SURFACE ( 'NONE', #73, 0.1818504999999994431, 0.7853981633974403964 ) ;
#244 = AXIS2_PLACEMENT_3D ( 'NONE', #49, #158, #144 ) ;
#245 = CARTESIAN_POINT ( 'NONE',  ( 0.0000000000000000000, 0.0000000000000000000, 3.937007999999999619 ) ) ;
#246 = CARTESIAN_POINT ( 'NONE',  ( 0.0000000000000000000, 0.0000000000000000000, 2.104510606062141242 ) ) ;
#247 = EDGE_CURVE ( 'NONE', #18, #236, #225, .T. ) ;
#248 = DIRECTION ( 'NONE',  ( 0.0000000000000000000, 1.000000000000000000, 0.0000000000000000000 ) ) ;
#249 = CYLINDRICAL_SURFACE ( 'NONE', #1, 0.1318899999999998962 ) ;
#250 = AXIS2_PLACEMENT_3D ( 'NONE', #235, #339, #319 ) ;
#251 = EDGE_CURVE ( 'NONE', #18, #345, #36, .T. ) ;
#252 = FILL_AREA_STYLE_COLOUR ( '', #9 ) ;
#253 = LENGTH_MEASURE_WITH_UNIT ( LENGTH_MEASURE( 0.02539999999999999897 ), #199 );
#254 = CARTESIAN_POINT ( 'NONE',  ( 0.1968504999999999838, 2.410723347355560646E-17, 1.889763999999999777 ) ) ;
#255 = DIMENSIONAL_EXPONENTS ( 1.000000000000000000, 0.0000000000000000000, 0.0000000000000000000, 0.0000000000000000000, 0.0000000000000000000, 0.0000000000000000000, 0.0000000000000000000 ) ;
#256 = ORIENTED_EDGE ( 'NONE', *, *, #219, .F. ) ;
#257 = DIRECTION ( 'NONE',  ( -0.0000000000000000000, -0.0000000000000000000, -1.000000000000000000 ) ) ;
#258 = VERTEX_POINT ( 'NONE', #66 ) ;
#259 = PRODUCT_DEFINITION_SHAPE ( 'NONE', 'NONE',  #214 ) ;
#260 = CARTESIAN_POINT ( 'NONE',  ( -0.1968504999999999838, 0.0000000000000000000, 3.937007999999999619 ) ) ;
#261 = SHAPE_DEFINITION_REPRESENTATION ( #259, #134 ) ;
#262 = DIRECTION ( 'NONE',  ( -1.000000000000000000, 0.0000000000000000000, 0.0000000000000000000 ) ) ;
#263 = ADVANCED_FACE ( 'NONE', ( #327 ), #304, .T. ) ;
#264 = ORIENTED_EDGE ( 'NONE', *, *, #247, .F. ) ;
#265 = ORIENTED_EDGE ( 'NONE', *, *, #300, .F. ) ;
#266 = ORIENTED_EDGE ( 'NONE', *, *, #174, .T. ) ;
#267 = EDGE_LOOP ( 'NONE', ( #54, #186, #80, #133 ) ) ;
#268 = EDGE_CURVE ( 'NONE', #345, #18, #94, .T. ) ;
#269 = CARTESIAN_POINT ( 'NONE',  ( 0.0000000000000000000, 0.0000000000000000000, 3.937007999999999619 ) ) ;
#270 = DIRECTION ( 'NONE',  ( -0.0000000000000000000, -0.0000000000000000000, -1.000000000000000000 ) ) ;
#271 = ADVANCED_FACE ( 'NONE', ( #306 ), #281, .T. ) ;
#272 = DIRECTION ( 'NONE',  ( -1.224646799147353207E-16, 1.000000000000000000, 0.0000000000000000000 ) ) ;
#273 = DIMENSIONAL_EXPONENTS ( 1.000000000000000000, 0.0000000000000000000, 0.0000000000000000000, 0.0000000000000000000, 0.0000000000000000000, 0.0000000000000000000, 0.0000000000000000000 ) ;
#274 = DIRECTION ( 'NONE',  ( -0.7071067811865419106, 0.0000000000000000000, -0.7071067811865531239 ) ) ;
#275 = COLOUR_RGB ( '',0.7921568627450980005, 0.8196078431372548767, 0.9333333333333333481 ) ;
#276 = CARTESIAN_POINT ( 'NONE',  ( 0.0000000000000000000, 0.0000000000000000000, 0.1968500000000000250 ) ) ;
#277 = AXIS2_PLACEMENT_3D ( 'NONE', #32, #91, #148 ) ;
#278 = CARTESIAN_POINT ( 'NONE',  ( 0.0000000000000000000, 0.0000000000000000000, 3.937007999999999619 ) ) ;
#279 = AXIS2_PLACEMENT_3D ( 'NONE', #170, #215, #272 ) ;
#280 = CARTESIAN_POINT ( 'NONE',  ( 0.0000000000000000000, 0.1318899999999999795, 0.3429833309002433550 ) ) ;
#281 = PLANE ( 'NONE',  #63 ) ;
#282 = CARTESIAN_POINT ( 'NONE',  ( -0.2165355499999996602, 2.651795682091112519E-17, 2.104510606062141242 ) ) ;
#283 = ORIENTED_EDGE ( 'NONE', *, *, #83, .T. ) ;
#284 = CARTESIAN_POINT ( 'NONE',  ( 0.0000000000000000000, 0.0000000000000000000, 2.104510606062141242 ) ) ;
#285 = EDGE_LOOP ( 'NONE', ( #210, #242, #283, #317 ) ) ;
#286 =( NAMED_UNIT ( * ) SI_UNIT ( $, .STERADIAN. ) SOLID_ANGLE_UNIT ( ) );
#287 = CARTESIAN_POINT ( 'NONE',  ( 0.1318899999999998685, 0.0000000000000000000, 1.181102000000000096 ) ) ;
#288 = CARTESIAN_POINT ( 'NONE',  ( 0.0000000000000000000, 0.0000000000000000000, 0.0000000000000000000 ) ) ;
#289 =( CONVERSION_BASED_UNIT ( 'INCH', #313 ) LENGTH_UNIT ( ) NAMED_UNIT ( #326 ) );
#290 = FACE_OUTER_BOUND ( 'NONE', #82, .T. ) ;
#291 = ORIENTED_EDGE ( 'NONE', *, *, #118, .F. ) ;
#292 = AXIS2_PLACEMENT_3D ( 'NONE', #115, #172, #151 ) ;
#293 = SURFACE_SIDE_STYLE ('',( #237 ) ) ;
#294 = ORIENTED_EDGE ( 'NONE', *, *, #3, .F. ) ;
#295 = VERTEX_POINT ( 'NONE', #223 ) ;
#296 = CIRCLE ( 'NONE', #81, 0.1818504999999994431 ) ;
#297 = FACE_OUTER_BOUND ( 'NONE', #239, .T. ) ;
#298 = SURFACE_STYLE_FILL_AREA ( #192 ) ;
#299 = EDGE_CURVE ( 'NONE', #213, #236, #195, .T. ) ;
#300 = EDGE_CURVE ( 'NONE', #16, #72, #173, .T. ) ;
#301 = DIRECTION ( 'NONE',  ( -0.0000000000000000000, -0.0000000000000000000, -1.000000000000000000 ) ) ;
#302 = CIRCLE ( 'NONE', #6, 0.1818504999999994431 ) ;
#303 = DIRECTION ( 'NONE',  ( 0.09128369410827939789, 0.0000000000000000000, 0.9958249279817943389 ) ) ;
#304 = SPHERICAL_SURFACE ( 'NONE', #50, 0.1968500000000000250 ) ;
#305 = DIRECTION ( 'NONE',  ( 1.000000000000000000, 0.0000000000000000000, 0.0000000000000000000 ) ) ;
#306 = FACE_OUTER_BOUND ( 'NONE', #131, .T. ) ;
#307 = DIRECTION ( 'NONE',  ( 1.000000000000000000, 0.0000000000000000000, 0.0000000000000000000 ) ) ;
#308 = VERTEX_POINT ( 'NONE', #120 ) ;
#309 = LINE ( 'NONE', #282, #338 ) ;
#310 = EDGE_LOOP ( 'NONE', ( #45, #150, #187, #51 ) ) ;
#311 = LENGTH_MEASURE_WITH_UNIT ( LENGTH_MEASURE( 0.02539999999999999897 ), #153 );
#312 = VECTOR ( 'NONE', #100, 39.37007874015748143 ) ;
#313 = LENGTH_MEASURE_WITH_UNIT ( LENGTH_MEASURE( 0.02539999999999999897 ), #132 );
#314 = CARTESIAN_POINT ( 'NONE',  ( 0.1818504999999994431, 2.227026327483450676E-17, 3.937007999999999619 ) ) ;
#315 = STYLED_ITEM ( 'NONE', ( #344 ), #134 ) ;
#316 = ORIENTED_EDGE ( 'NONE', *, *, #251, .F. ) ;
#317 = ORIENTED_EDGE ( 'NONE', *, *, #299, .F. ) ;
#318 = AXIS2_PLACEMENT_3D ( 'NONE', #331, #257, #64 ) ;
#319 = DIRECTION ( 'NONE',  ( 1.000000000000000000, 0.0000000000000000000, 0.0000000000000000000 ) ) ;
#320 = EDGE_CURVE ( 'NONE', #258, #345, #171, .T. ) ;
#321 = UNCERTAINTY_MEASURE_WITH_UNIT (LENGTH_MEASURE( 1.000000000000000082E-05 ), #289, 'distance_accuracy_value', 'NONE');
#322 = PRODUCT_RELATED_PRODUCT_CATEGORY ( 'part', '', ( #227 ) ) ;
#323 = CARTESIAN_POINT ( 'NONE',  ( 0.0000000000000000000, 0.0000000000000000000, 3.937007999999999619 ) ) ;
#324 = SURFACE_STYLE_USAGE ( .BOTH. , #113 ) ;
#325 = DIRECTION ( 'NONE',  ( -1.000000000000000000, 0.0000000000000000000, 0.0000000000000000000 ) ) ;
#326 = DIMENSIONAL_EXPONENTS ( 1.000000000000000000, 0.0000000000000000000, 0.0000000000000000000, 0.0000000000000000000, 0.0000000000000000000, 0.0000000000000000000, 0.0000000000000000000 ) ;
#327 = FACE_OUTER_BOUND ( 'NONE', #310, .T. ) ;
#328 = CARTESIAN_POINT ( 'NONE',  ( -0.1318899999999999517, 0.0000000000000000000, 0.3429833309002433550 ) ) ;
#329 = DIRECTION ( 'NONE',  ( 0.0000000000000000000, 1.000000000000000000, 0.0000000000000000000 ) ) ;
#330 = AXIS2_PLACEMENT_3D ( 'NONE', #90, #137, #85 ) ;
#331 = CARTESIAN_POINT ( 'NONE',  ( 0.0000000000000000000, 0.0000000000000000000, 0.3429833309002433550 ) ) ;
#332 = CIRCLE ( 'NONE', #86, 0.1318899999999999517 ) ;
#333 = CARTESIAN_POINT ( 'NONE',  ( 0.1968504999999999838, 2.410723347355560646E-17, 3.937007999999999619 ) ) ;
#334 = EDGE_CURVE ( 'NONE', #236, #213, #84, .T. ) ;
#335 = ORIENTED_EDGE ( 'NONE', *, *, #201, .T. ) ;
#336 = LINE ( 'NONE', #48, #208 ) ;
#337 = ORIENTED_EDGE ( 'NONE', *, *, #268, .T. ) ;
#338 = VECTOR ( 'NONE', #20, 39.37007874015748854 ) ;
#339 = DIRECTION ( 'NONE',  ( 0.0000000000000000000, 0.0000000000000000000, 1.000000000000000000 ) ) ;
#340 = EDGE_LOOP ( 'NONE', ( #264, #135, #22, #160 ) ) ;
#341 = CIRCLE ( 'NONE', #87, 0.1318899999999998685 ) ;
#342 = CARTESIAN_POINT ( 'NONE',  ( 1.615186663395443625E-17, -0.1318899999999999795, 0.3429833309002433550 ) ) ;
#343 = ORIENTED_EDGE ( 'NONE', *, *, #83, .F. ) ;
#344 = PRESENTATION_STYLE_ASSIGNMENT (( #101 ) ) ;
#345 = VERTEX_POINT ( 'NONE', #221 ) ;
ENDSEC;
END-ISO-10303-21;
