ISO-10303-21;
HEADER;
FILE_DESCRIPTION (( 'STEP AP214' ),
    '1' );
FILE_NAME ('Micro_AEMM-250-3.STEP',
    '2022-03-15T14:35:17',
    ( '' ),
    ( '' ),
    'SwSTEP 2.0',
    'SolidWorks 2022',
    '' );
FILE_SCHEMA (( 'AUTOMOTIVE_DESIGN' ));
ENDSEC;

DATA;
#1 = DIRECTION ( 'NONE',  ( -1.000000000000000000, 0.000000000000000000, 1.224646799147353454E-16 ) ) ;
#2 = DIRECTION ( 'NONE',  ( -1.000000000000000000, 0.000000000000000000, 0.000000000000000000 ) ) ;
#3 = EDGE_LOOP ( 'NONE', ( #215, #289, #292, #171 ) ) ;
#4 = CARTESIAN_POINT ( 'NONE',  ( 2.410722122708761257E-16, 0.000000000000000000, 1.968503999999999809 ) ) ;
#5 = CIRCLE ( 'NONE', #147, 0.4916338740000000262 ) ;
#6 = LINE ( 'NONE', #139, #21 ) ;
#7 = UNCERTAINTY_MEASURE_WITH_UNIT (LENGTH_MEASURE( 1.000000000000000082E-05 ), #73, 'distance_accuracy_value', 'NONE');
#8 = CARTESIAN_POINT ( 'NONE',  ( -0.4916338740000000262, 0.000000000000000000, 1.204155700293026586E-16 ) ) ;
#9 = ADVANCED_FACE ( 'NONE', ( #12 ), #239, .T. ) ;
#10 = ORIENTED_EDGE ( 'NONE', *, *, #54, .T. ) ;
#11 = EDGE_LOOP ( 'NONE', ( #258, #102 ) ) ;
#12 = FACE_OUTER_BOUND ( 'NONE', #79, .T. ) ;
#13 = DIRECTION ( 'NONE',  ( -1.000000000000000000, 0.000000000000000000, 0.000000000000000000 ) ) ;
#14 = VERTEX_POINT ( 'NONE', #195 ) ;
#15 = DIRECTION ( 'NONE',  ( -1.000000000000000000, 0.000000000000000000, 0.000000000000000000 ) ) ;
#16 = CONICAL_SURFACE ( 'NONE', #260, 0.4771260000000004387, 0.7853981633974460586 ) ;
#17 = DIRECTION ( 'NONE',  ( -0.1736481776669311083, 2.126576849575782084E-17, 0.9848077530122080203 ) ) ;
#18 = AXIS2_PLACEMENT_3D ( 'NONE', #186, #43, #182 ) ;
#19 = CYLINDRICAL_SURFACE ( 'NONE', #273, 0.4916338740000000262 ) ;
#20 = FACE_OUTER_BOUND ( 'NONE', #144, .T. ) ;
#21 = VECTOR ( 'NONE', #232, 39.37007874015748143 ) ;
#22 = PLANE ( 'NONE',  #129 ) ;
#23 = ADVANCED_FACE ( 'NONE', ( #58 ), #218, .T. ) ;
#24 = DIRECTION ( 'NONE',  ( -1.000000000000000000, 0.000000000000000000, 1.224646799147353454E-16 ) ) ;
#25 = CARTESIAN_POINT ( 'NONE',  ( 0.4771260000000004387, 5.934956796835854937E-17, 5.000000000000000000 ) ) ;
#26 = MECHANICAL_DESIGN_GEOMETRIC_PRESENTATION_REPRESENTATION (  '', ( #268 ), #167 ) ;
#27 = CARTESIAN_POINT ( 'NONE',  ( 7.373327120194471968E-33, 0.000000000000000000, 6.020778501465132931E-17 ) ) ;
#28 = ADVANCED_FACE ( 'NONE', ( #104 ), #16, .T. ) ;
#29 = FILL_AREA_STYLE_COLOUR ( '', #116 ) ;
#30 = ORIENTED_EDGE ( 'NONE', *, *, #143, .T. ) ;
#31 = VECTOR ( 'NONE', #46, 39.37007874015748143 ) ;
#32 = ORIENTED_EDGE ( 'NONE', *, *, #76, .F. ) ;
#33 = ADVANCED_FACE ( 'NONE', ( #191 ), #19, .T. ) ;
#34 = ORIENTED_EDGE ( 'NONE', *, *, #282, .F. ) ;
#35 = DIRECTION ( 'NONE',  ( 0.000000000000000000, 0.000000000000000000, 1.000000000000000000 ) ) ;
#36 = PRESENTATION_LAYER_ASSIGNMENT (  '', '', ( #48 ) ) ;
#37 = VERTEX_POINT ( 'NONE', #63 ) ;
#38 = CARTESIAN_POINT ( 'NONE',  ( 0.000000000000000000, 0.000000000000000000, 4.985000000000000320 ) ) ;
#39 = DIRECTION ( 'NONE',  ( -1.224646799147353207E-16, -0.000000000000000000, -1.000000000000000000 ) ) ;
#40 = AXIS2_PLACEMENT_3D ( 'NONE', #84, #131, #41 ) ;
#41 = DIRECTION ( 'NONE',  ( 1.000000000000000000, 0.000000000000000000, 0.000000000000000000 ) ) ;
#42 = DIRECTION ( 'NONE',  ( -1.224646799147353207E-16, -0.000000000000000000, -1.000000000000000000 ) ) ;
#43 = DIRECTION ( 'NONE',  ( -1.224646799147353207E-16, -0.000000000000000000, -1.000000000000000000 ) ) ;
#44 = EDGE_CURVE ( 'NONE', #14, #263, #134, .T. ) ;
#45 = CIRCLE ( 'NONE', #40, 0.4771260000000004387 ) ;
#46 = DIRECTION ( 'NONE',  ( -1.224646799147353207E-16, -0.000000000000000000, -1.000000000000000000 ) ) ;
#47 = LENGTH_MEASURE_WITH_UNIT ( LENGTH_MEASURE( 0.02539999999999999897 ), #279 );
#48 = STYLED_ITEM ( 'NONE', ( #100 ), #105 ) ;
#49 = EDGE_CURVE ( 'NONE', #168, #14, #295, .T. ) ;
#50 = CARTESIAN_POINT ( 'NONE',  ( 0.4921260000000000634, 6.026805306771904375E-17, 4.985000000000000320 ) ) ;
#51 = APPLICATION_PROTOCOL_DEFINITION ( 'draft international standard', 'automotive_design', 1998, #145 ) ;
#52 = DIRECTION ( 'NONE',  ( 0.000000000000000000, 0.000000000000000000, -1.000000000000000000 ) ) ;
#53 = ORIENTED_EDGE ( 'NONE', *, *, #274, .T. ) ;
#54 = EDGE_CURVE ( 'NONE', #101, #168, #80, .T. ) ;
#55 = VECTOR ( 'NONE', #203, 39.37007874015748143 ) ;
#56 = ORIENTED_EDGE ( 'NONE', *, *, #165, .F. ) ;
#57 = APPLICATION_PROTOCOL_DEFINITION ( 'draft international standard', 'automotive_design', 1998, #281 ) ;
#58 = FACE_OUTER_BOUND ( 'NONE', #284, .T. ) ;
#59 = EDGE_CURVE ( 'NONE', #263, #14, #278, .T. ) ;
#60 = DIRECTION ( 'NONE',  ( 1.000000000000000000, 0.000000000000000000, 0.000000000000000000 ) ) ;
#61 = EDGE_LOOP ( 'NONE', ( #124, #240, #75, #32 ) ) ;
#62 = VECTOR ( 'NONE', #72, 39.37007874015748143 ) ;
#63 = CARTESIAN_POINT ( 'NONE',  ( -0.4771260000000004387, 0.000000000000000000, 5.000000000000000000 ) ) ;
#64 = DIRECTION ( 'NONE',  ( -0.000000000000000000, -0.000000000000000000, -1.000000000000000000 ) ) ;
#65 = FILL_AREA_STYLE ('',( #225 ) ) ;
#66 = CARTESIAN_POINT ( 'NONE',  ( 0.000000000000000000, 0.000000000000000000, 0.000000000000000000 ) ) ;
#67 = DIRECTION ( 'NONE',  ( 1.224646799147353207E-16, 0.000000000000000000, 1.000000000000000000 ) ) ;
#68 = ORIENTED_EDGE ( 'NONE', *, *, #133, .T. ) ;
#69 = DIRECTION ( 'NONE',  ( -1.224646799147353207E-16, -0.000000000000000000, -1.000000000000000000 ) ) ;
#70 = ORIENTED_EDGE ( 'NONE', *, *, #44, .T. ) ;
#71 = LINE ( 'NONE', #231, #196 ) ;
#72 = DIRECTION ( 'NONE',  ( -1.224646799147353207E-16, -0.000000000000000000, -1.000000000000000000 ) ) ;
#73 =( CONVERSION_BASED_UNIT ( 'INCH', #47 ) LENGTH_UNIT ( ) NAMED_UNIT ( #221 ) );
#74 = VECTOR ( 'NONE', #111, 39.37007874015748143 ) ;
#75 = ORIENTED_EDGE ( 'NONE', *, *, #230, .T. ) ;
#76 = EDGE_CURVE ( 'NONE', #216, #146, #251, .T. ) ;
#77 = ORIENTED_EDGE ( 'NONE', *, *, #127, .F. ) ;
#78 = SURFACE_STYLE_USAGE ( .BOTH. , #261 ) ;
#79 = EDGE_LOOP ( 'NONE', ( #262, #128 ) ) ;
#80 = CIRCLE ( 'NONE', #109, 0.4916338739999999707 ) ;
#81 = ORIENTED_EDGE ( 'NONE', *, *, #193, .F. ) ;
#82 = CARTESIAN_POINT ( 'NONE',  ( 0.000000000000000000, 0.000000000000000000, 5.000000000000000000 ) ) ;
#83 = PRODUCT ( 'Micro_AEMM-250-3', 'Micro_AEMM-250-3', '', ( #286 ) ) ;
#84 = CARTESIAN_POINT ( 'NONE',  ( 0.000000000000000000, 0.000000000000000000, 5.000000000000000000 ) ) ;
#85 = DIRECTION ( 'NONE',  ( 0.000000000000000000, 0.000000000000000000, -1.000000000000000000 ) ) ;
#86 = CARTESIAN_POINT ( 'NONE',  ( 0.000000000000000000, 0.000000000000000000, 5.000000000000000000 ) ) ;
#87 = DIMENSIONAL_EXPONENTS ( 1.000000000000000000, 0.000000000000000000, 0.000000000000000000, 0.000000000000000000, 0.000000000000000000, 0.000000000000000000, 0.000000000000000000 ) ;
#88 = LINE ( 'NONE', #246, #94 ) ;
#89 = AXIS2_PLACEMENT_3D ( 'NONE', #184, #255, #1 ) ;
#90 = PRODUCT_DEFINITION ( 'UNKNOWN', '', #135, #99 ) ;
#91 = CARTESIAN_POINT ( 'NONE',  ( -0.4916338739999996932, 6.023791904118517420E-17, 1.968503999999999809 ) ) ;
#92 = DIRECTION ( 'NONE',  ( -1.224646799147353207E-16, -0.000000000000000000, -1.000000000000000000 ) ) ;
#93 = EDGE_LOOP ( 'NONE', ( #81, #285, #70, #194 ) ) ;
#94 = VECTOR ( 'NONE', #181, 39.37007874015748143 ) ;
#95 = CARTESIAN_POINT ( 'NONE',  ( 0.000000000000000000, 0.000000000000000000, 5.000000000000000000 ) ) ;
#96 = FACE_OUTER_BOUND ( 'NONE', #93, .T. ) ;
#97 = COLOUR_RGB ( '',0.7921568627450980005, 0.8196078431372548767, 0.9333333333333333481 ) ;
#98 = CARTESIAN_POINT ( 'NONE',  ( 0.000000000000000000, 0.000000000000000000, 5.000000000000000000 ) ) ;
#99 = PRODUCT_DEFINITION_CONTEXT ( 'detailed design', #281, 'design' ) ;
#100 = PRESENTATION_STYLE_ASSIGNMENT (( #78 ) ) ;
#101 = VERTEX_POINT ( 'NONE', #136 ) ;
#102 = ORIENTED_EDGE ( 'NONE', *, *, #179, .T. ) ;
#103 =( CONVERSION_BASED_UNIT ( 'INCH', #283 ) LENGTH_UNIT ( ) NAMED_UNIT ( #87 ) );
#104 = FACE_OUTER_BOUND ( 'NONE', #153, .T. ) ;
#105 = ADVANCED_BREP_SHAPE_REPRESENTATION ( 'Micro_AEMM-250-3', ( #132, #200 ), #214 ) ;
#106 = ORIENTED_EDGE ( 'NONE', *, *, #247, .F. ) ;
#107 = DIRECTION ( 'NONE',  ( -1.000000000000000000, 0.000000000000000000, 1.224646799147353454E-16 ) ) ;
#108 = AXIS2_PLACEMENT_3D ( 'NONE', #220, #35, #152 ) ;
#109 = AXIS2_PLACEMENT_3D ( 'NONE', #199, #39, #177 ) ;
#110 = AXIS2_PLACEMENT_3D ( 'NONE', #205, #140, #229 ) ;
#111 = DIRECTION ( 'NONE',  ( -0.000000000000000000, -0.000000000000000000, -1.000000000000000000 ) ) ;
#112 = SURFACE_STYLE_FILL_AREA ( #65 ) ;
#113 = LINE ( 'NONE', #155, #55 ) ;
#114 = EDGE_CURVE ( 'NONE', #101, #263, #113, .T. ) ;
#115 = FACE_OUTER_BOUND ( 'NONE', #61, .T. ) ;
#116 = COLOUR_RGB ( '',0.7921568627450980005, 0.8196078431372548767, 0.9333333333333333481 ) ;
#117 = CARTESIAN_POINT ( 'NONE',  ( 0.4916338740000000262, 6.020778501465132931E-17, 0.000000000000000000 ) ) ;
#118 = ORIENTED_EDGE ( 'NONE', *, *, #274, .F. ) ;
#119 = CARTESIAN_POINT ( 'NONE',  ( 0.000000000000000000, 0.000000000000000000, 0.000000000000000000 ) ) ;
#120 = VECTOR ( 'NONE', #17, 39.37007874015747433 ) ;
#121 = FACE_OUTER_BOUND ( 'NONE', #11, .T. ) ;
#122 = DIRECTION ( 'NONE',  ( -0.000000000000000000, -0.000000000000000000, -1.000000000000000000 ) ) ;
#123 = DIRECTION ( 'NONE',  ( 0.000000000000000000, 0.000000000000000000, 1.000000000000000000 ) ) ;
#124 = ORIENTED_EDGE ( 'NONE', *, *, #143, .F. ) ;
#125 =( NAMED_UNIT ( * ) PLANE_ANGLE_UNIT ( ) SI_UNIT ( $, .RADIAN. ) );
#126 = ORIENTED_EDGE ( 'NONE', *, *, #179, .F. ) ;
#127 = EDGE_CURVE ( 'NONE', #207, #37, #180, .T. ) ;
#128 = ORIENTED_EDGE ( 'NONE', *, *, #127, .T. ) ;
#129 = AXIS2_PLACEMENT_3D ( 'NONE', #119, #252, #211 ) ;
#130 = ORIENTED_EDGE ( 'NONE', *, *, #165, .T. ) ;
#131 = DIRECTION ( 'NONE',  ( 0.000000000000000000, 0.000000000000000000, 1.000000000000000000 ) ) ;
#132 = MANIFOLD_SOLID_BREP ( 'Cut-Revolve1', #212 ) ;
#133 = EDGE_CURVE ( 'NONE', #216, #263, #297, .T. ) ;
#134 = CIRCLE ( 'NONE', #237, 0.4921260000000000634 ) ;
#135 = PRODUCT_DEFINITION_FORMATION_WITH_SPECIFIED_SOURCE ( 'ANY', '', #83, .NOT_KNOWN. ) ;
#136 = CARTESIAN_POINT ( 'NONE',  ( 0.4916338740000002483, 0.000000000000000000, 1.968503999999999809 ) ) ;
#137 = DIRECTION ( 'NONE',  ( 1.000000000000000000, 0.000000000000000000, 0.000000000000000000 ) ) ;
#138 = DIRECTION ( 'NONE',  ( 1.000000000000000000, 0.000000000000000000, 0.000000000000000000 ) ) ;
#139 = CARTESIAN_POINT ( 'NONE',  ( -0.4921260000000000634, 0.000000000000000000, 5.000000000000000000 ) ) ;
#140 = DIRECTION ( 'NONE',  ( 0.000000000000000000, 0.000000000000000000, -1.000000000000000000 ) ) ;
#141 = AXIS2_PLACEMENT_3D ( 'NONE', #4, #67, #250 ) ;
#142 = LINE ( 'NONE', #206, #62 ) ;
#143 = EDGE_CURVE ( 'NONE', #207, #216, #88, .T. ) ;
#144 = EDGE_LOOP ( 'NONE', ( #130, #68, #173, #106 ) ) ;
#145 = APPLICATION_CONTEXT ( 'automotive_design' ) ;
#146 = VERTEX_POINT ( 'NONE', #223 ) ;
#147 = AXIS2_PLACEMENT_3D ( 'NONE', #27, #92, #228 ) ;
#148 = SURFACE_STYLE_FILL_AREA ( #233 ) ;
#149 = ORIENTED_EDGE ( 'NONE', *, *, #193, .T. ) ;
#150 = EDGE_CURVE ( 'NONE', #37, #207, #45, .T. ) ;
#151 =( LENGTH_UNIT ( ) NAMED_UNIT ( * ) SI_UNIT ( $, .METRE. ) );
#152 = DIRECTION ( 'NONE',  ( 1.000000000000000000, 0.000000000000000000, -0.000000000000000000 ) ) ;
#153 = EDGE_LOOP ( 'NONE', ( #77, #30, #56, #238 ) ) ;
#154 =( CONVERSION_BASED_UNIT ( 'INCH', #178 ) LENGTH_UNIT ( ) NAMED_UNIT ( #249 ) );
#155 = CARTESIAN_POINT ( 'NONE',  ( 0.4916338740000002483, 0.000000000000000000, 1.968503999999999809 ) ) ;
#156 = AXIS2_PLACEMENT_3D ( 'NONE', #210, #257, #162 ) ;
#157 =( NAMED_UNIT ( * ) SI_UNIT ( $, .STERADIAN. ) SOLID_ANGLE_UNIT ( ) );
#158 = ADVANCED_FACE ( 'NONE', ( #20 ), #275, .T. ) ;
#159 = PRESENTATION_STYLE_ASSIGNMENT (( #226 ) ) ;
#160 = DIRECTION ( 'NONE',  ( -0.7071067811865459074, 0.000000000000000000, -0.7071067811865491270 ) ) ;
#161 = ORIENTED_EDGE ( 'NONE', *, *, #59, .F. ) ;
#162 = DIRECTION ( 'NONE',  ( 1.000000000000000000, 0.000000000000000000, 0.000000000000000000 ) ) ;
#163 = AXIS2_PLACEMENT_3D ( 'NONE', #95, #227, #2 ) ;
#164 = CARTESIAN_POINT ( 'NONE',  ( 0.4921260000000002299, 6.026805306771906840E-17, 1.971294985236761610 ) ) ;
#165 = EDGE_CURVE ( 'NONE', #146, #216, #219, .T. ) ;
#166 = ORIENTED_EDGE ( 'NONE', *, *, #133, .F. ) ;
#167 =( GEOMETRIC_REPRESENTATION_CONTEXT ( 3 ) GLOBAL_UNCERTAINTY_ASSIGNED_CONTEXT ( ( #188 ) ) GLOBAL_UNIT_ASSIGNED_CONTEXT ( ( #154, #272, #157 ) ) REPRESENTATION_CONTEXT ( 'NONE', 'WORKASPACE' ) );
#168 = VERTEX_POINT ( 'NONE', #91 ) ;
#169 = EDGE_LOOP ( 'NONE', ( #266, #10, #53, #126 ) ) ;
#170 =( NAMED_UNIT ( * ) SI_UNIT ( $, .STERADIAN. ) SOLID_ANGLE_UNIT ( ) );
#171 = ORIENTED_EDGE ( 'NONE', *, *, #59, .T. ) ;
#172 = CONICAL_SURFACE ( 'NONE', #163, 0.4771260000000004387, 0.7853981633974460586 ) ;
#173 = ORIENTED_EDGE ( 'NONE', *, *, #44, .F. ) ;
#174 = VERTEX_POINT ( 'NONE', #8 ) ;
#175 = CIRCLE ( 'NONE', #18, 0.4916338739999999707 ) ;
#176 = DIRECTION ( 'NONE',  ( 0.000000000000000000, 0.000000000000000000, 1.000000000000000000 ) ) ;
#177 = DIRECTION ( 'NONE',  ( -1.000000000000000000, 0.000000000000000000, 0.000000000000000000 ) ) ;
#178 = LENGTH_MEASURE_WITH_UNIT ( LENGTH_MEASURE( 0.02539999999999999897 ), #242 );
#179 = EDGE_CURVE ( 'NONE', #236, #174, #5, .T. ) ;
#180 = CIRCLE ( 'NONE', #190, 0.4771260000000004387 ) ;
#181 = DIRECTION ( 'NONE',  ( 0.7071067811865459074, 8.659560562354913137E-17, -0.7071067811865491270 ) ) ;
#182 = DIRECTION ( 'NONE',  ( -1.000000000000000000, 0.000000000000000000, 0.000000000000000000 ) ) ;
#183 = ADVANCED_FACE ( 'NONE', ( #276 ), #245, .T. ) ;
#184 = CARTESIAN_POINT ( 'NONE',  ( 7.373327120194471968E-33, 0.000000000000000000, 6.020778501465132931E-17 ) ) ;
#185 = AXIS2_PLACEMENT_3D ( 'NONE', #296, #42, #138 ) ;
#186 = CARTESIAN_POINT ( 'NONE',  ( 2.410722122708761257E-16, 0.000000000000000000, 1.968503999999999809 ) ) ;
#187 = CARTESIAN_POINT ( 'NONE',  ( -0.4916338740000000262, 0.000000000000000000, 6.020778501465132931E-17 ) ) ;
#188 = UNCERTAINTY_MEASURE_WITH_UNIT (LENGTH_MEASURE( 1.000000000000000082E-05 ), #154, 'distance_accuracy_value', 'NONE');
#189 = FACE_OUTER_BOUND ( 'NONE', #169, .T. ) ;
#190 = AXIS2_PLACEMENT_3D ( 'NONE', #86, #176, #267 ) ;
#191 = FACE_OUTER_BOUND ( 'NONE', #259, .T. ) ;
#192 = CARTESIAN_POINT ( 'NONE',  ( 0.000000000000000000, 0.000000000000000000, 0.000000000000000000 ) ) ;
#193 = EDGE_CURVE ( 'NONE', #168, #101, #175, .T. ) ;
#194 = ORIENTED_EDGE ( 'NONE', *, *, #114, .F. ) ;
#195 = CARTESIAN_POINT ( 'NONE',  ( -0.4921259999999997858, 0.000000000000000000, 1.971294985236761610 ) ) ;
#196 = VECTOR ( 'NONE', #160, 39.37007874015748143 ) ;
#197 = ORIENTED_EDGE ( 'NONE', *, *, #217, .T. ) ;
#198 = ADVANCED_FACE ( 'NONE', ( #121 ), #22, .F. ) ;
#199 = CARTESIAN_POINT ( 'NONE',  ( 2.410722122708761257E-16, 0.000000000000000000, 1.968503999999999809 ) ) ;
#200 = AXIS2_PLACEMENT_3D ( 'NONE', #192, #123, #60 ) ;
#201 = DIRECTION ( 'NONE',  ( -1.224646799147353207E-16, -0.000000000000000000, -1.000000000000000000 ) ) ;
#202 = CARTESIAN_POINT ( 'NONE',  ( -0.4916338739999996932, 6.020778501465131698E-17, 1.968503999999999809 ) ) ;
#203 = DIRECTION ( 'NONE',  ( 0.1736481776669313026, 0.000000000000000000, 0.9848077530122077983 ) ) ;
#204 = MECHANICAL_DESIGN_GEOMETRIC_PRESENTATION_REPRESENTATION (  '', ( #48 ), #294 ) ;
#205 = CARTESIAN_POINT ( 'NONE',  ( 0.000000000000000000, 0.000000000000000000, 4.985000000000000320 ) ) ;
#206 = CARTESIAN_POINT ( 'NONE',  ( 0.4916338740000000262, 6.020778501465132931E-17, -6.020778501465132931E-17 ) ) ;
#207 = VERTEX_POINT ( 'NONE', #25 ) ;
#208 = CYLINDRICAL_SURFACE ( 'NONE', #209, 0.4916338740000000262 ) ;
#209 = AXIS2_PLACEMENT_3D ( 'NONE', #280, #69, #24 ) ;
#210 = CARTESIAN_POINT ( 'NONE',  ( 2.410722122708761257E-16, 0.000000000000000000, 1.968503999999999809 ) ) ;
#211 = DIRECTION ( 'NONE',  ( 1.000000000000000000, 0.000000000000000000, -0.000000000000000000 ) ) ;
#212 = CLOSED_SHELL ( 'NONE', ( #33, #235, #28, #158, #23, #9, #264, #183, #290, #198 ) ) ;
#213 = DIRECTION ( 'NONE',  ( -1.000000000000000000, 0.000000000000000000, 0.000000000000000000 ) ) ;
#214 =( GEOMETRIC_REPRESENTATION_CONTEXT ( 3 ) GLOBAL_UNCERTAINTY_ASSIGNED_CONTEXT ( ( #7 ) ) GLOBAL_UNIT_ASSIGNED_CONTEXT ( ( #73, #254, #170 ) ) REPRESENTATION_CONTEXT ( 'NONE', 'WORKASPACE' ) );
#215 = ORIENTED_EDGE ( 'NONE', *, *, #49, .F. ) ;
#216 = VERTEX_POINT ( 'NONE', #50 ) ;
#217 = EDGE_CURVE ( 'NONE', #101, #236, #142, .T. ) ;
#218 = CYLINDRICAL_SURFACE ( 'NONE', #298, 0.4921260000000000634 ) ;
#219 = CIRCLE ( 'NONE', #110, 0.4921260000000000634 ) ;
#220 = CARTESIAN_POINT ( 'NONE',  ( 0.000000000000000000, 0.000000000000000000, 5.000000000000000000 ) ) ;
#221 = DIMENSIONAL_EXPONENTS ( 1.000000000000000000, 0.000000000000000000, 0.000000000000000000, 0.000000000000000000, 0.000000000000000000, 0.000000000000000000, 0.000000000000000000 ) ;
#222 = CARTESIAN_POINT ( 'NONE',  ( 0.000000000000000000, 0.000000000000000000, 5.000000000000000000 ) ) ;
#223 = CARTESIAN_POINT ( 'NONE',  ( -0.4921260000000000634, 0.000000000000000000, 4.985000000000000320 ) ) ;
#224 = PRESENTATION_LAYER_ASSIGNMENT (  '', '', ( #268 ) ) ;
#225 = FILL_AREA_STYLE_COLOUR ( '', #97 ) ;
#226 = SURFACE_STYLE_USAGE ( .BOTH. , #270 ) ;
#227 = DIRECTION ( 'NONE',  ( 0.000000000000000000, 0.000000000000000000, -1.000000000000000000 ) ) ;
#228 = DIRECTION ( 'NONE',  ( -1.000000000000000000, 0.000000000000000000, 1.224646799147353454E-16 ) ) ;
#229 = DIRECTION ( 'NONE',  ( 1.000000000000000000, 0.000000000000000000, 0.000000000000000000 ) ) ;
#230 = EDGE_CURVE ( 'NONE', #37, #146, #71, .T. ) ;
#231 = CARTESIAN_POINT ( 'NONE',  ( -0.4771260000000004387, 0.000000000000000000, 5.000000000000000000 ) ) ;
#232 = DIRECTION ( 'NONE',  ( -0.000000000000000000, -0.000000000000000000, -1.000000000000000000 ) ) ;
#233 = FILL_AREA_STYLE ('',( #29 ) ) ;
#234 = ORIENTED_EDGE ( 'NONE', *, *, #247, .T. ) ;
#235 = ADVANCED_FACE ( 'NONE', ( #96 ), #241, .T. ) ;
#236 = VERTEX_POINT ( 'NONE', #117 ) ;
#237 = AXIS2_PLACEMENT_3D ( 'NONE', #248, #201, #137 ) ;
#238 = ORIENTED_EDGE ( 'NONE', *, *, #230, .F. ) ;
#239 = PLANE ( 'NONE',  #108 ) ;
#240 = ORIENTED_EDGE ( 'NONE', *, *, #150, .F. ) ;
#241 = CONICAL_SURFACE ( 'NONE', #141, 0.4916338739999999707, 0.1745329251994338082 ) ;
#242 =( LENGTH_UNIT ( ) NAMED_UNIT ( * ) SI_UNIT ( $, .METRE. ) );
#243 = CARTESIAN_POINT ( 'NONE',  ( 0.4921260000000000634, 6.026805306771904375E-17, 5.000000000000000000 ) ) ;
#244 = PRODUCT_DEFINITION_SHAPE ( 'NONE', 'NONE',  #90 ) ;
#245 = CONICAL_SURFACE ( 'NONE', #156, 0.4916338739999999707, 0.1745329251994338082 ) ;
#246 = CARTESIAN_POINT ( 'NONE',  ( 0.4771260000000004387, 5.843108286899805499E-17, 5.000000000000000000 ) ) ;
#247 = EDGE_CURVE ( 'NONE', #146, #14, #6, .T. ) ;
#248 = CARTESIAN_POINT ( 'NONE',  ( 2.414140093845428801E-16, 0.000000000000000000, 1.971294985236761610 ) ) ;
#249 = DIMENSIONAL_EXPONENTS ( 1.000000000000000000, 0.000000000000000000, 0.000000000000000000, 0.000000000000000000, 0.000000000000000000, 0.000000000000000000, 0.000000000000000000 ) ;
#250 = DIRECTION ( 'NONE',  ( 1.000000000000000000, 0.000000000000000000, 0.000000000000000000 ) ) ;
#251 = CIRCLE ( 'NONE', #288, 0.4921260000000000634 ) ;
#252 = DIRECTION ( 'NONE',  ( 0.000000000000000000, 0.000000000000000000, 1.000000000000000000 ) ) ;
#253 = UNCERTAINTY_MEASURE_WITH_UNIT (LENGTH_MEASURE( 1.000000000000000082E-05 ), #103, 'distance_accuracy_value', 'NONE');
#254 =( NAMED_UNIT ( * ) PLANE_ANGLE_UNIT ( ) SI_UNIT ( $, .RADIAN. ) );
#255 = DIRECTION ( 'NONE',  ( -1.224646799147353207E-16, -0.000000000000000000, -1.000000000000000000 ) ) ;
#256 = AXIS2_PLACEMENT_3D ( 'NONE', #222, #64, #15 ) ;
#257 = DIRECTION ( 'NONE',  ( 1.224646799147353207E-16, 0.000000000000000000, 1.000000000000000000 ) ) ;
#258 = ORIENTED_EDGE ( 'NONE', *, *, #282, .T. ) ;
#259 = EDGE_LOOP ( 'NONE', ( #149, #197, #34, #118 ) ) ;
#260 = AXIS2_PLACEMENT_3D ( 'NONE', #82, #52, #213 ) ;
#261 = SURFACE_SIDE_STYLE ('',( #148 ) ) ;
#262 = ORIENTED_EDGE ( 'NONE', *, *, #150, .T. ) ;
#263 = VERTEX_POINT ( 'NONE', #164 ) ;
#264 = ADVANCED_FACE ( 'NONE', ( #115 ), #172, .T. ) ;
#265 =( NAMED_UNIT ( * ) SI_UNIT ( $, .STERADIAN. ) SOLID_ANGLE_UNIT ( ) );
#266 = ORIENTED_EDGE ( 'NONE', *, *, #217, .F. ) ;
#267 = DIRECTION ( 'NONE',  ( 1.000000000000000000, 0.000000000000000000, 0.000000000000000000 ) ) ;
#268 = STYLED_ITEM ( 'NONE', ( #159 ), #132 ) ;
#269 = PRODUCT_RELATED_PRODUCT_CATEGORY ( 'part', '', ( #83 ) ) ;
#270 = SURFACE_SIDE_STYLE ('',( #112 ) ) ;
#271 = DIRECTION ( 'NONE',  ( 1.000000000000000000, 0.000000000000000000, 0.000000000000000000 ) ) ;
#272 =( NAMED_UNIT ( * ) PLANE_ANGLE_UNIT ( ) SI_UNIT ( $, .RADIAN. ) );
#273 = AXIS2_PLACEMENT_3D ( 'NONE', #66, #293, #107 ) ;
#274 = EDGE_CURVE ( 'NONE', #168, #174, #277, .T. ) ;
#275 = CYLINDRICAL_SURFACE ( 'NONE', #256, 0.4921260000000000634 ) ;
#276 = FACE_OUTER_BOUND ( 'NONE', #3, .T. ) ;
#277 = LINE ( 'NONE', #187, #31 ) ;
#278 = CIRCLE ( 'NONE', #185, 0.4921260000000000634 ) ;
#279 =( LENGTH_UNIT ( ) NAMED_UNIT ( * ) SI_UNIT ( $, .METRE. ) );
#280 = CARTESIAN_POINT ( 'NONE',  ( 0.000000000000000000, 0.000000000000000000, 0.000000000000000000 ) ) ;
#281 = APPLICATION_CONTEXT ( 'automotive_design' ) ;
#282 = EDGE_CURVE ( 'NONE', #174, #236, #299, .T. ) ;
#283 = LENGTH_MEASURE_WITH_UNIT ( LENGTH_MEASURE( 0.02539999999999999897 ), #151 );
#284 = EDGE_LOOP ( 'NONE', ( #166, #287, #234, #161 ) ) ;
#285 = ORIENTED_EDGE ( 'NONE', *, *, #49, .T. ) ;
#286 = PRODUCT_CONTEXT ( 'NONE', #145, 'mechanical' ) ;
#287 = ORIENTED_EDGE ( 'NONE', *, *, #76, .T. ) ;
#288 = AXIS2_PLACEMENT_3D ( 'NONE', #38, #85, #271 ) ;
#289 = ORIENTED_EDGE ( 'NONE', *, *, #54, .F. ) ;
#290 = ADVANCED_FACE ( 'NONE', ( #189 ), #208, .T. ) ;
#291 = SHAPE_DEFINITION_REPRESENTATION ( #244, #105 ) ;
#292 = ORIENTED_EDGE ( 'NONE', *, *, #114, .T. ) ;
#293 = DIRECTION ( 'NONE',  ( -1.224646799147353207E-16, -0.000000000000000000, -1.000000000000000000 ) ) ;
#294 =( GEOMETRIC_REPRESENTATION_CONTEXT ( 3 ) GLOBAL_UNCERTAINTY_ASSIGNED_CONTEXT ( ( #253 ) ) GLOBAL_UNIT_ASSIGNED_CONTEXT ( ( #103, #125, #265 ) ) REPRESENTATION_CONTEXT ( 'NONE', 'WORKASPACE' ) );
#295 = LINE ( 'NONE', #202, #120 ) ;
#296 = CARTESIAN_POINT ( 'NONE',  ( 2.414140093845428801E-16, 0.000000000000000000, 1.971294985236761610 ) ) ;
#297 = LINE ( 'NONE', #243, #74 ) ;
#298 = AXIS2_PLACEMENT_3D ( 'NONE', #98, #122, #13 ) ;
#299 = CIRCLE ( 'NONE', #89, 0.4916338740000000262 ) ;
ENDSEC;
END-ISO-10303-21;
