ISO-10303-21;
HEADER;
FILE_DESCRIPTION (( 'STEP AP214' ),
    '1' );
FILE_NAME ('82521.STEP',
    '2023-06-23T05:59:58',
    ( '' ),
    ( '' ),
    'SwSTEP 2.0',
    'SolidWorks 2023',
    '' );
FILE_SCHEMA (( 'AUTOMOTIVE_DESIGN' ));
ENDSEC;

DATA;
#1 = EDGE_LOOP ( 'NONE', ( #301, #217, #93, #168 ) ) ;
#2 = SURFACE_STYLE_USAGE ( .BOTH. , #71 ) ;
#3 = PLANE ( 'NONE',  #261 ) ;
#4 = DIRECTION ( 'NONE',  ( -1.000000000000000000, 0.000000000000000000, 0.000000000000000000 ) ) ;
#5 = DIRECTION ( 'NONE',  ( -1.000000000000000000, 0.000000000000000000, 0.000000000000000000 ) ) ;
#6 =( NAMED_UNIT ( * ) PLANE_ANGLE_UNIT ( ) SI_UNIT ( $, .RADIAN. ) );
#7 = DIRECTION ( 'NONE',  ( 0.000000000000000000, 0.000000000000000000, -1.000000000000000000 ) ) ;
#8 = DIRECTION ( 'NONE',  ( -0.000000000000000000, -1.000000000000000000, -0.000000000000000000 ) ) ;
#9 = PRESENTATION_LAYER_ASSIGNMENT (  '', '', ( #277 ) ) ;
#10 = EDGE_CURVE ( 'NONE', #240, #17, #32, .T. ) ;
#11 = LENGTH_MEASURE_WITH_UNIT ( LENGTH_MEASURE( 0.02539999999999999897 ), #199 );
#12 = CARTESIAN_POINT ( 'NONE',  ( 3.515061990613726630E-34, 2.000000000000000000, 0.000000000000000000 ) ) ;
#13 = FILL_AREA_STYLE_COLOUR ( '', #135 ) ;
#14 = UNCERTAINTY_MEASURE_WITH_UNIT (LENGTH_MEASURE( 1.000000000000000082E-05 ), #297, 'distance_accuracy_value', 'NONE');
#15 = CYLINDRICAL_SURFACE ( 'NONE', #66, 0.1875000000000000278 ) ;
#16 = DIRECTION ( 'NONE',  ( 0.000000000000000000, 0.000000000000000000, -1.000000000000000000 ) ) ;
#17 = VERTEX_POINT ( 'NONE', #236 ) ;
#18 =( NAMED_UNIT ( * ) SI_UNIT ( $, .STERADIAN. ) SOLID_ANGLE_UNIT ( ) );
#19 = ORIENTED_EDGE ( 'NONE', *, *, #306, .T. ) ;
#20 = SURFACE_STYLE_USAGE ( .BOTH. , #208 ) ;
#21 = EDGE_LOOP ( 'NONE', ( #125, #300 ) ) ;
#22 = PRESENTATION_LAYER_ASSIGNMENT (  '', '', ( #252 ) ) ;
#23 = ORIENTED_EDGE ( 'NONE', *, *, #140, .T. ) ;
#24 = APPLICATION_CONTEXT ( 'automotive_design' ) ;
#25 = ORIENTED_EDGE ( 'NONE', *, *, #10, .F. ) ;
#26 = ORIENTED_EDGE ( 'NONE', *, *, #140, .F. ) ;
#27 =( CONVERSION_BASED_UNIT ( 'INCH', #171 ) LENGTH_UNIT ( ) NAMED_UNIT ( #218 ) );
#28 = EDGE_LOOP ( 'NONE', ( #147, #222 ) ) ;
#29 = UNCERTAINTY_MEASURE_WITH_UNIT (LENGTH_MEASURE( 1.000000000000000082E-05 ), #106, 'distance_accuracy_value', 'NONE');
#30 = FACE_OUTER_BOUND ( 'NONE', #54, .T. ) ;
#31 = CARTESIAN_POINT ( 'NONE',  ( 0.000000000000000000, 0.000000000000000000, 0.000000000000000000 ) ) ;
#32 = CIRCLE ( 'NONE', #302, 0.1875000000000001388 ) ;
#33 = CARTESIAN_POINT ( 'NONE',  ( 0.000000000000000000, 0.000000000000000000, -0.1875000000000000278 ) ) ;
#34 = CARTESIAN_POINT ( 'NONE',  ( 1.516480271171051896E-32, 2.000000000000000000, 0.000000000000000000 ) ) ;
#35 =( NAMED_UNIT ( * ) SI_UNIT ( $, .STERADIAN. ) SOLID_ANGLE_UNIT ( ) );
#36 = DIRECTION ( 'NONE',  ( -0.000000000000000000, -1.000000000000000000, -0.000000000000000000 ) ) ;
#37 = ADVANCED_FACE ( 'NONE', ( #91 ), #192, .T. ) ;
#38 = PRESENTATION_STYLE_ASSIGNMENT (( #102 ) ) ;
#39 = DIRECTION ( 'NONE',  ( 0.000000000000000000, 0.000000000000000000, -1.000000000000000000 ) ) ;
#40 = CIRCLE ( 'NONE', #250, 0.1875000000000000278 ) ;
#41 = DIRECTION ( 'NONE',  ( -1.000000000000000000, -6.123233995736763571E-17, 0.000000000000000000 ) ) ;
#42 = VERTEX_POINT ( 'NONE', #272 ) ;
#43 = EDGE_LOOP ( 'NONE', ( #67, #238, #211, #165 ) ) ;
#44 =( NAMED_UNIT ( * ) SI_UNIT ( $, .STERADIAN. ) SOLID_ANGLE_UNIT ( ) );
#45 = AXIS2_PLACEMENT_3D ( 'NONE', #47, #280, #39 ) ;
#46 = DIRECTION ( 'NONE',  ( 0.000000000000000000, 0.000000000000000000, -1.000000000000000000 ) ) ;
#47 = CARTESIAN_POINT ( 'NONE',  ( 0.000000000000000000, 2.000000000000000000, 0.000000000000000000 ) ) ;
#48 = CARTESIAN_POINT ( 'NONE',  ( 0.000000000000000000, 0.000000000000000000, 0.000000000000000000 ) ) ;
#49 = CARTESIAN_POINT ( 'NONE',  ( 0.000000000000000000, 0.000000000000000000, 0.000000000000000000 ) ) ;
#50 = DIRECTION ( 'NONE',  ( -0.000000000000000000, -1.000000000000000000, -0.000000000000000000 ) ) ;
#51 = DIRECTION ( 'NONE',  ( 0.000000000000000000, 0.000000000000000000, -1.000000000000000000 ) ) ;
#52 = ADVANCED_FACE ( 'NONE', ( #128 ), #291, .T. ) ;
#53 = AXIS2_PLACEMENT_3D ( 'NONE', #76, #203, #4 ) ;
#54 = EDGE_LOOP ( 'NONE', ( #19, #202 ) ) ;
#55 = LINE ( 'NONE', #156, #79 ) ;
#56 =( LENGTH_UNIT ( ) NAMED_UNIT ( * ) SI_UNIT ( $, .METRE. ) );
#57 = ADVANCED_FACE ( 'NONE', ( #225 ), #122, .T. ) ;
#58 = CARTESIAN_POINT ( 'NONE',  ( 0.000000000000000000, 0.000000000000000000, 0.000000000000000000 ) ) ;
#59 = DIRECTION ( 'NONE',  ( -1.000000000000000000, 0.000000000000000000, 0.000000000000000000 ) ) ;
#60 = AXIS2_PLACEMENT_3D ( 'NONE', #58, #239, #46 ) ;
#61 = ADVANCED_FACE ( 'NONE', ( #30 ), #3, .F. ) ;
#62 = DIRECTION ( 'NONE',  ( -6.123233995736763571E-17, 1.000000000000000000, -0.000000000000000000 ) ) ;
#63 = MANIFOLD_SOLID_BREP ( 'Revolve - Cutting Edge', #118 ) ;
#64 = SURFACE_STYLE_USAGE ( .BOTH. , #284 ) ;
#65 = CLOSED_SHELL ( 'NONE', ( #52, #105, #166, #61 ) ) ;
#66 = AXIS2_PLACEMENT_3D ( 'NONE', #48, #150, #7 ) ;
#67 = ORIENTED_EDGE ( 'NONE', *, *, #167, .F. ) ;
#68 = SURFACE_STYLE_USAGE ( .BOTH. , #120 ) ;
#69 = UNCERTAINTY_MEASURE_WITH_UNIT (LENGTH_MEASURE( 1.000000000000000082E-05 ), #27, 'distance_accuracy_value', 'NONE');
#70 = CARTESIAN_POINT ( 'NONE',  ( 0.000000000000000000, 2.000000000000000000, 0.000000000000000000 ) ) ;
#71 = SURFACE_SIDE_STYLE ('',( #126 ) ) ;
#72 = MECHANICAL_DESIGN_GEOMETRIC_PRESENTATION_REPRESENTATION (  '', ( #277 ), #258 ) ;
#73 = AXIS2_PLACEMENT_3D ( 'NONE', #34, #244, #5 ) ;
#74 = UNCERTAINTY_MEASURE_WITH_UNIT (LENGTH_MEASURE( 1.000000000000000082E-05 ), #99, 'distance_accuracy_value', 'NONE');
#75 =( NAMED_UNIT ( * ) SI_UNIT ( $, .STERADIAN. ) SOLID_ANGLE_UNIT ( ) );
#76 = CARTESIAN_POINT ( 'NONE',  ( -1.224646799147352714E-16, 4.000000000000000000, 0.000000000000000000 ) ) ;
#77 = FILL_AREA_STYLE_COLOUR ( '', #249 ) ;
#78 =( CONVERSION_BASED_UNIT ( 'INCH', #173 ) LENGTH_UNIT ( ) NAMED_UNIT ( #148 ) );
#79 = VECTOR ( 'NONE', #8, 39.37007874015748143 ) ;
#80 = PRODUCT ( '82521', '82521', '', ( #228 ) ) ;
#81 = FILL_AREA_STYLE ('',( #134 ) ) ;
#82 =( CONVERSION_BASED_UNIT ( 'INCH', #233 ) LENGTH_UNIT ( ) NAMED_UNIT ( #179 ) );
#83 = MECHANICAL_DESIGN_GEOMETRIC_PRESENTATION_REPRESENTATION (  '', ( #124 ), #111 ) ;
#84 = FACE_OUTER_BOUND ( 'NONE', #43, .T. ) ;
#85 = DIRECTION ( 'NONE',  ( -0.000000000000000000, -1.000000000000000000, -0.000000000000000000 ) ) ;
#86 = FACE_OUTER_BOUND ( 'NONE', #215, .T. ) ;
#87 = PRESENTATION_LAYER_ASSIGNMENT (  '', '', ( #130 ) ) ;
#88 = COLOUR_RGB ( '',0.7921568627450980005, 0.8196078431372548767, 0.9333333333333333481 ) ;
#89 =( GEOMETRIC_REPRESENTATION_CONTEXT ( 3 ) GLOBAL_UNCERTAINTY_ASSIGNED_CONTEXT ( ( #14 ) ) GLOBAL_UNIT_ASSIGNED_CONTEXT ( ( #297, #230, #254 ) ) REPRESENTATION_CONTEXT ( 'NONE', 'WORKASPACE' ) );
#90 = ORIENTED_EDGE ( 'NONE', *, *, #207, .T. ) ;
#91 = FACE_OUTER_BOUND ( 'NONE', #213, .T. ) ;
#92 = VERTEX_POINT ( 'NONE', #144 ) ;
#93 = ORIENTED_EDGE ( 'NONE', *, *, #178, .F. ) ;
#94 = COLOUR_RGB ( '',1.000000000000000000, 0.000000000000000000, 0.000000000000000000 ) ;
#95 =( GEOMETRIC_REPRESENTATION_CONTEXT ( 3 ) GLOBAL_UNCERTAINTY_ASSIGNED_CONTEXT ( ( #146 ) ) GLOBAL_UNIT_ASSIGNED_CONTEXT ( ( #78, #200, #101 ) ) REPRESENTATION_CONTEXT ( 'NONE', 'WORKASPACE' ) );
#96 = SURFACE_STYLE_USAGE ( .BOTH. , #309 ) ;
#97 = COLOUR_RGB ( '',1.000000000000000000, 0.000000000000000000, 0.000000000000000000 ) ;
#98 = CIRCLE ( 'NONE', #73, 0.1875000000000000278 ) ;
#99 =( CONVERSION_BASED_UNIT ( 'INCH', #248 ) LENGTH_UNIT ( ) NAMED_UNIT ( #196 ) );
#100 = FACE_OUTER_BOUND ( 'NONE', #28, .T. ) ;
#101 =( NAMED_UNIT ( * ) SI_UNIT ( $, .STERADIAN. ) SOLID_ANGLE_UNIT ( ) );
#102 = SURFACE_STYLE_USAGE ( .BOTH. , #206 ) ;
#103 = VECTOR ( 'NONE', #164, 39.37007874015748143 ) ;
#104 = DIRECTION ( 'NONE',  ( 0.000000000000000000, 0.000000000000000000, -1.000000000000000000 ) ) ;
#105 = ADVANCED_FACE ( 'NONE', ( #100 ), #112, .F. ) ;
#106 =( CONVERSION_BASED_UNIT ( 'INCH', #186 ) LENGTH_UNIT ( ) NAMED_UNIT ( #289 ) );
#107 = CARTESIAN_POINT ( 'NONE',  ( -1.224646799147352714E-16, 4.000000000000000000, 0.000000000000000000 ) ) ;
#108 = DIRECTION ( 'NONE',  ( -6.123233995736763571E-17, 1.000000000000000000, -0.000000000000000000 ) ) ;
#109 = PRESENTATION_LAYER_ASSIGNMENT (  '', '', ( #204 ) ) ;
#110 = ADVANCED_FACE ( 'NONE', ( #237 ), #137, .T. ) ;
#111 =( GEOMETRIC_REPRESENTATION_CONTEXT ( 3 ) GLOBAL_UNCERTAINTY_ASSIGNED_CONTEXT ( ( #209 ) ) GLOBAL_UNIT_ASSIGNED_CONTEXT ( ( #190, #6, #44 ) ) REPRESENTATION_CONTEXT ( 'NONE', 'WORKASPACE' ) );
#112 = PLANE ( 'NONE',  #232 ) ;
#113 = LINE ( 'NONE', #187, #253 ) ;
#114 = ORIENTED_EDGE ( 'NONE', *, *, #193, .T. ) ;
#115 = CARTESIAN_POINT ( 'NONE',  ( -0.1875000000000000278, 2.000000000000000000, 0.000000000000000000 ) ) ;
#116 = SURFACE_STYLE_FILL_AREA ( #191 ) ;
#117 = SURFACE_STYLE_FILL_AREA ( #256 ) ;
#118 = CLOSED_SHELL ( 'NONE', ( #57, #37, #262, #110 ) ) ;
#119 = VECTOR ( 'NONE', #50, 39.37007874015748143 ) ;
#120 = SURFACE_SIDE_STYLE ('',( #263 ) ) ;
#121 = DIMENSIONAL_EXPONENTS ( 1.000000000000000000, 0.000000000000000000, 0.000000000000000000, 0.000000000000000000, 0.000000000000000000, 0.000000000000000000, 0.000000000000000000 ) ;
#122 = CYLINDRICAL_SURFACE ( 'NONE', #161, 0.1875000000000000278 ) ;
#123 =( GEOMETRIC_REPRESENTATION_CONTEXT ( 3 ) GLOBAL_UNCERTAINTY_ASSIGNED_CONTEXT ( ( #69 ) ) GLOBAL_UNIT_ASSIGNED_CONTEXT ( ( #27, #227, #75 ) ) REPRESENTATION_CONTEXT ( 'NONE', 'WORKASPACE' ) );
#124 = STYLED_ITEM ( 'NONE', ( #169 ), #262 ) ;
#125 = ORIENTED_EDGE ( 'NONE', *, *, #178, .T. ) ;
#126 = SURFACE_STYLE_FILL_AREA ( #181 ) ;
#127 = APPLICATION_PROTOCOL_DEFINITION ( 'draft international standard', 'automotive_design', 1998, #24 ) ;
#128 = FACE_OUTER_BOUND ( 'NONE', #282, .T. ) ;
#129 =( NAMED_UNIT ( * ) SI_UNIT ( $, .STERADIAN. ) SOLID_ANGLE_UNIT ( ) );
#130 = STYLED_ITEM ( 'NONE', ( #212 ), #37 ) ;
#131 = DIRECTION ( 'NONE',  ( 0.000000000000000000, 0.000000000000000000, -1.000000000000000000 ) ) ;
#132 = AXIS2_PLACEMENT_3D ( 'NONE', #229, #36, #104 ) ;
#133 = DIRECTION ( 'NONE',  ( 0.000000000000000000, 0.000000000000000000, 1.000000000000000000 ) ) ;
#134 = FILL_AREA_STYLE_COLOUR ( '', #88 ) ;
#135 = COLOUR_RGB ( '',1.000000000000000000, 0.000000000000000000, 0.000000000000000000 ) ;
#136 = EDGE_CURVE ( 'NONE', #42, #143, #157, .T. ) ;
#137 = PLANE ( 'NONE',  #60 ) ;
#138 = FILL_AREA_STYLE ('',( #13 ) ) ;
#139 = PRESENTATION_STYLE_ASSIGNMENT (( #20 ) ) ;
#140 = EDGE_CURVE ( 'NONE', #163, #17, #159, .T. ) ;
#141 = CARTESIAN_POINT ( 'NONE',  ( -0.1875000000000002220, 4.000000000000000000, 0.000000000000000000 ) ) ;
#142 = FILL_AREA_STYLE_COLOUR ( '', #94 ) ;
#143 = VERTEX_POINT ( 'NONE', #235 ) ;
#144 = CARTESIAN_POINT ( 'NONE',  ( 2.296212748401287726E-17, 0.000000000000000000, 0.1875000000000000278 ) ) ;
#145 = MECHANICAL_DESIGN_GEOMETRIC_PRESENTATION_REPRESENTATION (  '', ( #204 ), #149 ) ;
#146 = UNCERTAINTY_MEASURE_WITH_UNIT (LENGTH_MEASURE( 1.000000000000000082E-05 ), #78, 'distance_accuracy_value', 'NONE');
#147 = ORIENTED_EDGE ( 'NONE', *, *, #207, .F. ) ;
#148 = DIMENSIONAL_EXPONENTS ( 1.000000000000000000, 0.000000000000000000, 0.000000000000000000, 0.000000000000000000, 0.000000000000000000, 0.000000000000000000, 0.000000000000000000 ) ;
#149 =( GEOMETRIC_REPRESENTATION_CONTEXT ( 3 ) GLOBAL_UNCERTAINTY_ASSIGNED_CONTEXT ( ( #308 ) ) GLOBAL_UNIT_ASSIGNED_CONTEXT ( ( #82, #160, #18 ) ) REPRESENTATION_CONTEXT ( 'NONE', 'WORKASPACE' ) );
#150 = DIRECTION ( 'NONE',  ( -0.000000000000000000, -1.000000000000000000, -0.000000000000000000 ) ) ;
#151 = DIRECTION ( 'NONE',  ( -0.000000000000000000, -1.000000000000000000, -0.000000000000000000 ) ) ;
#152 = ORIENTED_EDGE ( 'NONE', *, *, #193, .F. ) ;
#153 =( LENGTH_UNIT ( ) NAMED_UNIT ( * ) SI_UNIT ( $, .METRE. ) );
#154 = DIRECTION ( 'NONE',  ( 1.000000000000000000, 6.123233995736763571E-17, 0.000000000000000000 ) ) ;
#155 = CARTESIAN_POINT ( 'NONE',  ( 0.000000000000000000, 0.000000000000000000, -0.1875000000000000278 ) ) ;
#156 = CARTESIAN_POINT ( 'NONE',  ( 2.296212748401287726E-17, 0.000000000000000000, 0.1875000000000000278 ) ) ;
#157 = CIRCLE ( 'NONE', #45, 0.1875000000000000278 ) ;
#158 =( LENGTH_UNIT ( ) NAMED_UNIT ( * ) SI_UNIT ( $, .METRE. ) );
#159 = LINE ( 'NONE', #141, #103 ) ;
#160 =( NAMED_UNIT ( * ) PLANE_ANGLE_UNIT ( ) SI_UNIT ( $, .RADIAN. ) );
#161 = AXIS2_PLACEMENT_3D ( 'NONE', #49, #151, #51 ) ;
#162 = PRESENTATION_LAYER_ASSIGNMENT (  '', '', ( #124 ) ) ;
#163 = VERTEX_POINT ( 'NONE', #115 ) ;
#164 = DIRECTION ( 'NONE',  ( -6.123233995736763571E-17, 1.000000000000000000, -0.000000000000000000 ) ) ;
#165 = ORIENTED_EDGE ( 'NONE', *, *, #255, .F. ) ;
#166 = ADVANCED_FACE ( 'NONE', ( #86 ), #205, .T. ) ;
#167 = EDGE_CURVE ( 'NONE', #143, #92, #55, .T. ) ;
#168 = ORIENTED_EDGE ( 'NONE', *, *, #276, .F. ) ;
#169 = PRESENTATION_STYLE_ASSIGNMENT (( #68 ) ) ;
#170 =( LENGTH_UNIT ( ) NAMED_UNIT ( * ) SI_UNIT ( $, .METRE. ) );
#171 = LENGTH_MEASURE_WITH_UNIT ( LENGTH_MEASURE( 0.02539999999999999897 ), #245 );
#172 = COLOUR_RGB ( '',1.000000000000000000, 0.000000000000000000, 0.000000000000000000 ) ;
#173 = LENGTH_MEASURE_WITH_UNIT ( LENGTH_MEASURE( 0.02539999999999999897 ), #153 );
#174 = DIRECTION ( 'NONE',  ( -1.000000000000000000, 0.000000000000000000, 0.000000000000000000 ) ) ;
#175 = MANIFOLD_SOLID_BREP ( 'Revolve - Tool Body (Straight Shanked)', #65 ) ;
#176 = LINE ( 'NONE', #155, #119 ) ;
#177 = DIRECTION ( 'NONE',  ( 0.000000000000000000, -0.000000000000000000, 1.000000000000000000 ) ) ;
#178 = EDGE_CURVE ( 'NONE', #304, #92, #286, .T. ) ;
#179 = DIMENSIONAL_EXPONENTS ( 1.000000000000000000, 0.000000000000000000, 0.000000000000000000, 0.000000000000000000, 0.000000000000000000, 0.000000000000000000, 0.000000000000000000 ) ;
#180 = APPLICATION_PROTOCOL_DEFINITION ( 'draft international standard', 'automotive_design', 1998, #243 ) ;
#181 = FILL_AREA_STYLE ('',( #268 ) ) ;
#182 = AXIS2_PLACEMENT_3D ( 'NONE', #299, #85, #16 ) ;
#183 = PRODUCT_RELATED_PRODUCT_CATEGORY ( 'part', '', ( #80 ) ) ;
#184 = CARTESIAN_POINT ( 'NONE',  ( 1.516480271171051896E-32, 2.000000000000000000, 0.000000000000000000 ) ) ;
#185 = AXIS2_PLACEMENT_3D ( 'NONE', #70, #221, #177 ) ;
#186 = LENGTH_MEASURE_WITH_UNIT ( LENGTH_MEASURE( 0.02539999999999999897 ), #56 );
#187 = CARTESIAN_POINT ( 'NONE',  ( 0.1874999999999999445, 4.000000000000000000, 2.296212748401288342E-17 ) ) ;
#188 = CARTESIAN_POINT ( 'NONE',  ( -1.224646799147352714E-16, 4.000000000000000000, 0.000000000000000000 ) ) ;
#189 = PRESENTATION_LAYER_ASSIGNMENT (  '', '', ( #266 ) ) ;
#190 =( CONVERSION_BASED_UNIT ( 'INCH', #11 ) LENGTH_UNIT ( ) NAMED_UNIT ( #265 ) );
#191 = FILL_AREA_STYLE ('',( #260 ) ) ;
#192 = PLANE ( 'NONE',  #185 ) ;
#193 = EDGE_CURVE ( 'NONE', #283, #240, #113, .T. ) ;
#194 = PRESENTATION_STYLE_ASSIGNMENT (( #96 ) ) ;
#195 = MECHANICAL_DESIGN_GEOMETRIC_PRESENTATION_REPRESENTATION (  '', ( #252 ), #89 ) ;
#196 = DIMENSIONAL_EXPONENTS ( 1.000000000000000000, 0.000000000000000000, 0.000000000000000000, 0.000000000000000000, 0.000000000000000000, 0.000000000000000000, 0.000000000000000000 ) ;
#197 = CARTESIAN_POINT ( 'NONE',  ( 0.000000000000000000, 2.000000000000000000, 0.000000000000000000 ) ) ;
#198 =( NAMED_UNIT ( * ) PLANE_ANGLE_UNIT ( ) SI_UNIT ( $, .RADIAN. ) );
#199 =( LENGTH_UNIT ( ) NAMED_UNIT ( * ) SI_UNIT ( $, .METRE. ) );
#200 =( NAMED_UNIT ( * ) PLANE_ANGLE_UNIT ( ) SI_UNIT ( $, .RADIAN. ) );
#201 = DIRECTION ( 'NONE',  ( -6.123233995736763571E-17, 1.000000000000000000, -0.000000000000000000 ) ) ;
#202 = ORIENTED_EDGE ( 'NONE', *, *, #10, .T. ) ;
#203 = DIRECTION ( 'NONE',  ( -6.123233995736763571E-17, 1.000000000000000000, -0.000000000000000000 ) ) ;
#204 = STYLED_ITEM ( 'NONE', ( #194 ), #63 ) ;
#205 = CYLINDRICAL_SURFACE ( 'NONE', #219, 0.1875000000000000833 ) ;
#206 = SURFACE_SIDE_STYLE ('',( #278 ) ) ;
#207 = EDGE_CURVE ( 'NONE', #163, #283, #40, .T. ) ;
#208 = SURFACE_SIDE_STYLE ('',( #117 ) ) ;
#209 = UNCERTAINTY_MEASURE_WITH_UNIT (LENGTH_MEASURE( 1.000000000000000082E-05 ), #190, 'distance_accuracy_value', 'NONE');
#210 = ADVANCED_BREP_SHAPE_REPRESENTATION ( '82521', ( #63, #175, #226 ), #95 ) ;
#211 = ORIENTED_EDGE ( 'NONE', *, *, #276, .T. ) ;
#212 = PRESENTATION_STYLE_ASSIGNMENT (( #64 ) ) ;
#213 = EDGE_LOOP ( 'NONE', ( #287, #264 ) ) ;
#214 = AXIS2_PLACEMENT_3D ( 'NONE', #197, #247, #131 ) ;
#215 = EDGE_LOOP ( 'NONE', ( #152, #241, #23, #25 ) ) ;
#216 = PRODUCT_DEFINITION_CONTEXT ( 'detailed design', #24, 'design' ) ;
#217 = ORIENTED_EDGE ( 'NONE', *, *, #167, .T. ) ;
#218 = DIMENSIONAL_EXPONENTS ( 1.000000000000000000, 0.000000000000000000, 0.000000000000000000, 0.000000000000000000, 0.000000000000000000, 0.000000000000000000, 0.000000000000000000 ) ;
#219 = AXIS2_PLACEMENT_3D ( 'NONE', #107, #257, #295 ) ;
#220 = FILL_AREA_STYLE ('',( #77 ) ) ;
#221 = DIRECTION ( 'NONE',  ( 0.000000000000000000, 1.000000000000000000, 0.000000000000000000 ) ) ;
#222 = ORIENTED_EDGE ( 'NONE', *, *, #281, .F. ) ;
#223 = DIRECTION ( 'NONE',  ( 1.000000000000000000, 0.000000000000000000, 0.000000000000000000 ) ) ;
#224 = CARTESIAN_POINT ( 'NONE',  ( -1.224646799147352714E-16, 4.000000000000000000, 0.000000000000000000 ) ) ;
#225 = FACE_OUTER_BOUND ( 'NONE', #1, .T. ) ;
#226 = AXIS2_PLACEMENT_3D ( 'NONE', #31, #133, #223 ) ;
#227 =( NAMED_UNIT ( * ) PLANE_ANGLE_UNIT ( ) SI_UNIT ( $, .RADIAN. ) );
#228 = PRODUCT_CONTEXT ( 'NONE', #243, 'mechanical' ) ;
#229 = CARTESIAN_POINT ( 'NONE',  ( 0.000000000000000000, 0.000000000000000000, 0.000000000000000000 ) ) ;
#230 =( NAMED_UNIT ( * ) PLANE_ANGLE_UNIT ( ) SI_UNIT ( $, .RADIAN. ) );
#231 = CARTESIAN_POINT ( 'NONE',  ( 0.1875000000000000278, 4.000000000000000000, 2.296212748401288650E-17 ) ) ;
#232 = AXIS2_PLACEMENT_3D ( 'NONE', #12, #279, #41 ) ;
#233 = LENGTH_MEASURE_WITH_UNIT ( LENGTH_MEASURE( 0.02539999999999999897 ), #298 );
#234 = LENGTH_MEASURE_WITH_UNIT ( LENGTH_MEASURE( 0.02539999999999999897 ), #158 );
#235 = CARTESIAN_POINT ( 'NONE',  ( 2.296212748401287726E-17, 2.000000000000000000, 0.1875000000000000278 ) ) ;
#236 = CARTESIAN_POINT ( 'NONE',  ( -0.1875000000000002776, 4.000000000000000000, 0.000000000000000000 ) ) ;
#237 = FACE_OUTER_BOUND ( 'NONE', #21, .T. ) ;
#238 = ORIENTED_EDGE ( 'NONE', *, *, #294, .T. ) ;
#239 = DIRECTION ( 'NONE',  ( 0.000000000000000000, -1.000000000000000000, -0.000000000000000000 ) ) ;
#240 = VERTEX_POINT ( 'NONE', #231 ) ;
#241 = ORIENTED_EDGE ( 'NONE', *, *, #281, .T. ) ;
#242 = AXIS2_PLACEMENT_3D ( 'NONE', #224, #201, #174 ) ;
#243 = APPLICATION_CONTEXT ( 'automotive_design' ) ;
#244 = DIRECTION ( 'NONE',  ( -6.123233995736763571E-17, 1.000000000000000000, -0.000000000000000000 ) ) ;
#245 =( LENGTH_UNIT ( ) NAMED_UNIT ( * ) SI_UNIT ( $, .METRE. ) );
#246 = PRODUCT_DEFINITION ( 'UNKNOWN', '', #274, #216 ) ;
#247 = DIRECTION ( 'NONE',  ( -0.000000000000000000, -1.000000000000000000, -0.000000000000000000 ) ) ;
#248 = LENGTH_MEASURE_WITH_UNIT ( LENGTH_MEASURE( 0.02539999999999999897 ), #170 );
#249 = COLOUR_RGB ( '',0.7921568627450980005, 0.8196078431372548767, 0.9333333333333333481 ) ;
#250 = AXIS2_PLACEMENT_3D ( 'NONE', #184, #108, #275 ) ;
#251 = CARTESIAN_POINT ( 'NONE',  ( 0.1875000000000000278, 2.000000000000000000, 2.296212748401288650E-17 ) ) ;
#252 = STYLED_ITEM ( 'NONE', ( #38 ), #175 ) ;
#253 = VECTOR ( 'NONE', #259, 39.37007874015748143 ) ;
#254 =( NAMED_UNIT ( * ) SI_UNIT ( $, .STERADIAN. ) SOLID_ANGLE_UNIT ( ) );
#255 = EDGE_CURVE ( 'NONE', #92, #304, #267, .T. ) ;
#256 = FILL_AREA_STYLE ('',( #142 ) ) ;
#257 = DIRECTION ( 'NONE',  ( -6.123233995736763571E-17, 1.000000000000000000, -0.000000000000000000 ) ) ;
#258 =( GEOMETRIC_REPRESENTATION_CONTEXT ( 3 ) GLOBAL_UNCERTAINTY_ASSIGNED_CONTEXT ( ( #74 ) ) GLOBAL_UNIT_ASSIGNED_CONTEXT ( ( #99, #198, #129 ) ) REPRESENTATION_CONTEXT ( 'NONE', 'WORKASPACE' ) );
#259 = DIRECTION ( 'NONE',  ( -6.123233995736763571E-17, 1.000000000000000000, -0.000000000000000000 ) ) ;
#260 = FILL_AREA_STYLE_COLOUR ( '', #172 ) ;
#261 = AXIS2_PLACEMENT_3D ( 'NONE', #293, #292, #154 ) ;
#262 = ADVANCED_FACE ( 'NONE', ( #84 ), #15, .T. ) ;
#263 = SURFACE_STYLE_FILL_AREA ( #138 ) ;
#264 = ORIENTED_EDGE ( 'NONE', *, *, #294, .F. ) ;
#265 = DIMENSIONAL_EXPONENTS ( 1.000000000000000000, 0.000000000000000000, 0.000000000000000000, 0.000000000000000000, 0.000000000000000000, 0.000000000000000000, 0.000000000000000000 ) ;
#266 = STYLED_ITEM ( 'NONE', ( #139 ), #110 ) ;
#267 = CIRCLE ( 'NONE', #132, 0.1875000000000000278 ) ;
#268 = FILL_AREA_STYLE_COLOUR ( '', #97 ) ;
#269 = SURFACE_STYLE_FILL_AREA ( #220 ) ;
#270 = PRODUCT_DEFINITION_SHAPE ( 'NONE', 'NONE',  #246 ) ;
#271 = SHAPE_DEFINITION_REPRESENTATION ( #270, #210 ) ;
#272 = CARTESIAN_POINT ( 'NONE',  ( 0.000000000000000000, 2.000000000000000000, -0.1875000000000000278 ) ) ;
#273 = MECHANICAL_DESIGN_GEOMETRIC_PRESENTATION_REPRESENTATION (  '', ( #266 ), #307 ) ;
#274 = PRODUCT_DEFINITION_FORMATION_WITH_SPECIFIED_SOURCE ( 'ANY', '', #80, .NOT_KNOWN. ) ;
#275 = DIRECTION ( 'NONE',  ( -1.000000000000000000, 0.000000000000000000, 0.000000000000000000 ) ) ;
#276 = EDGE_CURVE ( 'NONE', #42, #304, #176, .T. ) ;
#277 = STYLED_ITEM ( 'NONE', ( #288 ), #57 ) ;
#278 = SURFACE_STYLE_FILL_AREA ( #81 ) ;
#279 = DIRECTION ( 'NONE',  ( -6.123233995736763571E-17, 1.000000000000000000, 0.000000000000000000 ) ) ;
#280 = DIRECTION ( 'NONE',  ( -0.000000000000000000, -1.000000000000000000, -0.000000000000000000 ) ) ;
#281 = EDGE_CURVE ( 'NONE', #283, #163, #98, .T. ) ;
#282 = EDGE_LOOP ( 'NONE', ( #90, #114, #305, #26 ) ) ;
#283 = VERTEX_POINT ( 'NONE', #251 ) ;
#284 = SURFACE_SIDE_STYLE ('',( #116 ) ) ;
#285 = MECHANICAL_DESIGN_GEOMETRIC_PRESENTATION_REPRESENTATION (  '', ( #130 ), #123 ) ;
#286 = CIRCLE ( 'NONE', #182, 0.1875000000000000278 ) ;
#287 = ORIENTED_EDGE ( 'NONE', *, *, #136, .F. ) ;
#288 = PRESENTATION_STYLE_ASSIGNMENT (( #2 ) ) ;
#289 = DIMENSIONAL_EXPONENTS ( 1.000000000000000000, 0.000000000000000000, 0.000000000000000000, 0.000000000000000000, 0.000000000000000000, 0.000000000000000000, 0.000000000000000000 ) ;
#290 = CIRCLE ( 'NONE', #53, 0.1875000000000001388 ) ;
#291 = CYLINDRICAL_SURFACE ( 'NONE', #242, 0.1875000000000000833 ) ;
#292 = DIRECTION ( 'NONE',  ( 6.123233995736763571E-17, -1.000000000000000000, 0.000000000000000000 ) ) ;
#293 = CARTESIAN_POINT ( 'NONE',  ( 0.1875000000000000278, 4.000000000000000000, 0.000000000000000000 ) ) ;
#294 = EDGE_CURVE ( 'NONE', #143, #42, #303, .T. ) ;
#295 = DIRECTION ( 'NONE',  ( -1.000000000000000000, 0.000000000000000000, 0.000000000000000000 ) ) ;
#296 =( NAMED_UNIT ( * ) PLANE_ANGLE_UNIT ( ) SI_UNIT ( $, .RADIAN. ) );
#297 =( CONVERSION_BASED_UNIT ( 'INCH', #234 ) LENGTH_UNIT ( ) NAMED_UNIT ( #121 ) );
#298 =( LENGTH_UNIT ( ) NAMED_UNIT ( * ) SI_UNIT ( $, .METRE. ) );
#299 = CARTESIAN_POINT ( 'NONE',  ( 0.000000000000000000, 0.000000000000000000, 0.000000000000000000 ) ) ;
#300 = ORIENTED_EDGE ( 'NONE', *, *, #255, .T. ) ;
#301 = ORIENTED_EDGE ( 'NONE', *, *, #136, .T. ) ;
#302 = AXIS2_PLACEMENT_3D ( 'NONE', #188, #62, #59 ) ;
#303 = CIRCLE ( 'NONE', #214, 0.1875000000000000278 ) ;
#304 = VERTEX_POINT ( 'NONE', #33 ) ;
#305 = ORIENTED_EDGE ( 'NONE', *, *, #306, .F. ) ;
#306 = EDGE_CURVE ( 'NONE', #17, #240, #290, .T. ) ;
#307 =( GEOMETRIC_REPRESENTATION_CONTEXT ( 3 ) GLOBAL_UNCERTAINTY_ASSIGNED_CONTEXT ( ( #29 ) ) GLOBAL_UNIT_ASSIGNED_CONTEXT ( ( #106, #296, #35 ) ) REPRESENTATION_CONTEXT ( 'NONE', 'WORKASPACE' ) );
#308 = UNCERTAINTY_MEASURE_WITH_UNIT (LENGTH_MEASURE( 1.000000000000000082E-05 ), #82, 'distance_accuracy_value', 'NONE');
#309 = SURFACE_SIDE_STYLE ('',( #269 ) ) ;
ENDSEC;
END-ISO-10303-21;
