ISO-10303-21;
HEADER;
FILE_DESCRIPTION (( 'STEP AP214' ),
    '1' );
FILE_NAME ('59518.STEP',
    '2023-07-24T15:08:46',
    ( '' ),
    ( '' ),
    'SwSTEP 2.0',
    'SolidWorks 2023',
    '' );
FILE_SCHEMA (( 'AUTOMOTIVE_DESIGN' ));
ENDSEC;

DATA;
#1 = PRODUCT_CONTEXT ( 'NONE', #285, 'mechanical' ) ;
#2 = STYLED_ITEM ( 'NONE', ( #124 ), #23 ) ;
#3 = DIRECTION ( 'NONE',  ( -1.000000000000000000, 0.000000000000000000, 0.000000000000000000 ) ) ;
#4 = DIRECTION ( 'NONE',  ( -1.213614799521464586E-16, 1.000000000000000000, -0.000000000000000000 ) ) ;
#5 = DIRECTION ( 'NONE',  ( -1.224646799147353207E-16, 0.000000000000000000, -1.000000000000000000 ) ) ;
#6 = CARTESIAN_POINT ( 'NONE',  ( 1.469576158976823750E-15, 63.00000000000000000, 0.000000000000000000 ) ) ;
#7 = EDGE_LOOP ( 'NONE', ( #207, #268, #270, #298 ) ) ;
#8 = CIRCLE ( 'NONE', #290, 2.999999999999992450 ) ;
#9 =( NAMED_UNIT ( * ) SI_UNIT ( $, .STERADIAN. ) SOLID_ANGLE_UNIT ( ) );
#10 = EDGE_LOOP ( 'NONE', ( #32, #216, #300, #214 ) ) ;
#11 = EDGE_CURVE ( 'NONE', #58, #63, #332, .T. ) ;
#12 = SURFACE_STYLE_USAGE ( .BOTH. , #64 ) ;
#13 = EDGE_LOOP ( 'NONE', ( #68, #122 ) ) ;
#14 = VECTOR ( 'NONE', #312, 1000.000000000000000 ) ;
#15 = STYLED_ITEM ( 'NONE', ( #176 ), #251 ) ;
#16 = DIRECTION ( 'NONE',  ( 0.000000000000000000, 0.000000000000000000, -1.000000000000000000 ) ) ;
#17 =( GEOMETRIC_REPRESENTATION_CONTEXT ( 3 ) GLOBAL_UNCERTAINTY_ASSIGNED_CONTEXT ( ( #330 ) ) GLOBAL_UNIT_ASSIGNED_CONTEXT ( ( #203, #316, #234 ) ) REPRESENTATION_CONTEXT ( 'NONE', 'WORKASPACE' ) );
#18 = SURFACE_SIDE_STYLE ('',( #160 ) ) ;
#19 = COLOUR_RGB ( '',1.000000000000000000, 0.000000000000000000, 0.000000000000000000 ) ;
#20 = CARTESIAN_POINT ( 'NONE',  ( 0.000000000000000000, 1.000000000000000000, 0.000000000000000000 ) ) ;
#21 = EDGE_CURVE ( 'NONE', #33, #38, #165, .T. ) ;
#22 = CARTESIAN_POINT ( 'NONE',  ( 0.000000000000000000, 1.000000000000000000, 0.000000000000000000 ) ) ;
#23 = ADVANCED_FACE ( 'NONE', ( #278 ), #189, .T. ) ;
#24 = FILL_AREA_STYLE_COLOUR ( '', #98 ) ;
#25 = CIRCLE ( 'NONE', #359, 3.000000000000000000 ) ;
#26 =( NAMED_UNIT ( * ) PLANE_ANGLE_UNIT ( ) SI_UNIT ( $, .RADIAN. ) );
#27 = ORIENTED_EDGE ( 'NONE', *, *, #247, .F. ) ;
#28 = UNCERTAINTY_MEASURE_WITH_UNIT (LENGTH_MEASURE( 1.000000000000000082E-05 ), #281, 'distance_accuracy_value', 'NONE');
#29 = ORIENTED_EDGE ( 'NONE', *, *, #39, .F. ) ;
#30 = AXIS2_PLACEMENT_3D ( 'NONE', #208, #121, #153 ) ;
#31 = AXIS2_PLACEMENT_3D ( 'NONE', #368, #179, #142 ) ;
#32 = ORIENTED_EDGE ( 'NONE', *, *, #239, .F. ) ;
#33 = VERTEX_POINT ( 'NONE', #95 ) ;
#34 = ORIENTED_EDGE ( 'NONE', *, *, #336, .F. ) ;
#35 = AXIS2_PLACEMENT_3D ( 'NONE', #77, #310, #196 ) ;
#36 = AXIS2_PLACEMENT_3D ( 'NONE', #218, #297, #333 ) ;
#37 = SURFACE_STYLE_FILL_AREA ( #323 ) ;
#38 = VERTEX_POINT ( 'NONE', #223 ) ;
#39 = EDGE_CURVE ( 'NONE', #158, #58, #103, .T. ) ;
#40 = FACE_OUTER_BOUND ( 'NONE', #13, .T. ) ;
#41 = ORIENTED_EDGE ( 'NONE', *, *, #239, .T. ) ;
#42 = PRESENTATION_STYLE_ASSIGNMENT (( #284 ) ) ;
#43 = TOROIDAL_SURFACE ( 'NONE', #206, 2.000000000000000000, 0.9999999999999997780 ) ;
#44 = CARTESIAN_POINT ( 'NONE',  ( -2.999999999999984457, 9.000000000000001776, 0.000000000000000000 ) ) ;
#45 = DIRECTION ( 'NONE',  ( -1.213614799521464586E-16, 1.000000000000000000, -0.000000000000000000 ) ) ;
#46 = SURFACE_STYLE_USAGE ( .BOTH. , #76 ) ;
#47 = AXIS2_PLACEMENT_3D ( 'NONE', #287, #51, #366 ) ;
#48 = SURFACE_SIDE_STYLE ('',( #145 ) ) ;
#49 = FACE_OUTER_BOUND ( 'NONE', #61, .T. ) ;
#50 = EDGE_CURVE ( 'NONE', #63, #38, #343, .T. ) ;
#51 = DIRECTION ( 'NONE',  ( -1.213614799521464586E-16, 1.000000000000000000, -0.000000000000000000 ) ) ;
#52 = SURFACE_SIDE_STYLE ('',( #201 ) ) ;
#53 = MECHANICAL_DESIGN_GEOMETRIC_PRESENTATION_REPRESENTATION (  '', ( #309 ), #86 ) ;
#54 = SURFACE_STYLE_USAGE ( .BOTH. , #318 ) ;
#55 =( LENGTH_UNIT ( ) NAMED_UNIT ( * ) SI_UNIT ( .MILLI., .METRE. ) );
#56 = DIRECTION ( 'NONE',  ( -0.000000000000000000, -1.000000000000000000, -0.000000000000000000 ) ) ;
#57 = SURFACE_SIDE_STYLE ('',( #37 ) ) ;
#58 = VERTEX_POINT ( 'NONE', #225 ) ;
#59 = PRODUCT ( '59518', '59518', '', ( #1 ) ) ;
#60 = CYLINDRICAL_SURFACE ( 'NONE', #224, 2.999999999999995559 ) ;
#61 = EDGE_LOOP ( 'NONE', ( #305, #119, #320, #182 ) ) ;
#62 = PLANE ( 'NONE',  #317 ) ;
#63 = VERTEX_POINT ( 'NONE', #254 ) ;
#64 = SURFACE_SIDE_STYLE ('',( #331 ) ) ;
#65 = EDGE_CURVE ( 'NONE', #139, #369, #249, .T. ) ;
#66 = AXIS2_PLACEMENT_3D ( 'NONE', #255, #164, #250 ) ;
#67 = SURFACE_STYLE_FILL_AREA ( #89 ) ;
#68 = ORIENTED_EDGE ( 'NONE', *, *, #50, .T. ) ;
#69 = PRESENTATION_STYLE_ASSIGNMENT (( #46 ) ) ;
#70 = EDGE_CURVE ( 'NONE', #369, #355, #91, .T. ) ;
#71 = DIRECTION ( 'NONE',  ( 0.000000000000000000, 0.000000000000000000, -1.000000000000000000 ) ) ;
#72 = STYLED_ITEM ( 'NONE', ( #69 ), #131 ) ;
#73 = COLOUR_RGB ( '',0.7921568627450980005, 0.8196078431372548767, 0.9333333333333333481 ) ;
#74 = DIRECTION ( 'NONE',  ( -0.000000000000000000, -1.000000000000000000, -0.000000000000000000 ) ) ;
#75 = STYLED_ITEM ( 'NONE', ( #348 ), #362 ) ;
#76 = SURFACE_SIDE_STYLE ('',( #129 ) ) ;
#77 = CARTESIAN_POINT ( 'NONE',  ( 0.000000000000000000, 0.000000000000000000, 0.000000000000000000 ) ) ;
#78 = MECHANICAL_DESIGN_GEOMETRIC_PRESENTATION_REPRESENTATION (  '', ( #2 ), #304 ) ;
#79 = AXIS2_PLACEMENT_3D ( 'NONE', #301, #210, #328 ) ;
#80 = DIRECTION ( 'NONE',  ( -1.213614799521464586E-16, 1.000000000000000000, -0.000000000000000000 ) ) ;
#81 = CARTESIAN_POINT ( 'NONE',  ( -2.999999999999997335, 63.00000000000000000, 0.000000000000000000 ) ) ;
#82 = DIRECTION ( 'NONE',  ( -0.000000000000000000, -1.000000000000000000, -0.000000000000000000 ) ) ;
#83 = APPLICATION_PROTOCOL_DEFINITION ( 'draft international standard', 'automotive_design', 1998, #285 ) ;
#84 = ORIENTED_EDGE ( 'NONE', *, *, #322, .T. ) ;
#85 = SURFACE_STYLE_FILL_AREA ( #232 ) ;
#86 =( GEOMETRIC_REPRESENTATION_CONTEXT ( 3 ) GLOBAL_UNCERTAINTY_ASSIGNED_CONTEXT ( ( #229 ) ) GLOBAL_UNIT_ASSIGNED_CONTEXT ( ( #337, #99, #195 ) ) REPRESENTATION_CONTEXT ( 'NONE', 'WORKASPACE' ) );
#87 = CARTESIAN_POINT ( 'NONE',  ( 3.673940397442059868E-16, 0.000000000000000000, 3.000000000000000000 ) ) ;
#88 = FILL_AREA_STYLE_COLOUR ( '', #128 ) ;
#89 = FILL_AREA_STYLE ('',( #88 ) ) ;
#90 = ORIENTED_EDGE ( 'NONE', *, *, #65, .F. ) ;
#91 = CIRCLE ( 'NONE', #242, 2.999999999999998668 ) ;
#92 = COLOUR_RGB ( '',1.000000000000000000, 0.000000000000000000, 0.000000000000000000 ) ;
#93 = DIRECTION ( 'NONE',  ( -1.213614799521464586E-16, 1.000000000000000000, -0.000000000000000000 ) ) ;
#94 = DIRECTION ( 'NONE',  ( -1.000000000000000000, -1.213614799521464586E-16, 0.000000000000000000 ) ) ;
#95 = CARTESIAN_POINT ( 'NONE',  ( 3.673940397442059375E-16, 1.000000000000000000, 3.000000000000000000 ) ) ;
#96 =( NAMED_UNIT ( * ) SI_UNIT ( $, .STERADIAN. ) SOLID_ANGLE_UNIT ( ) );
#97 =( LENGTH_UNIT ( ) NAMED_UNIT ( * ) SI_UNIT ( .MILLI., .METRE. ) );
#98 = COLOUR_RGB ( '',1.000000000000000000, 0.000000000000000000, 0.000000000000000000 ) ;
#99 =( NAMED_UNIT ( * ) PLANE_ANGLE_UNIT ( ) SI_UNIT ( $, .RADIAN. ) );
#100 = DIRECTION ( 'NONE',  ( -1.000000000000000000, 0.000000000000000000, 0.000000000000000000 ) ) ;
#101 = FILL_AREA_STYLE_COLOUR ( '', #219 ) ;
#102 = CARTESIAN_POINT ( 'NONE',  ( 1.469576158976823750E-15, 63.00000000000000000, 0.000000000000000000 ) ) ;
#103 = LINE ( 'NONE', #105, #126 ) ;
#104 =( GEOMETRIC_REPRESENTATION_CONTEXT ( 3 ) GLOBAL_UNCERTAINTY_ASSIGNED_CONTEXT ( ( #117 ) ) GLOBAL_UNIT_ASSIGNED_CONTEXT ( ( #55, #26, #204 ) ) REPRESENTATION_CONTEXT ( 'NONE', 'WORKASPACE' ) );
#105 = CARTESIAN_POINT ( 'NONE',  ( 0.000000000000000000, 0.000000000000000000, -3.000000000000000000 ) ) ;
#106 = ADVANCED_BREP_SHAPE_REPRESENTATION ( '59518', ( #162, #293, #31 ), #104 ) ;
#107 =( LENGTH_UNIT ( ) NAMED_UNIT ( * ) SI_UNIT ( .MILLI., .METRE. ) );
#108 = CLOSED_SHELL ( 'NONE', ( #221, #264, #347, #277 ) ) ;
#109 = DIRECTION ( 'NONE',  ( -0.000000000000000000, -1.000000000000000000, -0.000000000000000000 ) ) ;
#110 = CIRCLE ( 'NONE', #259, 3.000000000000000000 ) ;
#111 = FILL_AREA_STYLE ('',( #115 ) ) ;
#112 = CARTESIAN_POINT ( 'NONE',  ( 0.000000000000000000, 0.000000000000000000, 0.000000000000000000 ) ) ;
#113 = FILL_AREA_STYLE_COLOUR ( '', #19 ) ;
#114 =( NAMED_UNIT ( * ) PLANE_ANGLE_UNIT ( ) SI_UNIT ( $, .RADIAN. ) );
#115 = FILL_AREA_STYLE_COLOUR ( '', #192 ) ;
#116 = DIRECTION ( 'NONE',  ( -1.000000000000000000, 0.000000000000000000, 0.000000000000000000 ) ) ;
#117 = UNCERTAINTY_MEASURE_WITH_UNIT (LENGTH_MEASURE( 1.000000000000000082E-05 ), #55, 'distance_accuracy_value', 'NONE');
#118 = DIRECTION ( 'NONE',  ( -1.213614799521464586E-16, 1.000000000000000000, -0.000000000000000000 ) ) ;
#119 = ORIENTED_EDGE ( 'NONE', *, *, #21, .T. ) ;
#120 = VECTOR ( 'NONE', #109, 1000.000000000000000 ) ;
#121 = DIRECTION ( 'NONE',  ( 0.000000000000000000, 1.000000000000000000, 0.000000000000000000 ) ) ;
#122 = ORIENTED_EDGE ( 'NONE', *, *, #233, .T. ) ;
#123 = CARTESIAN_POINT ( 'NONE',  ( 8.023096076392732812E-15, 9.000000000000000000, 0.000000000000000000 ) ) ;
#124 = PRESENTATION_STYLE_ASSIGNMENT (( #12 ) ) ;
#125 = FILL_AREA_STYLE ('',( #157 ) ) ;
#126 = VECTOR ( 'NONE', #134, 1000.000000000000000 ) ;
#127 = PRODUCT_DEFINITION_SHAPE ( 'NONE', 'NONE',  #282 ) ;
#128 = COLOUR_RGB ( '',0.7921568627450980005, 0.8196078431372548767, 0.9333333333333333481 ) ;
#129 = SURFACE_STYLE_FILL_AREA ( #308 ) ;
#130 =( LENGTH_UNIT ( ) NAMED_UNIT ( * ) SI_UNIT ( .MILLI., .METRE. ) );
#131 = ADVANCED_FACE ( 'NONE', ( #340 ), #135, .T. ) ;
#132 = AXIS2_PLACEMENT_3D ( 'NONE', #150, #154, #5 ) ;
#133 = AXIS2_PLACEMENT_3D ( 'NONE', #279, #230, #319 ) ;
#134 = DIRECTION ( 'NONE',  ( -0.000000000000000000, -1.000000000000000000, -0.000000000000000000 ) ) ;
#135 = CYLINDRICAL_SURFACE ( 'NONE', #35, 3.000000000000000000 ) ;
#136 = EDGE_CURVE ( 'NONE', #33, #58, #205, .T. ) ;
#137 = DIRECTION ( 'NONE',  ( 0.000000000000000000, 0.000000000000000000, -1.000000000000000000 ) ) ;
#138 = DIRECTION ( 'NONE',  ( -0.000000000000000000, -1.000000000000000000, -0.000000000000000000 ) ) ;
#139 = VERTEX_POINT ( 'NONE', #44 ) ;
#140 = COLOUR_RGB ( '',1.000000000000000000, 0.000000000000000000, 0.000000000000000000 ) ;
#141 = FILL_AREA_STYLE ('',( #24 ) ) ;
#142 = DIRECTION ( 'NONE',  ( 1.000000000000000000, 0.000000000000000000, 0.000000000000000000 ) ) ;
#143 = DIRECTION ( 'NONE',  ( 0.000000000000000000, 0.000000000000000000, -1.000000000000000000 ) ) ;
#144 =( LENGTH_UNIT ( ) NAMED_UNIT ( * ) SI_UNIT ( .MILLI., .METRE. ) );
#145 = SURFACE_STYLE_FILL_AREA ( #141 ) ;
#146 = EDGE_CURVE ( 'NONE', #58, #33, #235, .T. ) ;
#147 = EDGE_LOOP ( 'NONE', ( #170, #41, #245, #90 ) ) ;
#148 = VECTOR ( 'NONE', #80, 1000.000000000000000 ) ;
#149 = PRODUCT_DEFINITION_FORMATION_WITH_SPECIFIED_SOURCE ( 'ANY', '', #59, .NOT_KNOWN. ) ;
#150 = CARTESIAN_POINT ( 'NONE',  ( 2.449293598294706414E-16, 1.000000000000000000, 2.000000000000000000 ) ) ;
#151 = FACE_OUTER_BOUND ( 'NONE', #327, .T. ) ;
#152 = ORIENTED_EDGE ( 'NONE', *, *, #191, .F. ) ;
#153 = DIRECTION ( 'NONE',  ( 0.000000000000000000, -0.000000000000000000, 1.000000000000000000 ) ) ;
#154 = DIRECTION ( 'NONE',  ( 1.000000000000000000, 0.000000000000000000, -1.224646799147353207E-16 ) ) ;
#155 = AXIS2_PLACEMENT_3D ( 'NONE', #269, #4, #116 ) ;
#156 = PRESENTATION_STYLE_ASSIGNMENT (( #180 ) ) ;
#157 = FILL_AREA_STYLE_COLOUR ( '', #140 ) ;
#158 = VERTEX_POINT ( 'NONE', #252 ) ;
#159 = CIRCLE ( 'NONE', #36, 2.999999999999998668 ) ;
#160 = SURFACE_STYLE_FILL_AREA ( #338 ) ;
#161 = DIRECTION ( 'NONE',  ( 0.000000000000000000, 0.000000000000000000, -1.000000000000000000 ) ) ;
#162 = MANIFOLD_SOLID_BREP ( 'Revolve - Cutting Edge', #166 ) ;
#163 = EDGE_CURVE ( 'NONE', #274, #33, #349, .T. ) ;
#164 = DIRECTION ( 'NONE',  ( -0.000000000000000000, -1.000000000000000000, -0.000000000000000000 ) ) ;
#165 = CIRCLE ( 'NONE', #132, 0.9999999999999997780 ) ;
#166 = CLOSED_SHELL ( 'NONE', ( #362, #200, #361, #23, #131, #251 ) ) ;
#167 = PRESENTATION_LAYER_ASSIGNMENT (  '', '', ( #248 ) ) ;
#168 =( NAMED_UNIT ( * ) SI_UNIT ( $, .STERADIAN. ) SOLID_ANGLE_UNIT ( ) );
#169 = DIRECTION ( 'NONE',  ( 0.000000000000000000, 0.000000000000000000, -1.000000000000000000 ) ) ;
#170 = ORIENTED_EDGE ( 'NONE', *, *, #339, .T. ) ;
#171 = APPLICATION_CONTEXT ( 'automotive_design' ) ;
#172 = PRESENTATION_STYLE_ASSIGNMENT (( #236 ) ) ;
#173 = APPLICATION_PROTOCOL_DEFINITION ( 'draft international standard', 'automotive_design', 1998, #171 ) ;
#174 = PRESENTATION_LAYER_ASSIGNMENT (  '', '', ( #2 ) ) ;
#175 = DIRECTION ( 'NONE',  ( 0.000000000000000000, 0.000000000000000000, -1.000000000000000000 ) ) ;
#176 = PRESENTATION_STYLE_ASSIGNMENT (( #54 ) ) ;
#177 = UNCERTAINTY_MEASURE_WITH_UNIT (LENGTH_MEASURE( 1.000000000000000082E-05 ), #130, 'distance_accuracy_value', 'NONE');
#178 = DIRECTION ( 'NONE',  ( 0.000000000000000000, 0.000000000000000000, -1.000000000000000000 ) ) ;
#179 = DIRECTION ( 'NONE',  ( 0.000000000000000000, 0.000000000000000000, 1.000000000000000000 ) ) ;
#180 = SURFACE_STYLE_USAGE ( .BOTH. , #57 ) ;
#181 = PRESENTATION_LAYER_ASSIGNMENT (  '', '', ( #72 ) ) ;
#182 = ORIENTED_EDGE ( 'NONE', *, *, #11, .F. ) ;
#183 = STYLED_ITEM ( 'NONE', ( #172 ), #200 ) ;
#184 = DIRECTION ( 'NONE',  ( -1.000000000000000000, 0.000000000000000000, 0.000000000000000000 ) ) ;
#185 = ORIENTED_EDGE ( 'NONE', *, *, #233, .F. ) ;
#186 = DIRECTION ( 'NONE',  ( -1.000000000000000000, 0.000000000000000000, 0.000000000000000000 ) ) ;
#187 = PRODUCT_DEFINITION_CONTEXT ( 'detailed design', #171, 'design' ) ;
#188 = ORIENTED_EDGE ( 'NONE', *, *, #11, .T. ) ;
#189 = TOROIDAL_SURFACE ( 'NONE', #296, 2.000000000000000000, 0.9999999999999997780 ) ;
#190 =( GEOMETRIC_REPRESENTATION_CONTEXT ( 3 ) GLOBAL_UNCERTAINTY_ASSIGNED_CONTEXT ( ( #265 ) ) GLOBAL_UNIT_ASSIGNED_CONTEXT ( ( #107, #257, #321 ) ) REPRESENTATION_CONTEXT ( 'NONE', 'WORKASPACE' ) );
#191 = EDGE_CURVE ( 'NONE', #158, #274, #110, .T. ) ;
#192 = COLOUR_RGB ( '',1.000000000000000000, 0.000000000000000000, 0.000000000000000000 ) ;
#193 = CARTESIAN_POINT ( 'NONE',  ( 3.000000000000000888, 9.000000000000001776, 3.673940397442056910E-16 ) ) ;
#194 = ORIENTED_EDGE ( 'NONE', *, *, #146, .F. ) ;
#195 =( NAMED_UNIT ( * ) SI_UNIT ( $, .STERADIAN. ) SOLID_ANGLE_UNIT ( ) );
#196 = DIRECTION ( 'NONE',  ( 0.000000000000000000, 0.000000000000000000, -1.000000000000000000 ) ) ;
#197 = AXIS2_PLACEMENT_3D ( 'NONE', #226, #286, #16 ) ;
#198 =( GEOMETRIC_REPRESENTATION_CONTEXT ( 3 ) GLOBAL_UNCERTAINTY_ASSIGNED_CONTEXT ( ( #28 ) ) GLOBAL_UNIT_ASSIGNED_CONTEXT ( ( #281, #114, #295 ) ) REPRESENTATION_CONTEXT ( 'NONE', 'WORKASPACE' ) );
#199 = DIRECTION ( 'NONE',  ( -0.000000000000000000, -1.000000000000000000, -0.000000000000000000 ) ) ;
#200 = ADVANCED_FACE ( 'NONE', ( #49 ), #43, .T. ) ;
#201 = SURFACE_STYLE_FILL_AREA ( #111 ) ;
#202 = CARTESIAN_POINT ( 'NONE',  ( 0.000000000000000000, 9.000000000000000000, 0.000000000000000000 ) ) ;
#203 =( LENGTH_UNIT ( ) NAMED_UNIT ( * ) SI_UNIT ( .MILLI., .METRE. ) );
#204 =( NAMED_UNIT ( * ) SI_UNIT ( $, .STERADIAN. ) SOLID_ANGLE_UNIT ( ) );
#205 = CIRCLE ( 'NONE', #253, 3.000000000000000000 ) ;
#206 = AXIS2_PLACEMENT_3D ( 'NONE', #22, #56, #169 ) ;
#207 = ORIENTED_EDGE ( 'NONE', *, *, #163, .F. ) ;
#208 = CARTESIAN_POINT ( 'NONE',  ( 0.000000000000000000, 9.000000000000000000, 0.000000000000000000 ) ) ;
#209 =( NAMED_UNIT ( * ) PLANE_ANGLE_UNIT ( ) SI_UNIT ( $, .RADIAN. ) );
#210 = DIRECTION ( 'NONE',  ( 1.213614799521464586E-16, -1.000000000000000000, 0.000000000000000000 ) ) ;
#211 = EDGE_LOOP ( 'NONE', ( #258, #280, #194, #29 ) ) ;
#212 = MECHANICAL_DESIGN_GEOMETRIC_PRESENTATION_REPRESENTATION (  '', ( #15 ), #244 ) ;
#213 =( LENGTH_UNIT ( ) NAMED_UNIT ( * ) SI_UNIT ( .MILLI., .METRE. ) );
#214 = ORIENTED_EDGE ( 'NONE', *, *, #322, .F. ) ;
#215 =( NAMED_UNIT ( * ) PLANE_ANGLE_UNIT ( ) SI_UNIT ( $, .RADIAN. ) );
#216 = ORIENTED_EDGE ( 'NONE', *, *, #336, .T. ) ;
#217 = PRODUCT_RELATED_PRODUCT_CATEGORY ( 'part', '', ( #59 ) ) ;
#218 = CARTESIAN_POINT ( 'NONE',  ( 1.469576158976823750E-15, 63.00000000000000000, 0.000000000000000000 ) ) ;
#219 = COLOUR_RGB ( '',1.000000000000000000, 0.000000000000000000, 0.000000000000000000 ) ;
#220 = PRESENTATION_LAYER_ASSIGNMENT (  '', '', ( #183 ) ) ;
#221 = ADVANCED_FACE ( 'NONE', ( #261 ), #231, .T. ) ;
#222 =( NAMED_UNIT ( * ) SI_UNIT ( $, .STERADIAN. ) SOLID_ANGLE_UNIT ( ) );
#223 = CARTESIAN_POINT ( 'NONE',  ( 3.061616997868383141E-16, 0.000000000000000000, 2.000000000000000000 ) ) ;
#224 = AXIS2_PLACEMENT_3D ( 'NONE', #6, #118, #184 ) ;
#225 = CARTESIAN_POINT ( 'NONE',  ( 0.000000000000000000, 1.000000000000000000, -3.000000000000000000 ) ) ;
#226 = CARTESIAN_POINT ( 'NONE',  ( 0.000000000000000000, 0.000000000000000000, 0.000000000000000000 ) ) ;
#227 = MECHANICAL_DESIGN_GEOMETRIC_PRESENTATION_REPRESENTATION (  '', ( #367 ), #325 ) ;
#228 = DIRECTION ( 'NONE',  ( -0.000000000000000000, -1.000000000000000000, -0.000000000000000000 ) ) ;
#229 = UNCERTAINTY_MEASURE_WITH_UNIT (LENGTH_MEASURE( 1.000000000000000082E-05 ), #337, 'distance_accuracy_value', 'NONE');
#230 = DIRECTION ( 'NONE',  ( 0.000000000000000000, -1.000000000000000000, -0.000000000000000000 ) ) ;
#231 = CYLINDRICAL_SURFACE ( 'NONE', #47, 2.999999999999995559 ) ;
#232 = FILL_AREA_STYLE ('',( #113 ) ) ;
#233 = EDGE_CURVE ( 'NONE', #38, #63, #266, .T. ) ;
#234 =( NAMED_UNIT ( * ) SI_UNIT ( $, .STERADIAN. ) SOLID_ANGLE_UNIT ( ) );
#235 = CIRCLE ( 'NONE', #66, 3.000000000000000000 ) ;
#236 = SURFACE_STYLE_USAGE ( .BOTH. , #48 ) ;
#237 = PRESENTATION_LAYER_ASSIGNMENT (  '', '', ( #15 ) ) ;
#238 = SURFACE_STYLE_USAGE ( .BOTH. , #246 ) ;
#239 = EDGE_CURVE ( 'NONE', #272, #355, #291, .T. ) ;
#240 =( NAMED_UNIT ( * ) PLANE_ANGLE_UNIT ( ) SI_UNIT ( $, .RADIAN. ) );
#241 = CARTESIAN_POINT ( 'NONE',  ( 3.000000000000000444, 63.00000000000000000, 3.673940397442056910E-16 ) ) ;
#242 = AXIS2_PLACEMENT_3D ( 'NONE', #102, #45, #100 ) ;
#243 = ORIENTED_EDGE ( 'NONE', *, *, #70, .T. ) ;
#244 =( GEOMETRIC_REPRESENTATION_CONTEXT ( 3 ) GLOBAL_UNCERTAINTY_ASSIGNED_CONTEXT ( ( #262 ) ) GLOBAL_UNIT_ASSIGNED_CONTEXT ( ( #144, #240, #9 ) ) REPRESENTATION_CONTEXT ( 'NONE', 'WORKASPACE' ) );
#245 = ORIENTED_EDGE ( 'NONE', *, *, #70, .F. ) ;
#246 = SURFACE_SIDE_STYLE ('',( #67 ) ) ;
#247 = EDGE_CURVE ( 'NONE', #274, #158, #25, .T. ) ;
#248 = STYLED_ITEM ( 'NONE', ( #42 ), #162 ) ;
#249 = LINE ( 'NONE', #364, #14 ) ;
#250 = DIRECTION ( 'NONE',  ( 0.000000000000000000, 0.000000000000000000, -1.000000000000000000 ) ) ;
#251 = ADVANCED_FACE ( 'NONE', ( #263 ), #370, .T. ) ;
#252 = CARTESIAN_POINT ( 'NONE',  ( 0.000000000000000000, 9.000000000000000000, -3.000000000000000000 ) ) ;
#253 = AXIS2_PLACEMENT_3D ( 'NONE', #363, #74, #161 ) ;
#254 = CARTESIAN_POINT ( 'NONE',  ( 0.000000000000000000, 0.000000000000000000, -2.000000000000000000 ) ) ;
#255 = CARTESIAN_POINT ( 'NONE',  ( 0.000000000000000000, 1.000000000000000000, 0.000000000000000000 ) ) ;
#256 = CYLINDRICAL_SURFACE ( 'NONE', #345, 3.000000000000000000 ) ;
#257 =( NAMED_UNIT ( * ) PLANE_ANGLE_UNIT ( ) SI_UNIT ( $, .RADIAN. ) );
#258 = ORIENTED_EDGE ( 'NONE', *, *, #191, .T. ) ;
#259 = AXIS2_PLACEMENT_3D ( 'NONE', #365, #314, #178 ) ;
#260 = MECHANICAL_DESIGN_GEOMETRIC_PRESENTATION_REPRESENTATION (  '', ( #75 ), #17 ) ;
#261 = FACE_OUTER_BOUND ( 'NONE', #147, .T. ) ;
#262 = UNCERTAINTY_MEASURE_WITH_UNIT (LENGTH_MEASURE( 1.000000000000000082E-05 ), #144, 'distance_accuracy_value', 'NONE');
#263 = FACE_OUTER_BOUND ( 'NONE', #307, .T. ) ;
#264 = ADVANCED_FACE ( 'NONE', ( #151 ), #62, .F. ) ;
#265 = UNCERTAINTY_MEASURE_WITH_UNIT (LENGTH_MEASURE( 1.000000000000000082E-05 ), #107, 'distance_accuracy_value', 'NONE');
#266 = CIRCLE ( 'NONE', #313, 2.000000000000000000 ) ;
#267 = PLANE ( 'NONE',  #133 ) ;
#268 = ORIENTED_EDGE ( 'NONE', *, *, #247, .T. ) ;
#269 = CARTESIAN_POINT ( 'NONE',  ( 8.023096076392732812E-15, 9.000000000000001776, 0.000000000000000000 ) ) ;
#270 = ORIENTED_EDGE ( 'NONE', *, *, #39, .T. ) ;
#271 = DIRECTION ( 'NONE',  ( -1.213614799521464586E-16, 1.000000000000000000, 0.000000000000000000 ) ) ;
#272 = VERTEX_POINT ( 'NONE', #193 ) ;
#273 =( GEOMETRIC_REPRESENTATION_CONTEXT ( 3 ) GLOBAL_UNCERTAINTY_ASSIGNED_CONTEXT ( ( #177 ) ) GLOBAL_UNIT_ASSIGNED_CONTEXT ( ( #130, #311, #222 ) ) REPRESENTATION_CONTEXT ( 'NONE', 'WORKASPACE' ) );
#274 = VERTEX_POINT ( 'NONE', #352 ) ;
#275 = PRESENTATION_LAYER_ASSIGNMENT (  '', '', ( #309 ) ) ;
#276 = PRESENTATION_LAYER_ASSIGNMENT (  '', '', ( #75 ) ) ;
#277 = ADVANCED_FACE ( 'NONE', ( #351 ), #357, .F. ) ;
#278 = FACE_OUTER_BOUND ( 'NONE', #360, .T. ) ;
#279 = CARTESIAN_POINT ( 'NONE',  ( 0.000000000000000000, 0.000000000000000000, 0.000000000000000000 ) ) ;
#280 = ORIENTED_EDGE ( 'NONE', *, *, #163, .T. ) ;
#281 =( LENGTH_UNIT ( ) NAMED_UNIT ( * ) SI_UNIT ( .MILLI., .METRE. ) );
#282 = PRODUCT_DEFINITION ( 'UNKNOWN', '', #149, #187 ) ;
#283 = FILL_AREA_STYLE_COLOUR ( '', #73 ) ;
#284 = SURFACE_STYLE_USAGE ( .BOTH. , #18 ) ;
#285 = APPLICATION_CONTEXT ( 'automotive_design' ) ;
#286 = DIRECTION ( 'NONE',  ( -0.000000000000000000, -1.000000000000000000, -0.000000000000000000 ) ) ;
#287 = CARTESIAN_POINT ( 'NONE',  ( 1.469576158976823750E-15, 63.00000000000000000, 0.000000000000000000 ) ) ;
#288 = SHAPE_DEFINITION_REPRESENTATION ( #127, #106 ) ;
#289 = MECHANICAL_DESIGN_GEOMETRIC_PRESENTATION_REPRESENTATION (  '', ( #72 ), #273 ) ;
#290 = AXIS2_PLACEMENT_3D ( 'NONE', #326, #93, #3 ) ;
#291 = LINE ( 'NONE', #346, #148 ) ;
#292 = UNCERTAINTY_MEASURE_WITH_UNIT (LENGTH_MEASURE( 1.000000000000000082E-05 ), #97, 'distance_accuracy_value', 'NONE');
#293 = MANIFOLD_SOLID_BREP ( 'Revolve - Tool Body (Straight Shanked)', #108 ) ;
#294 = CARTESIAN_POINT ( 'NONE',  ( 0.000000000000000000, 0.000000000000000000, 0.000000000000000000 ) ) ;
#295 =( NAMED_UNIT ( * ) SI_UNIT ( $, .STERADIAN. ) SOLID_ANGLE_UNIT ( ) );
#296 = AXIS2_PLACEMENT_3D ( 'NONE', #20, #199, #71 ) ;
#297 = DIRECTION ( 'NONE',  ( -1.213614799521464586E-16, 1.000000000000000000, -0.000000000000000000 ) ) ;
#298 = ORIENTED_EDGE ( 'NONE', *, *, #136, .F. ) ;
#299 = PRESENTATION_STYLE_ASSIGNMENT (( #238 ) ) ;
#300 = ORIENTED_EDGE ( 'NONE', *, *, #65, .T. ) ;
#301 = CARTESIAN_POINT ( 'NONE',  ( 3.000000000000000000, 63.00000000000000000, 0.000000000000000000 ) ) ;
#302 = CARTESIAN_POINT ( 'NONE',  ( 0.000000000000000000, 1.000000000000000000, -2.000000000000000000 ) ) ;
#303 = FILL_AREA_STYLE_COLOUR ( '', #92 ) ;
#304 =( GEOMETRIC_REPRESENTATION_CONTEXT ( 3 ) GLOBAL_UNCERTAINTY_ASSIGNED_CONTEXT ( ( #292 ) ) GLOBAL_UNIT_ASSIGNED_CONTEXT ( ( #97, #209, #168 ) ) REPRESENTATION_CONTEXT ( 'NONE', 'WORKASPACE' ) );
#305 = ORIENTED_EDGE ( 'NONE', *, *, #146, .T. ) ;
#306 = FACE_OUTER_BOUND ( 'NONE', #10, .T. ) ;
#307 = EDGE_LOOP ( 'NONE', ( #152, #27 ) ) ;
#308 = FILL_AREA_STYLE ('',( #101 ) ) ;
#309 = STYLED_ITEM ( 'NONE', ( #156 ), #361 ) ;
#310 = DIRECTION ( 'NONE',  ( -0.000000000000000000, -1.000000000000000000, -0.000000000000000000 ) ) ;
#311 =( NAMED_UNIT ( * ) PLANE_ANGLE_UNIT ( ) SI_UNIT ( $, .RADIAN. ) );
#312 = DIRECTION ( 'NONE',  ( -1.213614799521464586E-16, 1.000000000000000000, -0.000000000000000000 ) ) ;
#313 = AXIS2_PLACEMENT_3D ( 'NONE', #112, #228, #175 ) ;
#314 = DIRECTION ( 'NONE',  ( -0.000000000000000000, -1.000000000000000000, -0.000000000000000000 ) ) ;
#315 = SURFACE_STYLE_USAGE ( .BOTH. , #52 ) ;
#316 =( NAMED_UNIT ( * ) PLANE_ANGLE_UNIT ( ) SI_UNIT ( $, .RADIAN. ) );
#317 = AXIS2_PLACEMENT_3D ( 'NONE', #123, #271, #94 ) ;
#318 = SURFACE_SIDE_STYLE ('',( #85 ) ) ;
#319 = DIRECTION ( 'NONE',  ( 0.000000000000000000, 0.000000000000000000, -1.000000000000000000 ) ) ;
#320 = ORIENTED_EDGE ( 'NONE', *, *, #50, .F. ) ;
#321 =( NAMED_UNIT ( * ) SI_UNIT ( $, .STERADIAN. ) SOLID_ANGLE_UNIT ( ) );
#322 = EDGE_CURVE ( 'NONE', #355, #369, #159, .T. ) ;
#323 = FILL_AREA_STYLE ('',( #303 ) ) ;
#324 = EDGE_LOOP ( 'NONE', ( #243, #84 ) ) ;
#325 =( GEOMETRIC_REPRESENTATION_CONTEXT ( 3 ) GLOBAL_UNCERTAINTY_ASSIGNED_CONTEXT ( ( #350 ) ) GLOBAL_UNIT_ASSIGNED_CONTEXT ( ( #213, #215, #96 ) ) REPRESENTATION_CONTEXT ( 'NONE', 'WORKASPACE' ) );
#326 = CARTESIAN_POINT ( 'NONE',  ( 8.023096076392732812E-15, 9.000000000000001776, 0.000000000000000000 ) ) ;
#327 = EDGE_LOOP ( 'NONE', ( #334, #34 ) ) ;
#328 = DIRECTION ( 'NONE',  ( 1.000000000000000000, 1.213614799521464586E-16, 0.000000000000000000 ) ) ;
#329 = ORIENTED_EDGE ( 'NONE', *, *, #21, .F. ) ;
#330 = UNCERTAINTY_MEASURE_WITH_UNIT (LENGTH_MEASURE( 1.000000000000000082E-05 ), #203, 'distance_accuracy_value', 'NONE');
#331 = SURFACE_STYLE_FILL_AREA ( #125 ) ;
#332 = CIRCLE ( 'NONE', #358, 0.9999999999999997780 ) ;
#333 = DIRECTION ( 'NONE',  ( -1.000000000000000000, 0.000000000000000000, 0.000000000000000000 ) ) ;
#334 = ORIENTED_EDGE ( 'NONE', *, *, #339, .F. ) ;
#335 = MECHANICAL_DESIGN_GEOMETRIC_PRESENTATION_REPRESENTATION (  '', ( #248 ), #198 ) ;
#336 = EDGE_CURVE ( 'NONE', #272, #139, #354, .T. ) ;
#337 =( LENGTH_UNIT ( ) NAMED_UNIT ( * ) SI_UNIT ( .MILLI., .METRE. ) );
#338 = FILL_AREA_STYLE ('',( #283 ) ) ;
#339 = EDGE_CURVE ( 'NONE', #139, #272, #8, .T. ) ;
#340 = FACE_OUTER_BOUND ( 'NONE', #7, .T. ) ;
#341 = MECHANICAL_DESIGN_GEOMETRIC_PRESENTATION_REPRESENTATION (  '', ( #183 ), #190 ) ;
#342 = FACE_OUTER_BOUND ( 'NONE', #211, .T. ) ;
#343 = CIRCLE ( 'NONE', #197, 2.000000000000000000 ) ;
#344 = PRESENTATION_LAYER_ASSIGNMENT (  '', '', ( #367 ) ) ;
#345 = AXIS2_PLACEMENT_3D ( 'NONE', #294, #138, #137 ) ;
#346 = CARTESIAN_POINT ( 'NONE',  ( 2.999999999999996891, 63.00000000000000000, 3.673940397442054445E-16 ) ) ;
#347 = ADVANCED_FACE ( 'NONE', ( #306 ), #60, .T. ) ;
#348 = PRESENTATION_STYLE_ASSIGNMENT (( #315 ) ) ;
#349 = LINE ( 'NONE', #87, #120 ) ;
#350 = UNCERTAINTY_MEASURE_WITH_UNIT (LENGTH_MEASURE( 1.000000000000000082E-05 ), #213, 'distance_accuracy_value', 'NONE');
#351 = FACE_OUTER_BOUND ( 'NONE', #324, .T. ) ;
#352 = CARTESIAN_POINT ( 'NONE',  ( 3.673940397442059868E-16, 9.000000000000000000, 3.000000000000000000 ) ) ;
#353 = ORIENTED_EDGE ( 'NONE', *, *, #136, .T. ) ;
#354 = CIRCLE ( 'NONE', #155, 2.999999999999992450 ) ;
#355 = VERTEX_POINT ( 'NONE', #241 ) ;
#356 = DIRECTION ( 'NONE',  ( 0.000000000000000000, 0.000000000000000000, 1.000000000000000000 ) ) ;
#357 = PLANE ( 'NONE',  #79 ) ;
#358 = AXIS2_PLACEMENT_3D ( 'NONE', #302, #186, #356 ) ;
#359 = AXIS2_PLACEMENT_3D ( 'NONE', #202, #82, #143 ) ;
#360 = EDGE_LOOP ( 'NONE', ( #329, #353, #188, #185 ) ) ;
#361 = ADVANCED_FACE ( 'NONE', ( #40 ), #267, .T. ) ;
#362 = ADVANCED_FACE ( 'NONE', ( #342 ), #256, .T. ) ;
#363 = CARTESIAN_POINT ( 'NONE',  ( 0.000000000000000000, 1.000000000000000000, 0.000000000000000000 ) ) ;
#364 = CARTESIAN_POINT ( 'NONE',  ( -2.999999999999994227, 63.00000000000000000, 0.000000000000000000 ) ) ;
#365 = CARTESIAN_POINT ( 'NONE',  ( 0.000000000000000000, 9.000000000000000000, 0.000000000000000000 ) ) ;
#366 = DIRECTION ( 'NONE',  ( -1.000000000000000000, 0.000000000000000000, 0.000000000000000000 ) ) ;
#367 = STYLED_ITEM ( 'NONE', ( #299 ), #293 ) ;
#368 = CARTESIAN_POINT ( 'NONE',  ( 0.000000000000000000, 0.000000000000000000, 0.000000000000000000 ) ) ;
#369 = VERTEX_POINT ( 'NONE', #81 ) ;
#370 = PLANE ( 'NONE',  #30 ) ;
ENDSEC;
END-ISO-10303-21;
