ISO-10303-21;
HEADER;
FILE_DESCRIPTION (( 'STEP AP214' ),
    '1' );
FILE_NAME ('26272.STEP',
    '2023-06-22T17:35:12',
    ( '' ),
    ( '' ),
    'SwSTEP 2.0',
    'SolidWorks 2023',
    '' );
FILE_SCHEMA (( 'AUTOMOTIVE_DESIGN' ));
ENDSEC;

DATA;
#1 = DIRECTION ( 'NONE',  ( -1.000000000000000000, 0.000000000000000000, 0.000000000000000000 ) ) ;
#2 =( CONVERSION_BASED_UNIT ( 'INCH', #246 ) LENGTH_UNIT ( ) NAMED_UNIT ( #91 ) );
#3 = VERTEX_POINT ( 'NONE', #226 ) ;
#4 = EDGE_LOOP ( 'NONE', ( #277, #291, #179, #12 ) ) ;
#5 =( NAMED_UNIT ( * ) SI_UNIT ( $, .STERADIAN. ) SOLID_ANGLE_UNIT ( ) );
#6 = EDGE_LOOP ( 'NONE', ( #81, #257 ) ) ;
#7 = PRESENTATION_STYLE_ASSIGNMENT (( #189 ) ) ;
#8 = VERTEX_POINT ( 'NONE', #210 ) ;
#9 =( CONVERSION_BASED_UNIT ( 'INCH', #255 ) LENGTH_UNIT ( ) NAMED_UNIT ( #237 ) );
#10 = AXIS2_PLACEMENT_3D ( 'NONE', #301, #146, #264 ) ;
#11 = CIRCLE ( 'NONE', #74, 0.2500000000000000555 ) ;
#12 = ORIENTED_EDGE ( 'NONE', *, *, #47, .F. ) ;
#13 = DIRECTION ( 'NONE',  ( -0.000000000000000000, -1.000000000000000000, -0.000000000000000000 ) ) ;
#14 = DIMENSIONAL_EXPONENTS ( 1.000000000000000000, 0.000000000000000000, 0.000000000000000000, 0.000000000000000000, 0.000000000000000000, 0.000000000000000000, 0.000000000000000000 ) ;
#15 =( NAMED_UNIT ( * ) SI_UNIT ( $, .STERADIAN. ) SOLID_ANGLE_UNIT ( ) );
#16 =( LENGTH_UNIT ( ) NAMED_UNIT ( * ) SI_UNIT ( $, .METRE. ) );
#17 = ADVANCED_FACE ( 'NONE', ( #157 ), #88, .T. ) ;
#18 = CARTESIAN_POINT ( 'NONE',  ( -6.123233995736772199E-17, 3.000000000000000444, 0.000000000000000000 ) ) ;
#19 = CARTESIAN_POINT ( 'NONE',  ( 0.2500000000000000000, 3.000000000000000444, 3.061616997868383634E-17 ) ) ;
#20 = CARTESIAN_POINT ( 'NONE',  ( 0.000000000000000000, 0.000000000000000000, 0.000000000000000000 ) ) ;
#21 =( GEOMETRIC_REPRESENTATION_CONTEXT ( 3 ) GLOBAL_UNCERTAINTY_ASSIGNED_CONTEXT ( ( #119 ) ) GLOBAL_UNIT_ASSIGNED_CONTEXT ( ( #270, #236, #285 ) ) REPRESENTATION_CONTEXT ( 'NONE', 'WORKASPACE' ) );
#22 = AXIS2_PLACEMENT_3D ( 'NONE', #86, #182, #63 ) ;
#23 = DIMENSIONAL_EXPONENTS ( 1.000000000000000000, 0.000000000000000000, 0.000000000000000000, 0.000000000000000000, 0.000000000000000000, 0.000000000000000000, 0.000000000000000000 ) ;
#24 = CYLINDRICAL_SURFACE ( 'NONE', #140, 0.2500000000000000000 ) ;
#25 = APPLICATION_PROTOCOL_DEFINITION ( 'draft international standard', 'automotive_design', 1998, #144 ) ;
#26 = DIRECTION ( 'NONE',  ( -0.000000000000000000, -1.000000000000000000, -0.000000000000000000 ) ) ;
#27 = CARTESIAN_POINT ( 'NONE',  ( 0.000000000000000000, 0.000000000000000000, 0.000000000000000000 ) ) ;
#28 = ADVANCED_FACE ( 'NONE', ( #275 ), #85, .T. ) ;
#29 = CARTESIAN_POINT ( 'NONE',  ( -6.123233995736772199E-17, 3.000000000000000444, 0.000000000000000000 ) ) ;
#30 = CIRCLE ( 'NONE', #235, 0.2500000000000000555 ) ;
#31 = ADVANCED_FACE ( 'NONE', ( #238 ), #24, .T. ) ;
#32 =( NAMED_UNIT ( * ) SI_UNIT ( $, .STERADIAN. ) SOLID_ANGLE_UNIT ( ) );
#33 = ORIENTED_EDGE ( 'NONE', *, *, #72, .F. ) ;
#34 = DIRECTION ( 'NONE',  ( -3.061616997868386099E-17, 1.000000000000000000, -0.000000000000000000 ) ) ;
#35 = PRESENTATION_STYLE_ASSIGNMENT (( #204 ) ) ;
#36 = SURFACE_SIDE_STYLE ('',( #107 ) ) ;
#37 = COLOUR_RGB ( '',0.7921568627450980005, 0.8196078431372548767, 0.9333333333333333481 ) ;
#38 = ORIENTED_EDGE ( 'NONE', *, *, #108, .T. ) ;
#39 = CARTESIAN_POINT ( 'NONE',  ( 0.000000000000000000, 0.000000000000000000, -0.2500000000000000000 ) ) ;
#40 = ORIENTED_EDGE ( 'NONE', *, *, #123, .F. ) ;
#41 = ORIENTED_EDGE ( 'NONE', *, *, #171, .T. ) ;
#42 = LENGTH_MEASURE_WITH_UNIT ( LENGTH_MEASURE( 0.02539999999999999897 ), #16 );
#43 = DIMENSIONAL_EXPONENTS ( 1.000000000000000000, 0.000000000000000000, 0.000000000000000000, 0.000000000000000000, 0.000000000000000000, 0.000000000000000000, 0.000000000000000000 ) ;
#44 = CARTESIAN_POINT ( 'NONE',  ( 3.061616997868383018E-17, 0.000000000000000000, 0.2500000000000000000 ) ) ;
#45 = DIRECTION ( 'NONE',  ( 0.000000000000000000, -1.000000000000000000, -0.000000000000000000 ) ) ;
#46 = LINE ( 'NONE', #284, #228 ) ;
#47 = EDGE_CURVE ( 'NONE', #110, #8, #46, .T. ) ;
#48 = DIRECTION ( 'NONE',  ( -0.000000000000000000, -1.000000000000000000, -0.000000000000000000 ) ) ;
#49 = EDGE_CURVE ( 'NONE', #110, #3, #245, .T. ) ;
#50 = DIRECTION ( 'NONE',  ( -3.061616997868386099E-17, 1.000000000000000000, -0.000000000000000000 ) ) ;
#51 =( GEOMETRIC_REPRESENTATION_CONTEXT ( 3 ) GLOBAL_UNCERTAINTY_ASSIGNED_CONTEXT ( ( #200 ) ) GLOBAL_UNIT_ASSIGNED_CONTEXT ( ( #152, #159, #32 ) ) REPRESENTATION_CONTEXT ( 'NONE', 'WORKASPACE' ) );
#52 = PRESENTATION_STYLE_ASSIGNMENT (( #174 ) ) ;
#53 =( LENGTH_UNIT ( ) NAMED_UNIT ( * ) SI_UNIT ( $, .METRE. ) );
#54 = PLANE ( 'NONE',  #307 ) ;
#55 = EDGE_LOOP ( 'NONE', ( #234, #298, #135, #138 ) ) ;
#56 = CARTESIAN_POINT ( 'NONE',  ( -6.123233995736772199E-17, 3.000000000000000444, 0.000000000000000000 ) ) ;
#57 = ORIENTED_EDGE ( 'NONE', *, *, #136, .T. ) ;
#58 = AXIS2_PLACEMENT_3D ( 'NONE', #76, #205, #292 ) ;
#59 = PRODUCT_DEFINITION ( 'UNKNOWN', '', #177, #154 ) ;
#60 = STYLED_ITEM ( 'NONE', ( #7 ), #199 ) ;
#61 = SURFACE_SIDE_STYLE ('',( #191 ) ) ;
#62 = EDGE_LOOP ( 'NONE', ( #41, #208 ) ) ;
#63 = DIRECTION ( 'NONE',  ( 1.000000000000000000, 3.061616997868386099E-17, 0.000000000000000000 ) ) ;
#64 = FACE_OUTER_BOUND ( 'NONE', #252, .T. ) ;
#65 =( NAMED_UNIT ( * ) SI_UNIT ( $, .STERADIAN. ) SOLID_ANGLE_UNIT ( ) );
#66 = PRESENTATION_STYLE_ASSIGNMENT (( #282 ) ) ;
#67 = CYLINDRICAL_SURFACE ( 'NONE', #79, 0.2500000000000000000 ) ;
#68 = DIRECTION ( 'NONE',  ( -1.000000000000000000, 0.000000000000000000, 0.000000000000000000 ) ) ;
#69 = DIRECTION ( 'NONE',  ( -0.000000000000000000, -1.000000000000000000, -0.000000000000000000 ) ) ;
#70 = AXIS2_PLACEMENT_3D ( 'NONE', #94, #69, #170 ) ;
#71 = APPLICATION_PROTOCOL_DEFINITION ( 'draft international standard', 'automotive_design', 1998, #308 ) ;
#72 = EDGE_CURVE ( 'NONE', #109, #232, #121, .T. ) ;
#73 = COLOUR_RGB ( '',1.000000000000000000, 0.000000000000000000, 0.000000000000000000 ) ;
#74 = AXIS2_PLACEMENT_3D ( 'NONE', #56, #50, #1 ) ;
#75 = DIRECTION ( 'NONE',  ( -3.061616997868386099E-17, 1.000000000000000000, -0.000000000000000000 ) ) ;
#76 = CARTESIAN_POINT ( 'NONE',  ( 0.000000000000000000, 1.000000000000000000, 0.000000000000000000 ) ) ;
#77 =( LENGTH_UNIT ( ) NAMED_UNIT ( * ) SI_UNIT ( $, .METRE. ) );
#78 = PRESENTATION_LAYER_ASSIGNMENT (  '', '', ( #113 ) ) ;
#79 = AXIS2_PLACEMENT_3D ( 'NONE', #207, #13, #84 ) ;
#80 =( NAMED_UNIT ( * ) SI_UNIT ( $, .STERADIAN. ) SOLID_ANGLE_UNIT ( ) );
#81 = ORIENTED_EDGE ( 'NONE', *, *, #136, .F. ) ;
#82 = FILL_AREA_STYLE ('',( #227 ) ) ;
#83 = ORIENTED_EDGE ( 'NONE', *, *, #49, .F. ) ;
#84 = DIRECTION ( 'NONE',  ( 0.000000000000000000, 0.000000000000000000, -1.000000000000000000 ) ) ;
#85 = CYLINDRICAL_SURFACE ( 'NONE', #70, 0.2500000000000000000 ) ;
#86 = CARTESIAN_POINT ( 'NONE',  ( 0.2499999999999999722, 3.000000000000000444, 0.000000000000000000 ) ) ;
#87 = STYLED_ITEM ( 'NONE', ( #286 ), #89 ) ;
#88 = CYLINDRICAL_SURFACE ( 'NONE', #165, 0.2500000000000000000 ) ;
#89 = ADVANCED_FACE ( 'NONE', ( #64 ), #117, .T. ) ;
#90 = EDGE_LOOP ( 'NONE', ( #40, #38, #133, #162 ) ) ;
#91 = DIMENSIONAL_EXPONENTS ( 1.000000000000000000, 0.000000000000000000, 0.000000000000000000, 0.000000000000000000, 0.000000000000000000, 0.000000000000000000, 0.000000000000000000 ) ;
#92 = AXIS2_PLACEMENT_3D ( 'NONE', #20, #280, #192 ) ;
#93 = SURFACE_SIDE_STYLE ('',( #261 ) ) ;
#94 = CARTESIAN_POINT ( 'NONE',  ( 0.000000000000000000, 0.000000000000000000, 0.000000000000000000 ) ) ;
#95 =( LENGTH_UNIT ( ) NAMED_UNIT ( * ) SI_UNIT ( $, .METRE. ) );
#96 = MECHANICAL_DESIGN_GEOMETRIC_PRESENTATION_REPRESENTATION (  '', ( #197 ), #169 ) ;
#97 =( GEOMETRIC_REPRESENTATION_CONTEXT ( 3 ) GLOBAL_UNCERTAINTY_ASSIGNED_CONTEXT ( ( #147 ) ) GLOBAL_UNIT_ASSIGNED_CONTEXT ( ( #296, #187, #5 ) ) REPRESENTATION_CONTEXT ( 'NONE', 'WORKASPACE' ) );
#98 = DIRECTION ( 'NONE',  ( 0.000000000000000000, 0.000000000000000000, -1.000000000000000000 ) ) ;
#99 = MANIFOLD_SOLID_BREP ( 'Revolve - Cutting Edge', #130 ) ;
#100 = CARTESIAN_POINT ( 'NONE',  ( 0.000000000000000000, 0.000000000000000000, 0.000000000000000000 ) ) ;
#101 = CIRCLE ( 'NONE', #271, 0.2499999999999999722 ) ;
#102 = FACE_OUTER_BOUND ( 'NONE', #62, .T. ) ;
#103 =( NAMED_UNIT ( * ) PLANE_ANGLE_UNIT ( ) SI_UNIT ( $, .RADIAN. ) );
#104 = FILL_AREA_STYLE_COLOUR ( '', #302 ) ;
#105 = MECHANICAL_DESIGN_GEOMETRIC_PRESENTATION_REPRESENTATION (  '', ( #274 ), #289 ) ;
#106 = MECHANICAL_DESIGN_GEOMETRIC_PRESENTATION_REPRESENTATION (  '', ( #131 ), #97 ) ;
#107 = SURFACE_STYLE_FILL_AREA ( #82 ) ;
#108 = EDGE_CURVE ( 'NONE', #3, #110, #125, .T. ) ;
#109 = VERTEX_POINT ( 'NONE', #127 ) ;
#110 = VERTEX_POINT ( 'NONE', #180 ) ;
#111 = VERTEX_POINT ( 'NONE', #201 ) ;
#112 = ADVANCED_FACE ( 'NONE', ( #250 ), #54, .T. ) ;
#113 = STYLED_ITEM ( 'NONE', ( #66 ), #99 ) ;
#114 = ORIENTED_EDGE ( 'NONE', *, *, #72, .T. ) ;
#115 =( NAMED_UNIT ( * ) PLANE_ANGLE_UNIT ( ) SI_UNIT ( $, .RADIAN. ) );
#116 = VECTOR ( 'NONE', #48, 39.37007874015748143 ) ;
#117 = PLANE ( 'NONE',  #268 ) ;
#118 =( NAMED_UNIT ( * ) SI_UNIT ( $, .STERADIAN. ) SOLID_ANGLE_UNIT ( ) );
#119 = UNCERTAINTY_MEASURE_WITH_UNIT (LENGTH_MEASURE( 1.000000000000000082E-05 ), #270, 'distance_accuracy_value', 'NONE');
#120 = LENGTH_MEASURE_WITH_UNIT ( LENGTH_MEASURE( 0.02539999999999999897 ), #95 );
#121 = CIRCLE ( 'NONE', #92, 0.2500000000000000000 ) ;
#122 = CARTESIAN_POINT ( 'NONE',  ( 7.582401355855259480E-33, 1.000000000000000000, 0.000000000000000000 ) ) ;
#123 = EDGE_CURVE ( 'NONE', #3, #276, #229, .T. ) ;
#124 = DIRECTION ( 'NONE',  ( -3.061616997868386099E-17, 1.000000000000000000, -0.000000000000000000 ) ) ;
#125 = CIRCLE ( 'NONE', #214, 0.2499999999999999722 ) ;
#126 = AXIS2_PLACEMENT_3D ( 'NONE', #242, #217, #305 ) ;
#127 = CARTESIAN_POINT ( 'NONE',  ( 0.000000000000000000, 0.000000000000000000, -0.2500000000000000000 ) ) ;
#128 = DIRECTION ( 'NONE',  ( 0.000000000000000000, -0.000000000000000000, 1.000000000000000000 ) ) ;
#129 = EDGE_CURVE ( 'NONE', #297, #111, #203, .T. ) ;
#130 = CLOSED_SHELL ( 'NONE', ( #202, #112, #28, #89 ) ) ;
#131 = STYLED_ITEM ( 'NONE', ( #142 ), #202 ) ;
#132 =( LENGTH_UNIT ( ) NAMED_UNIT ( * ) SI_UNIT ( $, .METRE. ) );
#133 = ORIENTED_EDGE ( 'NONE', *, *, #47, .T. ) ;
#134 = DIRECTION ( 'NONE',  ( -0.000000000000000000, -1.000000000000000000, -0.000000000000000000 ) ) ;
#135 = ORIENTED_EDGE ( 'NONE', *, *, #223, .T. ) ;
#136 = EDGE_CURVE ( 'NONE', #111, #297, #101, .T. ) ;
#137 = SURFACE_STYLE_USAGE ( .BOTH. , #143 ) ;
#138 = ORIENTED_EDGE ( 'NONE', *, *, #258, .F. ) ;
#139 = SURFACE_STYLE_FILL_AREA ( #233 ) ;
#140 = AXIS2_PLACEMENT_3D ( 'NONE', #18, #266, #68 ) ;
#141 = LENGTH_MEASURE_WITH_UNIT ( LENGTH_MEASURE( 0.02539999999999999897 ), #190 );
#142 = PRESENTATION_STYLE_ASSIGNMENT (( #137 ) ) ;
#143 = SURFACE_SIDE_STYLE ('',( #139 ) ) ;
#144 = APPLICATION_CONTEXT ( 'automotive_design' ) ;
#145 = PRESENTATION_LAYER_ASSIGNMENT (  '', '', ( #87 ) ) ;
#146 = DIRECTION ( 'NONE',  ( -3.061616997868386099E-17, 1.000000000000000000, -0.000000000000000000 ) ) ;
#147 = UNCERTAINTY_MEASURE_WITH_UNIT (LENGTH_MEASURE( 1.000000000000000082E-05 ), #296, 'distance_accuracy_value', 'NONE');
#148 = COLOUR_RGB ( '',0.7921568627450980005, 0.8196078431372548767, 0.9333333333333333481 ) ;
#149 =( NAMED_UNIT ( * ) PLANE_ANGLE_UNIT ( ) SI_UNIT ( $, .RADIAN. ) );
#150 = PRODUCT_RELATED_PRODUCT_CATEGORY ( 'part', '', ( #220 ) ) ;
#151 = DIRECTION ( 'NONE',  ( -1.000000000000000000, 0.000000000000000000, 0.000000000000000000 ) ) ;
#152 =( CONVERSION_BASED_UNIT ( 'INCH', #224 ) LENGTH_UNIT ( ) NAMED_UNIT ( #306 ) );
#153 = MECHANICAL_DESIGN_GEOMETRIC_PRESENTATION_REPRESENTATION (  '', ( #87 ), #21 ) ;
#154 = PRODUCT_DEFINITION_CONTEXT ( 'detailed design', #144, 'design' ) ;
#155 = FILL_AREA_STYLE ('',( #104 ) ) ;
#156 = CARTESIAN_POINT ( 'NONE',  ( 0.000000000000000000, 1.000000000000000000, 0.000000000000000000 ) ) ;
#157 = FACE_OUTER_BOUND ( 'NONE', #90, .T. ) ;
#158 = UNCERTAINTY_MEASURE_WITH_UNIT (LENGTH_MEASURE( 1.000000000000000082E-05 ), #9, 'distance_accuracy_value', 'NONE');
#159 =( NAMED_UNIT ( * ) PLANE_ANGLE_UNIT ( ) SI_UNIT ( $, .RADIAN. ) );
#160 = COLOUR_RGB ( '',1.000000000000000000, 0.000000000000000000, 0.000000000000000000 ) ;
#161 = FILL_AREA_STYLE ('',( #263 ) ) ;
#162 = ORIENTED_EDGE ( 'NONE', *, *, #167, .F. ) ;
#163 = CARTESIAN_POINT ( 'NONE',  ( 3.061616997868383018E-17, 0.000000000000000000, 0.2500000000000000000 ) ) ;
#164 = FILL_AREA_STYLE ('',( #309 ) ) ;
#165 = AXIS2_PLACEMENT_3D ( 'NONE', #249, #293, #295 ) ;
#166 = FACE_OUTER_BOUND ( 'NONE', #211, .T. ) ;
#167 = EDGE_CURVE ( 'NONE', #276, #8, #11, .T. ) ;
#168 = SHAPE_DEFINITION_REPRESENTATION ( #260, #216 ) ;
#169 =( GEOMETRIC_REPRESENTATION_CONTEXT ( 3 ) GLOBAL_UNCERTAINTY_ASSIGNED_CONTEXT ( ( #225 ) ) GLOBAL_UNIT_ASSIGNED_CONTEXT ( ( #2, #103, #80 ) ) REPRESENTATION_CONTEXT ( 'NONE', 'WORKASPACE' ) );
#170 = DIRECTION ( 'NONE',  ( 0.000000000000000000, 0.000000000000000000, -1.000000000000000000 ) ) ;
#171 = EDGE_CURVE ( 'NONE', #8, #276, #30, .T. ) ;
#172 = UNCERTAINTY_MEASURE_WITH_UNIT (LENGTH_MEASURE( 1.000000000000000082E-05 ), #188, 'distance_accuracy_value', 'NONE');
#173 = PRESENTATION_LAYER_ASSIGNMENT (  '', '', ( #60 ) ) ;
#174 = SURFACE_STYLE_USAGE ( .BOTH. , #36 ) ;
#175 = ADVANCED_FACE ( 'NONE', ( #102 ), #281, .F. ) ;
#176 = VECTOR ( 'NONE', #34, 39.37007874015748143 ) ;
#177 = PRODUCT_DEFINITION_FORMATION_WITH_SPECIFIED_SOURCE ( 'ANY', '', #220, .NOT_KNOWN. ) ;
#178 = UNCERTAINTY_MEASURE_WITH_UNIT (LENGTH_MEASURE( 1.000000000000000082E-05 ), #243, 'distance_accuracy_value', 'NONE');
#179 = ORIENTED_EDGE ( 'NONE', *, *, #171, .F. ) ;
#180 = CARTESIAN_POINT ( 'NONE',  ( -0.2499999999999999722, 1.000000000000000000, 0.000000000000000000 ) ) ;
#181 = ADVANCED_FACE ( 'NONE', ( #265 ), #299, .F. ) ;
#182 = DIRECTION ( 'NONE',  ( 3.061616997868386099E-17, -1.000000000000000000, 0.000000000000000000 ) ) ;
#183 = SURFACE_STYLE_FILL_AREA ( #155 ) ;
#184 = VECTOR ( 'NONE', #134, 39.37007874015748143 ) ;
#185 = DIRECTION ( 'NONE',  ( -3.061616997868386099E-17, 1.000000000000000000, 0.000000000000000000 ) ) ;
#186 = SURFACE_SIDE_STYLE ('',( #183 ) ) ;
#187 =( NAMED_UNIT ( * ) PLANE_ANGLE_UNIT ( ) SI_UNIT ( $, .RADIAN. ) );
#188 =( CONVERSION_BASED_UNIT ( 'INCH', #194 ) LENGTH_UNIT ( ) NAMED_UNIT ( #23 ) );
#189 = SURFACE_STYLE_USAGE ( .BOTH. , #61 ) ;
#190 =( LENGTH_UNIT ( ) NAMED_UNIT ( * ) SI_UNIT ( $, .METRE. ) );
#191 = SURFACE_STYLE_FILL_AREA ( #161 ) ;
#192 = DIRECTION ( 'NONE',  ( 0.000000000000000000, 0.000000000000000000, -1.000000000000000000 ) ) ;
#193 = DIRECTION ( 'NONE',  ( 0.000000000000000000, 0.000000000000000000, -1.000000000000000000 ) ) ;
#194 = LENGTH_MEASURE_WITH_UNIT ( LENGTH_MEASURE( 0.02539999999999999897 ), #53 );
#195 = AXIS2_PLACEMENT_3D ( 'NONE', #212, #185, #294 ) ;
#196 = CARTESIAN_POINT ( 'NONE',  ( 3.061616997868382402E-17, 1.000000000000000000, 0.2499999999999999722 ) ) ;
#197 = STYLED_ITEM ( 'NONE', ( #52 ), #112 ) ;
#198 = CIRCLE ( 'NONE', #283, 0.2500000000000000000 ) ;
#199 = MANIFOLD_SOLID_BREP ( 'Revolve - Tool Body (Straight Shanked)', #222 ) ;
#200 = UNCERTAINTY_MEASURE_WITH_UNIT (LENGTH_MEASURE( 1.000000000000000082E-05 ), #152, 'distance_accuracy_value', 'NONE');
#201 = CARTESIAN_POINT ( 'NONE',  ( 0.000000000000000000, 1.000000000000000000, -0.2499999999999999722 ) ) ;
#202 = ADVANCED_FACE ( 'NONE', ( #166 ), #67, .T. ) ;
#203 = CIRCLE ( 'NONE', #58, 0.2499999999999999722 ) ;
#204 = SURFACE_STYLE_USAGE ( .BOTH. , #186 ) ;
#205 = DIRECTION ( 'NONE',  ( -0.000000000000000000, -1.000000000000000000, -0.000000000000000000 ) ) ;
#206 = ORIENTED_EDGE ( 'NONE', *, *, #258, .T. ) ;
#207 = CARTESIAN_POINT ( 'NONE',  ( 0.000000000000000000, 0.000000000000000000, 0.000000000000000000 ) ) ;
#208 = ORIENTED_EDGE ( 'NONE', *, *, #167, .T. ) ;
#209 = LINE ( 'NONE', #44, #116 ) ;
#210 = CARTESIAN_POINT ( 'NONE',  ( -0.2500000000000001110, 3.000000000000000444, 0.000000000000000000 ) ) ;
#211 = EDGE_LOOP ( 'NONE', ( #57, #279, #33, #254 ) ) ;
#212 = CARTESIAN_POINT ( 'NONE',  ( 1.171687330204578608E-34, 1.000000000000000000, 0.000000000000000000 ) ) ;
#213 = SURFACE_STYLE_FILL_AREA ( #219 ) ;
#214 = AXIS2_PLACEMENT_3D ( 'NONE', #122, #75, #151 ) ;
#215 = MECHANICAL_DESIGN_GEOMETRIC_PRESENTATION_REPRESENTATION (  '', ( #60 ), #240 ) ;
#216 = ADVANCED_BREP_SHAPE_REPRESENTATION ( '26272', ( #99, #199, #126 ), #269 ) ;
#217 = DIRECTION ( 'NONE',  ( 0.000000000000000000, 0.000000000000000000, 1.000000000000000000 ) ) ;
#218 = PRODUCT_CONTEXT ( 'NONE', #308, 'mechanical' ) ;
#219 = FILL_AREA_STYLE ('',( #267 ) ) ;
#220 = PRODUCT ( '26272', '26272', '', ( #218 ) ) ;
#221 = DIRECTION ( 'NONE',  ( -1.000000000000000000, 0.000000000000000000, 0.000000000000000000 ) ) ;
#222 = CLOSED_SHELL ( 'NONE', ( #31, #181, #17, #175 ) ) ;
#223 = EDGE_CURVE ( 'NONE', #111, #109, #253, .T. ) ;
#224 = LENGTH_MEASURE_WITH_UNIT ( LENGTH_MEASURE( 0.02539999999999999897 ), #132 );
#225 = UNCERTAINTY_MEASURE_WITH_UNIT (LENGTH_MEASURE( 1.000000000000000082E-05 ), #2, 'distance_accuracy_value', 'NONE');
#226 = CARTESIAN_POINT ( 'NONE',  ( 0.2500000000000000000, 1.000000000000000000, 3.061616997868383634E-17 ) ) ;
#227 = FILL_AREA_STYLE_COLOUR ( '', #73 ) ;
#228 = VECTOR ( 'NONE', #304, 39.37007874015748143 ) ;
#229 = LINE ( 'NONE', #248, #176 ) ;
#230 = ORIENTED_EDGE ( 'NONE', *, *, #108, .F. ) ;
#231 = FILL_AREA_STYLE_COLOUR ( '', #303 ) ;
#232 = VERTEX_POINT ( 'NONE', #163 ) ;
#233 = FILL_AREA_STYLE ('',( #231 ) ) ;
#234 = ORIENTED_EDGE ( 'NONE', *, *, #239, .F. ) ;
#235 = AXIS2_PLACEMENT_3D ( 'NONE', #29, #124, #221 ) ;
#236 =( NAMED_UNIT ( * ) PLANE_ANGLE_UNIT ( ) SI_UNIT ( $, .RADIAN. ) );
#237 = DIMENSIONAL_EXPONENTS ( 1.000000000000000000, 0.000000000000000000, 0.000000000000000000, 0.000000000000000000, 0.000000000000000000, 0.000000000000000000, 0.000000000000000000 ) ;
#238 = FACE_OUTER_BOUND ( 'NONE', #4, .T. ) ;
#239 = EDGE_CURVE ( 'NONE', #297, #232, #209, .T. ) ;
#240 =( GEOMETRIC_REPRESENTATION_CONTEXT ( 3 ) GLOBAL_UNCERTAINTY_ASSIGNED_CONTEXT ( ( #158 ) ) GLOBAL_UNIT_ASSIGNED_CONTEXT ( ( #9, #115, #65 ) ) REPRESENTATION_CONTEXT ( 'NONE', 'WORKASPACE' ) );
#241 = SURFACE_STYLE_USAGE ( .BOTH. , #93 ) ;
#242 = CARTESIAN_POINT ( 'NONE',  ( 0.000000000000000000, 0.000000000000000000, 0.000000000000000000 ) ) ;
#243 =( CONVERSION_BASED_UNIT ( 'INCH', #120 ) LENGTH_UNIT ( ) NAMED_UNIT ( #43 ) );
#244 = DIRECTION ( 'NONE',  ( 0.000000000000000000, 0.000000000000000000, -1.000000000000000000 ) ) ;
#245 = CIRCLE ( 'NONE', #10, 0.2499999999999999722 ) ;
#246 = LENGTH_MEASURE_WITH_UNIT ( LENGTH_MEASURE( 0.02539999999999999897 ), #77 );
#247 = EDGE_LOOP ( 'NONE', ( #83, #230 ) ) ;
#248 = CARTESIAN_POINT ( 'NONE',  ( 0.2499999999999999167, 3.000000000000000444, 3.061616997868383018E-17 ) ) ;
#249 = CARTESIAN_POINT ( 'NONE',  ( -6.123233995736772199E-17, 3.000000000000000444, 0.000000000000000000 ) ) ;
#250 = FACE_OUTER_BOUND ( 'NONE', #6, .T. ) ;
#251 = PRESENTATION_LAYER_ASSIGNMENT (  '', '', ( #131 ) ) ;
#252 = EDGE_LOOP ( 'NONE', ( #114, #206 ) ) ;
#253 = LINE ( 'NONE', #39, #184 ) ;
#254 = ORIENTED_EDGE ( 'NONE', *, *, #223, .F. ) ;
#255 = LENGTH_MEASURE_WITH_UNIT ( LENGTH_MEASURE( 0.02539999999999999897 ), #259 );
#256 = DIMENSIONAL_EXPONENTS ( 1.000000000000000000, 0.000000000000000000, 0.000000000000000000, 0.000000000000000000, 0.000000000000000000, 0.000000000000000000, 0.000000000000000000 ) ;
#257 = ORIENTED_EDGE ( 'NONE', *, *, #129, .F. ) ;
#258 = EDGE_CURVE ( 'NONE', #232, #109, #198, .T. ) ;
#259 =( LENGTH_UNIT ( ) NAMED_UNIT ( * ) SI_UNIT ( $, .METRE. ) );
#260 = PRODUCT_DEFINITION_SHAPE ( 'NONE', 'NONE',  #59 ) ;
#261 = SURFACE_STYLE_FILL_AREA ( #164 ) ;
#262 = PRESENTATION_LAYER_ASSIGNMENT (  '', '', ( #197 ) ) ;
#263 = FILL_AREA_STYLE_COLOUR ( '', #37 ) ;
#264 = DIRECTION ( 'NONE',  ( -1.000000000000000000, 0.000000000000000000, 0.000000000000000000 ) ) ;
#265 = FACE_OUTER_BOUND ( 'NONE', #247, .T. ) ;
#266 = DIRECTION ( 'NONE',  ( -3.061616997868386099E-17, 1.000000000000000000, -0.000000000000000000 ) ) ;
#267 = FILL_AREA_STYLE_COLOUR ( '', #148 ) ;
#268 = AXIS2_PLACEMENT_3D ( 'NONE', #27, #45, #193 ) ;
#269 =( GEOMETRIC_REPRESENTATION_CONTEXT ( 3 ) GLOBAL_UNCERTAINTY_ASSIGNED_CONTEXT ( ( #178 ) ) GLOBAL_UNIT_ASSIGNED_CONTEXT ( ( #243, #288, #118 ) ) REPRESENTATION_CONTEXT ( 'NONE', 'WORKASPACE' ) );
#270 =( CONVERSION_BASED_UNIT ( 'INCH', #141 ) LENGTH_UNIT ( ) NAMED_UNIT ( #14 ) );
#271 = AXIS2_PLACEMENT_3D ( 'NONE', #273, #272, #244 ) ;
#272 = DIRECTION ( 'NONE',  ( -0.000000000000000000, -1.000000000000000000, -0.000000000000000000 ) ) ;
#273 = CARTESIAN_POINT ( 'NONE',  ( 0.000000000000000000, 1.000000000000000000, 0.000000000000000000 ) ) ;
#274 = STYLED_ITEM ( 'NONE', ( #35 ), #28 ) ;
#275 = FACE_OUTER_BOUND ( 'NONE', #55, .T. ) ;
#276 = VERTEX_POINT ( 'NONE', #19 ) ;
#277 = ORIENTED_EDGE ( 'NONE', *, *, #49, .T. ) ;
#278 = PRESENTATION_LAYER_ASSIGNMENT (  '', '', ( #274 ) ) ;
#279 = ORIENTED_EDGE ( 'NONE', *, *, #239, .T. ) ;
#280 = DIRECTION ( 'NONE',  ( -0.000000000000000000, -1.000000000000000000, -0.000000000000000000 ) ) ;
#281 = PLANE ( 'NONE',  #22 ) ;
#282 = SURFACE_STYLE_USAGE ( .BOTH. , #300 ) ;
#283 = AXIS2_PLACEMENT_3D ( 'NONE', #100, #26, #98 ) ;
#284 = CARTESIAN_POINT ( 'NONE',  ( -0.2500000000000000555, 3.000000000000000444, 0.000000000000000000 ) ) ;
#285 =( NAMED_UNIT ( * ) SI_UNIT ( $, .STERADIAN. ) SOLID_ANGLE_UNIT ( ) );
#286 = PRESENTATION_STYLE_ASSIGNMENT (( #241 ) ) ;
#287 = MECHANICAL_DESIGN_GEOMETRIC_PRESENTATION_REPRESENTATION (  '', ( #113 ), #51 ) ;
#288 =( NAMED_UNIT ( * ) PLANE_ANGLE_UNIT ( ) SI_UNIT ( $, .RADIAN. ) );
#289 =( GEOMETRIC_REPRESENTATION_CONTEXT ( 3 ) GLOBAL_UNCERTAINTY_ASSIGNED_CONTEXT ( ( #172 ) ) GLOBAL_UNIT_ASSIGNED_CONTEXT ( ( #188, #149, #15 ) ) REPRESENTATION_CONTEXT ( 'NONE', 'WORKASPACE' ) );
#290 = DIRECTION ( 'NONE',  ( 0.000000000000000000, 1.000000000000000000, 0.000000000000000000 ) ) ;
#291 = ORIENTED_EDGE ( 'NONE', *, *, #123, .T. ) ;
#292 = DIRECTION ( 'NONE',  ( 0.000000000000000000, 0.000000000000000000, -1.000000000000000000 ) ) ;
#293 = DIRECTION ( 'NONE',  ( -3.061616997868386099E-17, 1.000000000000000000, -0.000000000000000000 ) ) ;
#294 = DIRECTION ( 'NONE',  ( -1.000000000000000000, -3.061616997868386099E-17, 0.000000000000000000 ) ) ;
#295 = DIRECTION ( 'NONE',  ( -1.000000000000000000, 0.000000000000000000, 0.000000000000000000 ) ) ;
#296 =( CONVERSION_BASED_UNIT ( 'INCH', #42 ) LENGTH_UNIT ( ) NAMED_UNIT ( #256 ) );
#297 = VERTEX_POINT ( 'NONE', #196 ) ;
#298 = ORIENTED_EDGE ( 'NONE', *, *, #129, .T. ) ;
#299 = PLANE ( 'NONE',  #195 ) ;
#300 = SURFACE_SIDE_STYLE ('',( #213 ) ) ;
#301 = CARTESIAN_POINT ( 'NONE',  ( 7.582401355855259480E-33, 1.000000000000000000, 0.000000000000000000 ) ) ;
#302 = COLOUR_RGB ( '',1.000000000000000000, 0.000000000000000000, 0.000000000000000000 ) ;
#303 = COLOUR_RGB ( '',1.000000000000000000, 0.000000000000000000, 0.000000000000000000 ) ;
#304 = DIRECTION ( 'NONE',  ( -3.061616997868386099E-17, 1.000000000000000000, -0.000000000000000000 ) ) ;
#305 = DIRECTION ( 'NONE',  ( 1.000000000000000000, 0.000000000000000000, 0.000000000000000000 ) ) ;
#306 = DIMENSIONAL_EXPONENTS ( 1.000000000000000000, 0.000000000000000000, 0.000000000000000000, 0.000000000000000000, 0.000000000000000000, 0.000000000000000000, 0.000000000000000000 ) ;
#307 = AXIS2_PLACEMENT_3D ( 'NONE', #156, #290, #128 ) ;
#308 = APPLICATION_CONTEXT ( 'automotive_design' ) ;
#309 = FILL_AREA_STYLE_COLOUR ( '', #160 ) ;
ENDSEC;
END-ISO-10303-21;
