ISO-10303-21;
HEADER;
FILE_DESCRIPTION (( 'STEP AP214' ),
    '1' );
FILE_NAME ('Micro_BMR-026-2.STEP',
    '2021-09-03T13:58:16',
    ( '' ),
    ( '' ),
    'SwSTEP 2.0',
    'SolidWorks 2020',
    '' );
FILE_SCHEMA (( 'AUTOMOTIVE_DESIGN' ));
ENDSEC;

DATA;
#1 = DIRECTION ( 'NONE',  ( 0.0000000000000000000, 0.0000000000000000000, -1.000000000000000000 ) ) ;
#2 = EDGE_LOOP ( 'NONE', ( #54, #251, #113, #141 ) ) ;
#3 = APPLICATION_PROTOCOL_DEFINITION ( 'draft international standard', 'automotive_design', 1998, #28 ) ;
#4 = ADVANCED_FACE ( 'NONE', ( #72 ), #197, .T. ) ;
#5 = DIRECTION ( 'NONE',  ( 0.0000000000000000000, 0.0000000000000000000, 1.000000000000000000 ) ) ;
#6 = VERTEX_POINT ( 'NONE', #279 ) ;
#7 = COLOUR_RGB ( '',0.7921568627450980005, 0.8196078431372548767, 0.9333333333333333481 ) ;
#8 = CIRCLE ( 'NONE', #220, 0.01298700000000000028 ) ;
#9 = ORIENTED_EDGE ( 'NONE', *, *, #283, .T. ) ;
#10 = ORIENTED_EDGE ( 'NONE', *, *, #87, .T. ) ;
#11 = PLANE ( 'NONE',  #91 ) ;
#12 = CIRCLE ( 'NONE', #82, 0.04750000000000064587 ) ;
#13 = DIMENSIONAL_EXPONENTS ( 1.000000000000000000, 0.0000000000000000000, 0.0000000000000000000, 0.0000000000000000000, 0.0000000000000000000, 0.0000000000000000000, 0.0000000000000000000 ) ;
#14 = MANIFOLD_SOLID_BREP ( 'Fillet1', #85 ) ;
#15 = EDGE_CURVE ( 'NONE', #46, #117, #306, .T. ) ;
#16 = DIRECTION ( 'NONE',  ( -1.224646799147353454E-16, -0.0000000000000000000, -1.000000000000000000 ) ) ;
#17 = DIRECTION ( 'NONE',  ( 1.000000000000000000, 0.0000000000000000000, 0.0000000000000000000 ) ) ;
#18 = FACE_OUTER_BOUND ( 'NONE', #111, .T. ) ;
#19 = EDGE_CURVE ( 'NONE', #325, #245, #256, .T. ) ;
#20 = CONICAL_SURFACE ( 'NONE', #210, 0.04750000000000064587, 0.7853981633974466137 ) ;
#21 = SPHERICAL_SURFACE ( 'NONE', #299, 0.01298700000000000028 ) ;
#22 = DIRECTION ( 'NONE',  ( 1.000000000000000000, 0.0000000000000000000, 0.0000000000000000000 ) ) ;
#23 = CYLINDRICAL_SURFACE ( 'NONE', #199, 0.06250000000000002776 ) ;
#24 = FACE_OUTER_BOUND ( 'NONE', #36, .T. ) ;
#25 = AXIS2_PLACEMENT_3D ( 'NONE', #49, #224, #163 ) ;
#26 = AXIS2_PLACEMENT_3D ( 'NONE', #95, #187, #145 ) ;
#27 = FACE_OUTER_BOUND ( 'NONE', #294, .T. ) ;
#28 = APPLICATION_CONTEXT ( 'automotive_design' ) ;
#29 =( CONVERSION_BASED_UNIT ( 'INCH', #244 ) LENGTH_UNIT ( ) NAMED_UNIT ( #164 ) );
#30 = EDGE_LOOP ( 'NONE', ( #218, #209, #86, #225 ) ) ;
#31 = EDGE_CURVE ( 'NONE', #325, #80, #127, .T. ) ;
#32 = AXIS2_PLACEMENT_3D ( 'NONE', #267, #213, #223 ) ;
#33 = CARTESIAN_POINT ( 'NONE',  ( 0.0000000000000000000, 0.0000000000000000000, 0.0000000000000000000 ) ) ;
#34 = DIRECTION ( 'NONE',  ( 1.000000000000000000, 0.0000000000000000000, 0.0000000000000000000 ) ) ;
#35 = ORIENTED_EDGE ( 'NONE', *, *, #268, .T. ) ;
#36 = EDGE_LOOP ( 'NONE', ( #158, #310, #270, #302 ) ) ;
#37 = VECTOR ( 'NONE', #71, 39.37007874015748143 ) ;
#38 = ADVANCED_FACE ( 'NONE', ( #291 ), #309, .T. ) ;
#39 = PRESENTATION_STYLE_ASSIGNMENT (( #149 ) ) ;
#40 = DIRECTION ( 'NONE',  ( -1.224646799147353454E-16, -0.0000000000000000000, -1.000000000000000000 ) ) ;
#41 = AXIS2_PLACEMENT_3D ( 'NONE', #33, #5, #34 ) ;
#42 = DIMENSIONAL_EXPONENTS ( 1.000000000000000000, 0.0000000000000000000, 0.0000000000000000000, 0.0000000000000000000, 0.0000000000000000000, 0.0000000000000000000, 0.0000000000000000000 ) ;
#43 = CARTESIAN_POINT ( 'NONE',  ( 0.0000000000000000000, 0.0000000000000000000, 1.500000000000000222 ) ) ;
#44 = CARTESIAN_POINT ( 'NONE',  ( 0.0000000000000000000, 0.0000000000000000000, 1.485000000000000764 ) ) ;
#45 = CARTESIAN_POINT ( 'NONE',  ( 1.590448798052667897E-18, 0.0000000000000000000, 0.01298700000000000028 ) ) ;
#46 = VERTEX_POINT ( 'NONE', #284 ) ;
#47 = DIRECTION ( 'NONE',  ( -1.224646799147353454E-16, -0.0000000000000000000, -1.000000000000000000 ) ) ;
#48 = EDGE_CURVE ( 'NONE', #103, #46, #172, .T. ) ;
#49 = CARTESIAN_POINT ( 'NONE',  ( 0.0000000000000000000, 0.0000000000000000000, 0.0000000000000000000 ) ) ;
#50 = DIRECTION ( 'NONE',  ( -0.0000000000000000000, -0.0000000000000000000, -1.000000000000000000 ) ) ;
#51 =( CONVERSION_BASED_UNIT ( 'INCH', #116 ) LENGTH_UNIT ( ) NAMED_UNIT ( #13 ) );
#52 = DIRECTION ( 'NONE',  ( -1.000000000000000000, 0.0000000000000000000, 0.0000000000000000000 ) ) ;
#53 = FACE_OUTER_BOUND ( 'NONE', #30, .T. ) ;
#54 = ORIENTED_EDGE ( 'NONE', *, *, #87, .F. ) ;
#55 = AXIS2_PLACEMENT_3D ( 'NONE', #44, #315, #93 ) ;
#56 = DIRECTION ( 'NONE',  ( 0.0000000000000000000, -1.000000000000000000, 0.0000000000000000000 ) ) ;
#57 = EDGE_LOOP ( 'NONE', ( #100, #195, #106, #238 ) ) ;
#58 =( NAMED_UNIT ( * ) SI_UNIT ( $, .STERADIAN. ) SOLID_ANGLE_UNIT ( ) );
#59 = COLOUR_RGB ( '',0.7921568627450980005, 0.8196078431372548767, 0.9333333333333333481 ) ;
#60 = LENGTH_MEASURE_WITH_UNIT ( LENGTH_MEASURE( 0.02539999999999999897 ), #276 );
#61 = ORIENTED_EDGE ( 'NONE', *, *, #92, .F. ) ;
#62 = EDGE_CURVE ( 'NONE', #183, #80, #98, .T. ) ;
#63 = VECTOR ( 'NONE', #96, 39.37007874015748143 ) ;
#64 = CONICAL_SURFACE ( 'NONE', #249, 0.01298699999999999855, 0.1745329251994338915 ) ;
#65 = ADVANCED_FACE ( 'NONE', ( #318 ), #11, .T. ) ;
#66 = CARTESIAN_POINT ( 'NONE',  ( -0.04750000000000064587, 0.0000000000000000000, 1.500000000000000222 ) ) ;
#67 = CARTESIAN_POINT ( 'NONE',  ( -0.04750000000000064587, 0.0000000000000000000, 1.500000000000000222 ) ) ;
#68 = AXIS2_PLACEMENT_3D ( 'NONE', #289, #73, #236 ) ;
#69 = CARTESIAN_POINT ( 'NONE',  ( 0.0000000000000000000, 0.0000000000000000000, 1.500000000000000222 ) ) ;
#70 = FILL_AREA_STYLE_COLOUR ( '', #7 ) ;
#71 = DIRECTION ( 'NONE',  ( 0.1736481776669313859, 0.0000000000000000000, 0.9848077530122077983 ) ) ;
#72 = FACE_OUTER_BOUND ( 'NONE', #133, .T. ) ;
#73 = DIRECTION ( 'NONE',  ( -1.224646799147353454E-16, -0.0000000000000000000, -1.000000000000000000 ) ) ;
#74 = MECHANICAL_DESIGN_GEOMETRIC_PRESENTATION_REPRESENTATION (  '', ( #260 ), #190 ) ;
#75 = PRODUCT_DEFINITION_SHAPE ( 'NONE', 'NONE',  #115 ) ;
#76 = CIRCLE ( 'NONE', #26, 0.04750000000000064587 ) ;
#77 = ORIENTED_EDGE ( 'NONE', *, *, #62, .T. ) ;
#78 = DIRECTION ( 'NONE',  ( -1.000000000000000000, 0.0000000000000000000, 0.0000000000000000000 ) ) ;
#79 = DIRECTION ( 'NONE',  ( -1.224646799147353454E-16, -0.0000000000000000000, -1.000000000000000000 ) ) ;
#80 = VERTEX_POINT ( 'NONE', #119 ) ;
#81 = CARTESIAN_POINT ( 'NONE',  ( -0.06250000000000002776, 0.0000000000000000000, 1.485000000000000764 ) ) ;
#82 = AXIS2_PLACEMENT_3D ( 'NONE', #43, #265, #89 ) ;
#83 = EDGE_CURVE ( 'NONE', #232, #117, #8, .T. ) ;
#84 = APPLICATION_PROTOCOL_DEFINITION ( 'draft international standard', 'automotive_design', 1998, #114 ) ;
#85 = CLOSED_SHELL ( 'NONE', ( #240, #246, #234, #301, #307, #278, #65, #273, #38, #4, #146 ) ) ;
#86 = ORIENTED_EDGE ( 'NONE', *, *, #83, .T. ) ;
#87 = EDGE_CURVE ( 'NONE', #185, #131, #76, .T. ) ;
#88 = CARTESIAN_POINT ( 'NONE',  ( -0.01298699999999999855, 0.0000000000000000000, 0.01298700000000000201 ) ) ;
#89 = DIRECTION ( 'NONE',  ( 1.000000000000000000, 0.0000000000000000000, 0.0000000000000000000 ) ) ;
#90 = CARTESIAN_POINT ( 'NONE',  ( 0.01298700000000000722, 0.0000000000000000000, 0.07799999999999999989 ) ) ;
#91 = AXIS2_PLACEMENT_3D ( 'NONE', #69, #216, #194 ) ;
#92 = EDGE_CURVE ( 'NONE', #103, #232, #313, .T. ) ;
#93 = DIRECTION ( 'NONE',  ( 1.000000000000000000, 0.0000000000000000000, 0.0000000000000000000 ) ) ;
#94 = CARTESIAN_POINT ( 'NONE',  ( 0.0000000000000000000, 0.0000000000000000000, 1.485000000000000764 ) ) ;
#95 = CARTESIAN_POINT ( 'NONE',  ( 0.0000000000000000000, 0.0000000000000000000, 1.500000000000000222 ) ) ;
#96 = DIRECTION ( 'NONE',  ( -0.0000000000000000000, -0.0000000000000000000, -1.000000000000000000 ) ) ;
#97 = DIRECTION ( 'NONE',  ( -0.0000000000000000000, -0.0000000000000000000, -1.000000000000000000 ) ) ;
#98 = CIRCLE ( 'NONE', #191, 0.06250000000000002776 ) ;
#99 = FACE_OUTER_BOUND ( 'NONE', #57, .T. ) ;
#100 = ORIENTED_EDGE ( 'NONE', *, *, #157, .F. ) ;
#101 = DIRECTION ( 'NONE',  ( 0.0000000000000000000, 0.0000000000000000000, -1.000000000000000000 ) ) ;
#102 =( GEOMETRIC_REPRESENTATION_CONTEXT ( 3 ) GLOBAL_UNCERTAINTY_ASSIGNED_CONTEXT ( ( #229 ) ) GLOBAL_UNIT_ASSIGNED_CONTEXT ( ( #135, #253, #137 ) ) REPRESENTATION_CONTEXT ( 'NONE', 'WORKASPACE' ) );
#103 = VERTEX_POINT ( 'NONE', #90 ) ;
#104 = DIRECTION ( 'NONE',  ( 1.224646799147353454E-16, 0.0000000000000000000, 1.000000000000000000 ) ) ;
#105 = SURFACE_STYLE_FILL_AREA ( #274 ) ;
#106 = ORIENTED_EDGE ( 'NONE', *, *, #222, .T. ) ;
#107 = EDGE_CURVE ( 'NONE', #131, #185, #12, .T. ) ;
#108 = SHAPE_DEFINITION_REPRESENTATION ( #75, #182 ) ;
#109 = CIRCLE ( 'NONE', #174, 0.06250000000000002776 ) ;
#110 = UNCERTAINTY_MEASURE_WITH_UNIT (LENGTH_MEASURE( 1.000000000000000082E-05 ), #51, 'distance_accuracy_value', 'NONE');
#111 = EDGE_LOOP ( 'NONE', ( #324, #123, #207 ) ) ;
#112 = FILL_AREA_STYLE_COLOUR ( '', #59 ) ;
#113 = ORIENTED_EDGE ( 'NONE', *, *, #19, .F. ) ;
#114 = APPLICATION_CONTEXT ( 'automotive_design' ) ;
#115 = PRODUCT_DEFINITION ( 'UNKNOWN', '', #169, #308 ) ;
#116 = LENGTH_MEASURE_WITH_UNIT ( LENGTH_MEASURE( 0.02539999999999999897 ), #168 );
#117 = VERTEX_POINT ( 'NONE', #88 ) ;
#118 = DIRECTION ( 'NONE',  ( 1.224646799147353454E-16, 0.0000000000000000000, 1.000000000000000000 ) ) ;
#119 = CARTESIAN_POINT ( 'NONE',  ( -0.06249999999999997918, 0.0000000000000000000, 0.3588021767347302493 ) ) ;
#120 = PRESENTATION_LAYER_ASSIGNMENT (  '', '', ( #287 ) ) ;
#121 = CARTESIAN_POINT ( 'NONE',  ( 4.394059372652903669E-17, 0.0000000000000000000, 0.3588021767347302493 ) ) ;
#122 = EDGE_CURVE ( 'NONE', #6, #117, #155, .T. ) ;
#123 = ORIENTED_EDGE ( 'NONE', *, *, #290, .T. ) ;
#124 = SPHERICAL_SURFACE ( 'NONE', #261, 0.01298700000000000028 ) ;
#125 =( NAMED_UNIT ( * ) SI_UNIT ( $, .STERADIAN. ) SOLID_ANGLE_UNIT ( ) );
#126 = CARTESIAN_POINT ( 'NONE',  ( 1.590448798052667897E-18, 0.0000000000000000000, 0.01298700000000000028 ) ) ;
#127 = LINE ( 'NONE', #319, #63 ) ;
#128 = CARTESIAN_POINT ( 'NONE',  ( 1.590448798052667897E-18, 0.0000000000000000000, 0.01298700000000000028 ) ) ;
#129 = CARTESIAN_POINT ( 'NONE',  ( 4.394059372652903669E-17, 0.0000000000000000000, 0.3588021767347302493 ) ) ;
#130 = CYLINDRICAL_SURFACE ( 'NONE', #144, 0.01298700000000000028 ) ;
#131 = VERTEX_POINT ( 'NONE', #66 ) ;
#132 = DIRECTION ( 'NONE',  ( -1.000000000000000000, 0.0000000000000000000, 0.0000000000000000000 ) ) ;
#133 = EDGE_LOOP ( 'NONE', ( #61, #277, #193, #35 ) ) ;
#134 = ORIENTED_EDGE ( 'NONE', *, *, #83, .F. ) ;
#135 =( CONVERSION_BASED_UNIT ( 'INCH', #60 ) LENGTH_UNIT ( ) NAMED_UNIT ( #42 ) );
#136 = AXIS2_PLACEMENT_3D ( 'NONE', #142, #235, #152 ) ;
#137 =( NAMED_UNIT ( * ) SI_UNIT ( $, .STERADIAN. ) SOLID_ANGLE_UNIT ( ) );
#138 = ORIENTED_EDGE ( 'NONE', *, *, #122, .T. ) ;
#139 = SURFACE_STYLE_USAGE ( .BOTH. , #230 ) ;
#140 = AXIS2_PLACEMENT_3D ( 'NONE', #298, #1, #179 ) ;
#141 = ORIENTED_EDGE ( 'NONE', *, *, #222, .F. ) ;
#142 = CARTESIAN_POINT ( 'NONE',  ( 9.552245033349356976E-18, 0.0000000000000000000, 0.07799999999999999989 ) ) ;
#143 = CARTESIAN_POINT ( 'NONE',  ( 0.01298700000000000201, 1.590448798052667705E-18, 0.01298699999999999855 ) ) ;
#144 = AXIS2_PLACEMENT_3D ( 'NONE', #198, #293, #271 ) ;
#145 = DIRECTION ( 'NONE',  ( 1.000000000000000000, 0.0000000000000000000, 0.0000000000000000000 ) ) ;
#146 = ADVANCED_FACE ( 'NONE', ( #18 ), #124, .T. ) ;
#147 = FACE_OUTER_BOUND ( 'NONE', #250, .T. ) ;
#148 = DIRECTION ( 'NONE',  ( 0.0000000000000000000, 1.000000000000000000, 0.0000000000000000000 ) ) ;
#149 = SURFACE_STYLE_USAGE ( .BOTH. , #211 ) ;
#150 = CARTESIAN_POINT ( 'NONE',  ( 0.06250000000000002776, 7.654042494670959086E-18, 1.485000000000000764 ) ) ;
#151 =( LENGTH_UNIT ( ) NAMED_UNIT ( * ) SI_UNIT ( $, .METRE. ) );
#152 = DIRECTION ( 'NONE',  ( 1.000000000000000000, 0.0000000000000000000, 0.0000000000000000000 ) ) ;
#153 = DIRECTION ( 'NONE',  ( 1.000000000000000000, 0.0000000000000000000, 0.0000000000000000000 ) ) ;
#154 = CARTESIAN_POINT ( 'NONE',  ( -0.01298699999999998987, 1.590448798052667319E-18, 0.07799999999999999989 ) ) ;
#155 = CIRCLE ( 'NONE', #180, 0.01298700000000000028 ) ;
#156 = CARTESIAN_POINT ( 'NONE',  ( 0.0000000000000000000, 0.0000000000000000000, 1.500000000000000222 ) ) ;
#157 = EDGE_CURVE ( 'NONE', #185, #245, #221, .T. ) ;
#158 = ORIENTED_EDGE ( 'NONE', *, *, #317, .F. ) ;
#159 = PRESENTATION_STYLE_ASSIGNMENT (( #139 ) ) ;
#160 = ORIENTED_EDGE ( 'NONE', *, *, #283, .F. ) ;
#161 = AXIS2_PLACEMENT_3D ( 'NONE', #128, #104, #322 ) ;
#162 = EDGE_CURVE ( 'NONE', #46, #103, #275, .T. ) ;
#163 = DIRECTION ( 'NONE',  ( -1.000000000000000000, 0.0000000000000000000, 1.224646799147353454E-16 ) ) ;
#164 = DIMENSIONAL_EXPONENTS ( 1.000000000000000000, 0.0000000000000000000, 0.0000000000000000000, 0.0000000000000000000, 0.0000000000000000000, 0.0000000000000000000, 0.0000000000000000000 ) ;
#165 = CARTESIAN_POINT ( 'NONE',  ( 9.552245033349356976E-18, 0.0000000000000000000, 0.07799999999999999989 ) ) ;
#166 = CARTESIAN_POINT ( 'NONE',  ( 0.01298700000000000722, 0.0000000000000000000, 0.07799999999999999989 ) ) ;
#167 = CARTESIAN_POINT ( 'NONE',  ( 1.590448798052667897E-18, 0.0000000000000000000, 0.01298700000000000028 ) ) ;
#168 =( LENGTH_UNIT ( ) NAMED_UNIT ( * ) SI_UNIT ( $, .METRE. ) );
#169 = PRODUCT_DEFINITION_FORMATION_WITH_SPECIFIED_SOURCE ( 'ANY', '', #215, .NOT_KNOWN. ) ;
#170 = FACE_OUTER_BOUND ( 'NONE', #186, .T. ) ;
#171 = SURFACE_STYLE_FILL_AREA ( #233 ) ;
#172 = CIRCLE ( 'NONE', #32, 0.01298699999999999855 ) ;
#173 = DIRECTION ( 'NONE',  ( -0.7071067811865462405, 0.0000000000000000000, -0.7071067811865486830 ) ) ;
#174 = AXIS2_PLACEMENT_3D ( 'NONE', #129, #79, #201 ) ;
#175 = ORIENTED_EDGE ( 'NONE', *, *, #19, .T. ) ;
#176 = CARTESIAN_POINT ( 'NONE',  ( 0.06250000000000002776, 7.654042494670959086E-18, 1.500000000000000222 ) ) ;
#177 = CARTESIAN_POINT ( 'NONE',  ( 0.0000000000000000000, 0.0000000000000000000, 1.500000000000000222 ) ) ;
#178 = EDGE_CURVE ( 'NONE', #245, #325, #237, .T. ) ;
#179 = DIRECTION ( 'NONE',  ( -1.000000000000000000, 0.0000000000000000000, 0.0000000000000000000 ) ) ;
#180 = AXIS2_PLACEMENT_3D ( 'NONE', #167, #263, #280 ) ;
#181 = ORIENTED_EDGE ( 'NONE', *, *, #48, .F. ) ;
#182 = ADVANCED_BREP_SHAPE_REPRESENTATION ( 'Micro_BMR-026-2', ( #14, #41 ), #314 ) ;
#183 = VERTEX_POINT ( 'NONE', #189 ) ;
#184 = AXIS2_PLACEMENT_3D ( 'NONE', #227, #56, #101 ) ;
#185 = VERTEX_POINT ( 'NONE', #259 ) ;
#186 = EDGE_LOOP ( 'NONE', ( #258, #228, #9, #214 ) ) ;
#187 = DIRECTION ( 'NONE',  ( 0.0000000000000000000, 0.0000000000000000000, 1.000000000000000000 ) ) ;
#188 = EDGE_CURVE ( 'NONE', #103, #183, #286, .T. ) ;
#189 = CARTESIAN_POINT ( 'NONE',  ( 0.06250000000000006939, 7.654042494670963708E-18, 0.3588021767347302493 ) ) ;
#190 =( GEOMETRIC_REPRESENTATION_CONTEXT ( 3 ) GLOBAL_UNCERTAINTY_ASSIGNED_CONTEXT ( ( #110 ) ) GLOBAL_UNIT_ASSIGNED_CONTEXT ( ( #51, #241, #125 ) ) REPRESENTATION_CONTEXT ( 'NONE', 'WORKASPACE' ) );
#191 = AXIS2_PLACEMENT_3D ( 'NONE', #121, #16, #17 ) ;
#192 = CARTESIAN_POINT ( 'NONE',  ( 1.590448798052667897E-18, 0.0000000000000000000, 0.01298700000000000028 ) ) ;
#193 = ORIENTED_EDGE ( 'NONE', *, *, #15, .T. ) ;
#194 = DIRECTION ( 'NONE',  ( 1.000000000000000000, 0.0000000000000000000, -0.0000000000000000000 ) ) ;
#195 = ORIENTED_EDGE ( 'NONE', *, *, #107, .F. ) ;
#196 = CARTESIAN_POINT ( 'NONE',  ( 0.04750000000000064587, 5.817072295950006528E-18, 1.500000000000000222 ) ) ;
#197 = CYLINDRICAL_SURFACE ( 'NONE', #25, 0.01298700000000000028 ) ;
#198 = CARTESIAN_POINT ( 'NONE',  ( 0.0000000000000000000, 0.0000000000000000000, 0.0000000000000000000 ) ) ;
#199 = AXIS2_PLACEMENT_3D ( 'NONE', #296, #50, #132 ) ;
#200 = ORIENTED_EDGE ( 'NONE', *, *, #107, .T. ) ;
#201 = DIRECTION ( 'NONE',  ( 1.000000000000000000, 0.0000000000000000000, 0.0000000000000000000 ) ) ;
#202 = LINE ( 'NONE', #154, #282 ) ;
#203 = DIRECTION ( 'NONE',  ( -0.0000000000000000000, -0.0000000000000000000, -1.000000000000000000 ) ) ;
#204 = AXIS2_PLACEMENT_3D ( 'NONE', #94, #243, #22 ) ;
#205 = AXIS2_PLACEMENT_3D ( 'NONE', #156, #97, #52 ) ;
#206 =( NAMED_UNIT ( * ) PLANE_ANGLE_UNIT ( ) SI_UNIT ( $, .RADIAN. ) );
#207 = ORIENTED_EDGE ( 'NONE', *, *, #268, .F. ) ;
#208 = CIRCLE ( 'NONE', #184, 0.01298700000000000028 ) ;
#209 = ORIENTED_EDGE ( 'NONE', *, *, #92, .T. ) ;
#210 = AXIS2_PLACEMENT_3D ( 'NONE', #177, #269, #78 ) ;
#211 = SURFACE_SIDE_STYLE ('',( #171 ) ) ;
#212 = PRODUCT_RELATED_PRODUCT_CATEGORY ( 'part', '', ( #215 ) ) ;
#213 = DIRECTION ( 'NONE',  ( -1.224646799147353454E-16, -0.0000000000000000000, -1.000000000000000000 ) ) ;
#214 = ORIENTED_EDGE ( 'NONE', *, *, #188, .F. ) ;
#215 = PRODUCT ( 'Micro_BMR-026-2', 'Micro_BMR-026-2', '', ( #300 ) ) ;
#216 = DIRECTION ( 'NONE',  ( 0.0000000000000000000, 0.0000000000000000000, 1.000000000000000000 ) ) ;
#217 = DIRECTION ( 'NONE',  ( -1.000000000000000000, 0.0000000000000000000, 1.643378952067610433E-16 ) ) ;
#218 = ORIENTED_EDGE ( 'NONE', *, *, #162, .T. ) ;
#219 = VECTOR ( 'NONE', #40, 39.37007874015748143 ) ;
#220 = AXIS2_PLACEMENT_3D ( 'NONE', #192, #118, #217 ) ;
#221 = LINE ( 'NONE', #196, #252 ) ;
#222 = EDGE_CURVE ( 'NONE', #131, #325, #281, .T. ) ;
#223 = DIRECTION ( 'NONE',  ( -1.000000000000000000, 0.0000000000000000000, 0.0000000000000000000 ) ) ;
#224 = DIRECTION ( 'NONE',  ( -1.224646799147353454E-16, -0.0000000000000000000, -1.000000000000000000 ) ) ;
#225 = ORIENTED_EDGE ( 'NONE', *, *, #15, .F. ) ;
#226 = VECTOR ( 'NONE', #203, 39.37007874015748143 ) ;
#227 = CARTESIAN_POINT ( 'NONE',  ( 1.590448798052667897E-18, 0.0000000000000000000, 0.01298700000000000028 ) ) ;
#228 = ORIENTED_EDGE ( 'NONE', *, *, #297, .T. ) ;
#229 = UNCERTAINTY_MEASURE_WITH_UNIT (LENGTH_MEASURE( 1.000000000000000082E-05 ), #135, 'distance_accuracy_value', 'NONE');
#230 = SURFACE_SIDE_STYLE ('',( #105 ) ) ;
#231 = ORIENTED_EDGE ( 'NONE', *, *, #317, .T. ) ;
#232 = VERTEX_POINT ( 'NONE', #143 ) ;
#233 = FILL_AREA_STYLE ('',( #70 ) ) ;
#234 = ADVANCED_FACE ( 'NONE', ( #170 ), #64, .T. ) ;
#235 = DIRECTION ( 'NONE',  ( 1.224646799147353454E-16, 0.0000000000000000000, 1.000000000000000000 ) ) ;
#236 = DIRECTION ( 'NONE',  ( -1.000000000000000000, 0.0000000000000000000, 0.0000000000000000000 ) ) ;
#237 = CIRCLE ( 'NONE', #55, 0.06250000000000002776 ) ;
#238 = ORIENTED_EDGE ( 'NONE', *, *, #178, .F. ) ;
#239 = DIRECTION ( 'NONE',  ( 1.000000000000000000, 0.0000000000000000000, 0.0000000000000000000 ) ) ;
#240 = ADVANCED_FACE ( 'NONE', ( #147 ), #21, .T. ) ;
#241 =( NAMED_UNIT ( * ) PLANE_ANGLE_UNIT ( ) SI_UNIT ( $, .RADIAN. ) );
#242 = DIRECTION ( 'NONE',  ( 1.224646799147353454E-16, 0.0000000000000000000, 1.000000000000000000 ) ) ;
#243 = DIRECTION ( 'NONE',  ( 0.0000000000000000000, 0.0000000000000000000, -1.000000000000000000 ) ) ;
#244 = LENGTH_MEASURE_WITH_UNIT ( LENGTH_MEASURE( 0.02539999999999999897 ), #151 );
#245 = VERTEX_POINT ( 'NONE', #150 ) ;
#246 = ADVANCED_FACE ( 'NONE', ( #53 ), #130, .T. ) ;
#247 = DIRECTION ( 'NONE',  ( 0.0000000000000000000, 1.000000000000000000, 0.0000000000000000000 ) ) ;
#248 = FACE_OUTER_BOUND ( 'NONE', #2, .T. ) ;
#249 = AXIS2_PLACEMENT_3D ( 'NONE', #165, #242, #262 ) ;
#250 = EDGE_LOOP ( 'NONE', ( #272, #138, #134 ) ) ;
#251 = ORIENTED_EDGE ( 'NONE', *, *, #157, .T. ) ;
#252 = VECTOR ( 'NONE', #311, 39.37007874015748854 ) ;
#253 =( NAMED_UNIT ( * ) PLANE_ANGLE_UNIT ( ) SI_UNIT ( $, .RADIAN. ) );
#254 = UNCERTAINTY_MEASURE_WITH_UNIT (LENGTH_MEASURE( 1.000000000000000082E-05 ), #29, 'distance_accuracy_value', 'NONE');
#255 = ORIENTED_EDGE ( 'NONE', *, *, #297, .F. ) ;
#256 = CIRCLE ( 'NONE', #204, 0.06250000000000002776 ) ;
#257 = VECTOR ( 'NONE', #173, 39.37007874015748854 ) ;
#258 = ORIENTED_EDGE ( 'NONE', *, *, #162, .F. ) ;
#259 = CARTESIAN_POINT ( 'NONE',  ( 0.04750000000000064587, 6.735557395310483192E-18, 1.500000000000000222 ) ) ;
#260 = STYLED_ITEM ( 'NONE', ( #39 ), #14 ) ;
#261 = AXIS2_PLACEMENT_3D ( 'NONE', #45, #148, #239 ) ;
#262 = DIRECTION ( 'NONE',  ( 1.000000000000000000, 0.0000000000000000000, 0.0000000000000000000 ) ) ;
#263 = DIRECTION ( 'NONE',  ( 1.224646799147353207E-16, 1.000000000000000000, -0.0000000000000000000 ) ) ;
#264 = MECHANICAL_DESIGN_GEOMETRIC_PRESENTATION_REPRESENTATION (  '', ( #287 ), #102 ) ;
#265 = DIRECTION ( 'NONE',  ( 0.0000000000000000000, 0.0000000000000000000, 1.000000000000000000 ) ) ;
#266 = ORIENTED_EDGE ( 'NONE', *, *, #31, .F. ) ;
#267 = CARTESIAN_POINT ( 'NONE',  ( 9.552245033349356976E-18, 0.0000000000000000000, 0.07799999999999999989 ) ) ;
#268 = EDGE_CURVE ( 'NONE', #117, #232, #321, .T. ) ;
#269 = DIRECTION ( 'NONE',  ( 0.0000000000000000000, 0.0000000000000000000, -1.000000000000000000 ) ) ;
#270 = ORIENTED_EDGE ( 'NONE', *, *, #31, .T. ) ;
#271 = DIRECTION ( 'NONE',  ( -1.000000000000000000, 0.0000000000000000000, 1.224646799147353454E-16 ) ) ;
#272 = ORIENTED_EDGE ( 'NONE', *, *, #290, .F. ) ;
#273 = ADVANCED_FACE ( 'NONE', ( #99 ), #292, .T. ) ;
#274 = FILL_AREA_STYLE ('',( #112 ) ) ;
#275 = CIRCLE ( 'NONE', #68, 0.01298699999999999855 ) ;
#276 =( LENGTH_UNIT ( ) NAMED_UNIT ( * ) SI_UNIT ( $, .METRE. ) );
#277 = ORIENTED_EDGE ( 'NONE', *, *, #48, .T. ) ;
#278 = ADVANCED_FACE ( 'NONE', ( #24 ), #320, .T. ) ;
#279 = CARTESIAN_POINT ( 'NONE',  ( 2.385673197079001846E-18, 0.0000000000000000000, 0.0000000000000000000 ) ) ;
#280 = DIRECTION ( 'NONE',  ( -1.000000000000000000, 1.224646799147353207E-16, 0.0000000000000000000 ) ) ;
#281 = LINE ( 'NONE', #67, #257 ) ;
#282 = VECTOR ( 'NONE', #323, 39.37007874015747433 ) ;
#283 = EDGE_CURVE ( 'NONE', #80, #183, #109, .T. ) ;
#284 = CARTESIAN_POINT ( 'NONE',  ( -0.01298699999999998987, 4.622245646361813491E-18, 0.07799999999999999989 ) ) ;
#285 = EDGE_LOOP ( 'NONE', ( #255, #181, #305, #77 ) ) ;
#286 = LINE ( 'NONE', #166, #37 ) ;
#287 = STYLED_ITEM ( 'NONE', ( #159 ), #182 ) ;
#288 = EDGE_LOOP ( 'NONE', ( #200, #10 ) ) ;
#289 = CARTESIAN_POINT ( 'NONE',  ( 9.552245033349356976E-18, 0.0000000000000000000, 0.07799999999999999989 ) ) ;
#290 = EDGE_CURVE ( 'NONE', #6, #232, #208, .T. ) ;
#291 = FACE_OUTER_BOUND ( 'NONE', #285, .T. ) ;
#292 = CONICAL_SURFACE ( 'NONE', #140, 0.04750000000000064587, 0.7853981633974466137 ) ;
#293 = DIRECTION ( 'NONE',  ( -1.224646799147353454E-16, -0.0000000000000000000, -1.000000000000000000 ) ) ;
#294 = EDGE_LOOP ( 'NONE', ( #175, #231, #160, #266 ) ) ;
#295 = LINE ( 'NONE', #176, #226 ) ;
#296 = CARTESIAN_POINT ( 'NONE',  ( 0.0000000000000000000, 0.0000000000000000000, 1.500000000000000222 ) ) ;
#297 = EDGE_CURVE ( 'NONE', #46, #80, #202, .T. ) ;
#298 = CARTESIAN_POINT ( 'NONE',  ( 0.0000000000000000000, 0.0000000000000000000, 1.500000000000000222 ) ) ;
#299 = AXIS2_PLACEMENT_3D ( 'NONE', #126, #247, #153 ) ;
#300 = PRODUCT_CONTEXT ( 'NONE', #28, 'mechanical' ) ;
#301 = ADVANCED_FACE ( 'NONE', ( #248 ), #20, .T. ) ;
#302 = ORIENTED_EDGE ( 'NONE', *, *, #62, .F. ) ;
#303 = PRESENTATION_LAYER_ASSIGNMENT (  '', '', ( #260 ) ) ;
#304 = VECTOR ( 'NONE', #47, 39.37007874015748143 ) ;
#305 = ORIENTED_EDGE ( 'NONE', *, *, #188, .T. ) ;
#306 = LINE ( 'NONE', #316, #219 ) ;
#307 = ADVANCED_FACE ( 'NONE', ( #27 ), #23, .T. ) ;
#308 = PRODUCT_DEFINITION_CONTEXT ( 'detailed design', #114, 'design' ) ;
#309 = CONICAL_SURFACE ( 'NONE', #136, 0.01298699999999999855, 0.1745329251994338915 ) ;
#310 = ORIENTED_EDGE ( 'NONE', *, *, #178, .T. ) ;
#311 = DIRECTION ( 'NONE',  ( 0.7071067811865462405, 8.659560562354916834E-17, -0.7071067811865486830 ) ) ;
#312 = CARTESIAN_POINT ( 'NONE',  ( 0.01298700000000000028, 1.590448798052667705E-18, -1.590448798052667897E-18 ) ) ;
#313 = LINE ( 'NONE', #312, #304 ) ;
#314 =( GEOMETRIC_REPRESENTATION_CONTEXT ( 3 ) GLOBAL_UNCERTAINTY_ASSIGNED_CONTEXT ( ( #254 ) ) GLOBAL_UNIT_ASSIGNED_CONTEXT ( ( #29, #206, #58 ) ) REPRESENTATION_CONTEXT ( 'NONE', 'WORKASPACE' ) );
#315 = DIRECTION ( 'NONE',  ( 0.0000000000000000000, 0.0000000000000000000, -1.000000000000000000 ) ) ;
#316 = CARTESIAN_POINT ( 'NONE',  ( -0.01298700000000000028, 0.0000000000000000000, 1.590448798052667897E-18 ) ) ;
#317 = EDGE_CURVE ( 'NONE', #245, #183, #295, .T. ) ;
#318 = FACE_OUTER_BOUND ( 'NONE', #288, .T. ) ;
#319 = CARTESIAN_POINT ( 'NONE',  ( -0.06250000000000002776, 0.0000000000000000000, 1.500000000000000222 ) ) ;
#320 = CYLINDRICAL_SURFACE ( 'NONE', #205, 0.06250000000000002776 ) ;
#321 = CIRCLE ( 'NONE', #161, 0.01298700000000000028 ) ;
#322 = DIRECTION ( 'NONE',  ( -1.000000000000000000, 0.0000000000000000000, 1.643378952067610433E-16 ) ) ;
#323 = DIRECTION ( 'NONE',  ( -0.1736481776669311916, 2.126576849575783316E-17, 0.9848077530122080203 ) ) ;
#324 = ORIENTED_EDGE ( 'NONE', *, *, #122, .F. ) ;
#325 = VERTEX_POINT ( 'NONE', #81 ) ;
ENDSEC;
END-ISO-10303-21;
