ISO-10303-21;
HEADER;
FILE_DESCRIPTION (( 'STEP AP214' ),
    '1' );
FILE_NAME ('03300.STEP',
    '2023-06-22T15:08:54',
    ( '' ),
    ( '' ),
    'SwSTEP 2.0',
    'SolidWorks 2023',
    '' );
FILE_SCHEMA (( 'AUTOMOTIVE_DESIGN' ));
ENDSEC;

DATA;
#1 = DIRECTION ( 'NONE',  ( -1.000000000000000000, 0.000000000000000000, 0.000000000000000000 ) ) ;
#2 = DIRECTION ( 'NONE',  ( 0.000000000000000000, 0.000000000000000000, -1.000000000000000000 ) ) ;
#3 = DIRECTION ( 'NONE',  ( -0.000000000000000000, -1.000000000000000000, -0.000000000000000000 ) ) ;
#4 = SURFACE_SIDE_STYLE ('',( #140 ) ) ;
#5 = PRODUCT_RELATED_PRODUCT_CATEGORY ( 'part', '', ( #34 ) ) ;
#6 = DIRECTION ( 'NONE',  ( 0.000000000000000000, 0.000000000000000000, -1.000000000000000000 ) ) ;
#7 = DIRECTION ( 'NONE',  ( -1.000000000000000000, 0.000000000000000000, 0.000000000000000000 ) ) ;
#8 = VECTOR ( 'NONE', #302, 39.37007874015748143 ) ;
#9 = FILL_AREA_STYLE_COLOUR ( '', #243 ) ;
#10 =( CONVERSION_BASED_UNIT ( 'INCH', #71 ) LENGTH_UNIT ( ) NAMED_UNIT ( #145 ) );
#11 = SURFACE_STYLE_USAGE ( .BOTH. , #124 ) ;
#12 = EDGE_LOOP ( 'NONE', ( #108, #38, #183, #228 ) ) ;
#13 = APPLICATION_CONTEXT ( 'automotive_design' ) ;
#14 = LENGTH_MEASURE_WITH_UNIT ( LENGTH_MEASURE( 0.02539999999999999897 ), #272 );
#15 = EDGE_CURVE ( 'NONE', #209, #132, #105, .T. ) ;
#16 = VERTEX_POINT ( 'NONE', #187 ) ;
#17 = ORIENTED_EDGE ( 'NONE', *, *, #301, .T. ) ;
#18 = SURFACE_STYLE_FILL_AREA ( #48 ) ;
#19 = LENGTH_MEASURE_WITH_UNIT ( LENGTH_MEASURE( 0.02539999999999999897 ), #66 );
#20 = EDGE_CURVE ( 'NONE', #132, #209, #188, .T. ) ;
#21 = CARTESIAN_POINT ( 'NONE',  ( -1.224646799147352714E-16, 4.000000000000000000, 0.000000000000000000 ) ) ;
#22 = FILL_AREA_STYLE_COLOUR ( '', #144 ) ;
#23 =( CONVERSION_BASED_UNIT ( 'INCH', #19 ) LENGTH_UNIT ( ) NAMED_UNIT ( #290 ) );
#24 = DIRECTION ( 'NONE',  ( -0.000000000000000000, -1.000000000000000000, -0.000000000000000000 ) ) ;
#25 = LENGTH_MEASURE_WITH_UNIT ( LENGTH_MEASURE( 0.02539999999999999897 ), #68 );
#26 = AXIS2_PLACEMENT_3D ( 'NONE', #46, #282, #2 ) ;
#27 = VECTOR ( 'NONE', #3, 39.37007874015748143 ) ;
#28 = CIRCLE ( 'NONE', #56, 0.1562500000000000000 ) ;
#29 = SURFACE_STYLE_FILL_AREA ( #122 ) ;
#30 = PRESENTATION_STYLE_ASSIGNMENT (( #287 ) ) ;
#31 = CARTESIAN_POINT ( 'NONE',  ( 0.000000000000000000, 0.000000000000000000, 0.000000000000000000 ) ) ;
#32 = FACE_OUTER_BOUND ( 'NONE', #162, .T. ) ;
#33 = APPLICATION_PROTOCOL_DEFINITION ( 'draft international standard', 'automotive_design', 1998, #13 ) ;
#34 = PRODUCT ( '03300', '03300', '', ( #295 ) ) ;
#35 = CARTESIAN_POINT ( 'NONE',  ( 0.000000000000000000, 2.125000000000000000, 0.000000000000000000 ) ) ;
#36 = AXIS2_PLACEMENT_3D ( 'NONE', #31, #127, #146 ) ;
#37 = MANIFOLD_SOLID_BREP ( 'Revolve - Tool Body (Straight Shanked)', #113 ) ;
#38 = ORIENTED_EDGE ( 'NONE', *, *, #133, .T. ) ;
#39 =( CONVERSION_BASED_UNIT ( 'INCH', #14 ) LENGTH_UNIT ( ) NAMED_UNIT ( #117 ) );
#40 = ORIENTED_EDGE ( 'NONE', *, *, #301, .F. ) ;
#41 =( GEOMETRIC_REPRESENTATION_CONTEXT ( 3 ) GLOBAL_UNCERTAINTY_ASSIGNED_CONTEXT ( ( #178 ) ) GLOBAL_UNIT_ASSIGNED_CONTEXT ( ( #23, #142, #252 ) ) REPRESENTATION_CONTEXT ( 'NONE', 'WORKASPACE' ) );
#42 = EDGE_CURVE ( 'NONE', #131, #16, #54, .T. ) ;
#43 = CARTESIAN_POINT ( 'NONE',  ( 0.1562500000000000000, 4.000000000000000000, 0.000000000000000000 ) ) ;
#44 = CARTESIAN_POINT ( 'NONE',  ( 1.913510623667739463E-17, 0.000000000000000000, 0.1562500000000000000 ) ) ;
#45 = STYLED_ITEM ( 'NONE', ( #100 ), #37 ) ;
#46 = CARTESIAN_POINT ( 'NONE',  ( 0.000000000000000000, 0.000000000000000000, 0.000000000000000000 ) ) ;
#47 = EDGE_CURVE ( 'NONE', #249, #16, #269, .T. ) ;
#48 = FILL_AREA_STYLE ('',( #22 ) ) ;
#49 = FILL_AREA_STYLE_COLOUR ( '', #130 ) ;
#50 = MECHANICAL_DESIGN_GEOMETRIC_PRESENTATION_REPRESENTATION (  '', ( #232 ), #284 ) ;
#51 = DIMENSIONAL_EXPONENTS ( 1.000000000000000000, 0.000000000000000000, 0.000000000000000000, 0.000000000000000000, 0.000000000000000000, 0.000000000000000000, 0.000000000000000000 ) ;
#52 = DIRECTION ( 'NONE',  ( -1.000000000000000000, 0.000000000000000000, 0.000000000000000000 ) ) ;
#53 = FACE_OUTER_BOUND ( 'NONE', #300, .T. ) ;
#54 = CIRCLE ( 'NONE', #109, 0.1562500000000000000 ) ;
#55 = PRODUCT_DEFINITION_CONTEXT ( 'detailed design', #222, 'design' ) ;
#56 = AXIS2_PLACEMENT_3D ( 'NONE', #239, #24, #259 ) ;
#57 = CYLINDRICAL_SURFACE ( 'NONE', #286, 0.1562500000000000000 ) ;
#58 = CLOSED_SHELL ( 'NONE', ( #216, #168, #214, #303 ) ) ;
#59 = AXIS2_PLACEMENT_3D ( 'NONE', #197, #123, #241 ) ;
#60 = ORIENTED_EDGE ( 'NONE', *, *, #119, .F. ) ;
#61 = ORIENTED_EDGE ( 'NONE', *, *, #229, .T. ) ;
#62 = DIRECTION ( 'NONE',  ( -6.531449595452546658E-17, 1.000000000000000000, -0.000000000000000000 ) ) ;
#63 = PRESENTATION_STYLE_ASSIGNMENT (( #185 ) ) ;
#64 =( LENGTH_UNIT ( ) NAMED_UNIT ( * ) SI_UNIT ( $, .METRE. ) );
#65 = COLOUR_RGB ( '',1.000000000000000000, 0.000000000000000000, 0.000000000000000000 ) ;
#66 =( LENGTH_UNIT ( ) NAMED_UNIT ( * ) SI_UNIT ( $, .METRE. ) );
#67 = MECHANICAL_DESIGN_GEOMETRIC_PRESENTATION_REPRESENTATION (  '', ( #99 ), #251 ) ;
#68 =( LENGTH_UNIT ( ) NAMED_UNIT ( * ) SI_UNIT ( $, .METRE. ) );
#69 =( CONVERSION_BASED_UNIT ( 'INCH', #25 ) LENGTH_UNIT ( ) NAMED_UNIT ( #219 ) );
#70 =( CONVERSION_BASED_UNIT ( 'INCH', #266 ) LENGTH_UNIT ( ) NAMED_UNIT ( #261 ) );
#71 = LENGTH_MEASURE_WITH_UNIT ( LENGTH_MEASURE( 0.02539999999999999897 ), #196 );
#72 = LENGTH_MEASURE_WITH_UNIT ( LENGTH_MEASURE( 0.02539999999999999897 ), #221 );
#73 = APPLICATION_PROTOCOL_DEFINITION ( 'draft international standard', 'automotive_design', 1998, #222 ) ;
#74 = FILL_AREA_STYLE_COLOUR ( '', #225 ) ;
#75 =( CONVERSION_BASED_UNIT ( 'INCH', #246 ) LENGTH_UNIT ( ) NAMED_UNIT ( #51 ) );
#76 = DIRECTION ( 'NONE',  ( -1.000000000000000000, 0.000000000000000000, 0.000000000000000000 ) ) ;
#77 = PRESENTATION_LAYER_ASSIGNMENT (  '', '', ( #99 ) ) ;
#78 =( NAMED_UNIT ( * ) PLANE_ANGLE_UNIT ( ) SI_UNIT ( $, .RADIAN. ) );
#79 = ORIENTED_EDGE ( 'NONE', *, *, #47, .F. ) ;
#80 = UNCERTAINTY_MEASURE_WITH_UNIT (LENGTH_MEASURE( 1.000000000000000082E-05 ), #126, 'distance_accuracy_value', 'NONE');
#81 = SURFACE_SIDE_STYLE ('',( #226 ) ) ;
#82 = VECTOR ( 'NONE', #62, 39.37007874015748143 ) ;
#83 = PRODUCT_DEFINITION_SHAPE ( 'NONE', 'NONE',  #101 ) ;
#84 = ORIENTED_EDGE ( 'NONE', *, *, #42, .T. ) ;
#85 = CARTESIAN_POINT ( 'NONE',  ( -1.224646799147352714E-16, 4.000000000000000000, 0.000000000000000000 ) ) ;
#86 = ORIENTED_EDGE ( 'NONE', *, *, #15, .T. ) ;
#87 = DIRECTION ( 'NONE',  ( -0.000000000000000000, -1.000000000000000000, -0.000000000000000000 ) ) ;
#88 = EDGE_LOOP ( 'NONE', ( #230, #107 ) ) ;
#89 = SURFACE_SIDE_STYLE ('',( #308 ) ) ;
#90 = PLANE ( 'NONE',  #116 ) ;
#91 = LINE ( 'NONE', #276, #82 ) ;
#92 = CARTESIAN_POINT ( 'NONE',  ( 0.000000000000000000, 2.125000000000000000, -0.1562500000000000000 ) ) ;
#93 = FACE_OUTER_BOUND ( 'NONE', #88, .T. ) ;
#94 = DIRECTION ( 'NONE',  ( -1.000000000000000000, -6.531449595452546658E-17, 0.000000000000000000 ) ) ;
#95 = AXIS2_PLACEMENT_3D ( 'NONE', #103, #198, #76 ) ;
#96 = CARTESIAN_POINT ( 'NONE',  ( 0.1562500000000000000, 2.125000000000000000, 1.913510623667740388E-17 ) ) ;
#97 = DIRECTION ( 'NONE',  ( 6.531449595452546658E-17, -1.000000000000000000, 0.000000000000000000 ) ) ;
#98 = SURFACE_STYLE_FILL_AREA ( #121 ) ;
#99 = STYLED_ITEM ( 'NONE', ( #30 ), #214 ) ;
#100 = PRESENTATION_STYLE_ASSIGNMENT (( #11 ) ) ;
#101 = PRODUCT_DEFINITION ( 'UNKNOWN', '', #138, #55 ) ;
#102 = ADVANCED_FACE ( 'NONE', ( #32 ), #224, .T. ) ;
#103 = CARTESIAN_POINT ( 'NONE',  ( -1.224646799147352714E-16, 4.000000000000000000, 0.000000000000000000 ) ) ;
#104 =( NAMED_UNIT ( * ) PLANE_ANGLE_UNIT ( ) SI_UNIT ( $, .RADIAN. ) );
#105 = CIRCLE ( 'NONE', #218, 0.1562500000000001388 ) ;
#106 = PRESENTATION_LAYER_ASSIGNMENT (  '', '', ( #213 ) ) ;
#107 = ORIENTED_EDGE ( 'NONE', *, *, #137, .F. ) ;
#108 = ORIENTED_EDGE ( 'NONE', *, *, #199, .T. ) ;
#109 = AXIS2_PLACEMENT_3D ( 'NONE', #288, #293, #150 ) ;
#110 = AXIS2_PLACEMENT_3D ( 'NONE', #43, #97, #191 ) ;
#111 = CYLINDRICAL_SURFACE ( 'NONE', #202, 0.1562500000000000000 ) ;
#112 = VERTEX_POINT ( 'NONE', #151 ) ;
#113 = CLOSED_SHELL ( 'NONE', ( #195, #236, #102, #240 ) ) ;
#114 = FILL_AREA_STYLE ('',( #49 ) ) ;
#115 = CARTESIAN_POINT ( 'NONE',  ( 3.332799517026346248E-34, 2.125000000000000000, 0.000000000000000000 ) ) ;
#116 = AXIS2_PLACEMENT_3D ( 'NONE', #186, #280, #163 ) ;
#117 = DIMENSIONAL_EXPONENTS ( 1.000000000000000000, 0.000000000000000000, 0.000000000000000000, 0.000000000000000000, 0.000000000000000000, 0.000000000000000000, 0.000000000000000000 ) ;
#118 = COLOUR_RGB ( '',1.000000000000000000, 0.000000000000000000, 0.000000000000000000 ) ;
#119 = EDGE_CURVE ( 'NONE', #180, #210, #294, .T. ) ;
#120 = SHAPE_DEFINITION_REPRESENTATION ( #83, #253 ) ;
#121 = FILL_AREA_STYLE ('',( #9 ) ) ;
#122 = FILL_AREA_STYLE ('',( #74 ) ) ;
#123 = DIRECTION ( 'NONE',  ( 0.000000000000000000, -1.000000000000000000, -0.000000000000000000 ) ) ;
#124 = SURFACE_SIDE_STYLE ('',( #29 ) ) ;
#125 =( GEOMETRIC_REPRESENTATION_CONTEXT ( 3 ) GLOBAL_UNCERTAINTY_ASSIGNED_CONTEXT ( ( #245 ) ) GLOBAL_UNIT_ASSIGNED_CONTEXT ( ( #70, #264, #173 ) ) REPRESENTATION_CONTEXT ( 'NONE', 'WORKASPACE' ) );
#126 =( CONVERSION_BASED_UNIT ( 'INCH', #72 ) LENGTH_UNIT ( ) NAMED_UNIT ( #203 ) );
#127 = DIRECTION ( 'NONE',  ( 0.000000000000000000, 0.000000000000000000, 1.000000000000000000 ) ) ;
#128 = DIRECTION ( 'NONE',  ( 0.000000000000000000, 0.000000000000000000, -1.000000000000000000 ) ) ;
#129 = AXIS2_PLACEMENT_3D ( 'NONE', #233, #143, #258 ) ;
#130 = COLOUR_RGB ( '',1.000000000000000000, 0.000000000000000000, 0.000000000000000000 ) ;
#131 = VERTEX_POINT ( 'NONE', #193 ) ;
#132 = VERTEX_POINT ( 'NONE', #285 ) ;
#133 = EDGE_CURVE ( 'NONE', #180, #132, #182, .T. ) ;
#134 = LINE ( 'NONE', #44, #27 ) ;
#135 = EDGE_LOOP ( 'NONE', ( #86, #205 ) ) ;
#136 =( GEOMETRIC_REPRESENTATION_CONTEXT ( 3 ) GLOBAL_UNCERTAINTY_ASSIGNED_CONTEXT ( ( #80 ) ) GLOBAL_UNIT_ASSIGNED_CONTEXT ( ( #126, #78, #267 ) ) REPRESENTATION_CONTEXT ( 'NONE', 'WORKASPACE' ) );
#137 = EDGE_CURVE ( 'NONE', #112, #249, #223, .T. ) ;
#138 = PRODUCT_DEFINITION_FORMATION_WITH_SPECIFIED_SOURCE ( 'ANY', '', #34, .NOT_KNOWN. ) ;
#139 = SURFACE_STYLE_USAGE ( .BOTH. , #260 ) ;
#140 = SURFACE_STYLE_FILL_AREA ( #161 ) ;
#141 = PLANE ( 'NONE',  #110 ) ;
#142 =( NAMED_UNIT ( * ) PLANE_ANGLE_UNIT ( ) SI_UNIT ( $, .RADIAN. ) );
#143 = DIRECTION ( 'NONE',  ( -0.000000000000000000, -1.000000000000000000, -0.000000000000000000 ) ) ;
#144 = COLOUR_RGB ( '',0.7921568627450980005, 0.8196078431372548767, 0.9333333333333333481 ) ;
#145 = DIMENSIONAL_EXPONENTS ( 1.000000000000000000, 0.000000000000000000, 0.000000000000000000, 0.000000000000000000, 0.000000000000000000, 0.000000000000000000, 0.000000000000000000 ) ;
#146 = DIRECTION ( 'NONE',  ( 1.000000000000000000, 0.000000000000000000, 0.000000000000000000 ) ) ;
#147 = CARTESIAN_POINT ( 'NONE',  ( -0.1562500000000000000, 2.125000000000000000, 0.000000000000000000 ) ) ;
#148 =( LENGTH_UNIT ( ) NAMED_UNIT ( * ) SI_UNIT ( $, .METRE. ) );
#149 = STYLED_ITEM ( 'NONE', ( #167 ), #168 ) ;
#150 = DIRECTION ( 'NONE',  ( 0.000000000000000000, 0.000000000000000000, -1.000000000000000000 ) ) ;
#151 = CARTESIAN_POINT ( 'NONE',  ( 1.913510623667739463E-17, 2.125000000000000000, 0.1562500000000000000 ) ) ;
#152 = CARTESIAN_POINT ( 'NONE',  ( 0.1562499999999999445, 4.000000000000000000, 1.913510623667740080E-17 ) ) ;
#153 = ORIENTED_EDGE ( 'NONE', *, *, #133, .F. ) ;
#154 = EDGE_CURVE ( 'NONE', #210, #209, #91, .T. ) ;
#155 = ORIENTED_EDGE ( 'NONE', *, *, #20, .F. ) ;
#156 = ORIENTED_EDGE ( 'NONE', *, *, #47, .T. ) ;
#157 = UNCERTAINTY_MEASURE_WITH_UNIT (LENGTH_MEASURE( 1.000000000000000082E-05 ), #69, 'distance_accuracy_value', 'NONE');
#158 = AXIS2_PLACEMENT_3D ( 'NONE', #21, #192, #176 ) ;
#159 = CIRCLE ( 'NONE', #200, 0.1562500000000000000 ) ;
#160 = PRESENTATION_LAYER_ASSIGNMENT (  '', '', ( #296 ) ) ;
#161 = FILL_AREA_STYLE ('',( #166 ) ) ;
#162 = EDGE_LOOP ( 'NONE', ( #153, #278, #299, #155 ) ) ;
#163 = DIRECTION ( 'NONE',  ( 0.000000000000000000, -0.000000000000000000, 1.000000000000000000 ) ) ;
#164 = EDGE_CURVE ( 'NONE', #16, #131, #172, .T. ) ;
#165 =( NAMED_UNIT ( * ) SI_UNIT ( $, .STERADIAN. ) SOLID_ANGLE_UNIT ( ) );
#166 = FILL_AREA_STYLE_COLOUR ( '', #65 ) ;
#167 = PRESENTATION_STYLE_ASSIGNMENT (( #238 ) ) ;
#168 = ADVANCED_FACE ( 'NONE', ( #93 ), #90, .T. ) ;
#169 = CARTESIAN_POINT ( 'NONE',  ( 0.000000000000000000, 0.000000000000000000, 0.000000000000000000 ) ) ;
#170 =( NAMED_UNIT ( * ) SI_UNIT ( $, .STERADIAN. ) SOLID_ANGLE_UNIT ( ) );
#171 = DIRECTION ( 'NONE',  ( -6.531449595452546658E-17, 1.000000000000000000, -0.000000000000000000 ) ) ;
#172 = CIRCLE ( 'NONE', #26, 0.1562500000000000000 ) ;
#173 =( NAMED_UNIT ( * ) SI_UNIT ( $, .STERADIAN. ) SOLID_ANGLE_UNIT ( ) );
#174 =( GEOMETRIC_REPRESENTATION_CONTEXT ( 3 ) GLOBAL_UNCERTAINTY_ASSIGNED_CONTEXT ( ( #305 ) ) GLOBAL_UNIT_ASSIGNED_CONTEXT ( ( #10, #104, #292 ) ) REPRESENTATION_CONTEXT ( 'NONE', 'WORKASPACE' ) );
#175 = CARTESIAN_POINT ( 'NONE',  ( 0.000000000000000000, 2.125000000000000000, 0.000000000000000000 ) ) ;
#176 = DIRECTION ( 'NONE',  ( -1.000000000000000000, 0.000000000000000000, 0.000000000000000000 ) ) ;
#177 = SURFACE_SIDE_STYLE ('',( #98 ) ) ;
#178 = UNCERTAINTY_MEASURE_WITH_UNIT (LENGTH_MEASURE( 1.000000000000000082E-05 ), #23, 'distance_accuracy_value', 'NONE');
#179 = DIRECTION ( 'NONE',  ( -6.531449595452546658E-17, 1.000000000000000000, -0.000000000000000000 ) ) ;
#180 = VERTEX_POINT ( 'NONE', #96 ) ;
#181 = FILL_AREA_STYLE ('',( #270 ) ) ;
#182 = LINE ( 'NONE', #152, #8 ) ;
#183 = ORIENTED_EDGE ( 'NONE', *, *, #15, .F. ) ;
#184 = VECTOR ( 'NONE', #244, 39.37007874015748143 ) ;
#185 = SURFACE_STYLE_USAGE ( .BOTH. , #89 ) ;
#186 = CARTESIAN_POINT ( 'NONE',  ( 0.000000000000000000, 2.125000000000000000, 0.000000000000000000 ) ) ;
#187 = CARTESIAN_POINT ( 'NONE',  ( 0.000000000000000000, 0.000000000000000000, -0.1562500000000000000 ) ) ;
#188 = CIRCLE ( 'NONE', #206, 0.1562500000000001388 ) ;
#189 =( NAMED_UNIT ( * ) PLANE_ANGLE_UNIT ( ) SI_UNIT ( $, .RADIAN. ) );
#190 = FACE_OUTER_BOUND ( 'NONE', #12, .T. ) ;
#191 = DIRECTION ( 'NONE',  ( 1.000000000000000000, 6.531449595452546658E-17, 0.000000000000000000 ) ) ;
#192 = DIRECTION ( 'NONE',  ( -6.531449595452546658E-17, 1.000000000000000000, -0.000000000000000000 ) ) ;
#193 = CARTESIAN_POINT ( 'NONE',  ( 1.913510623667739463E-17, 0.000000000000000000, 0.1562500000000000000 ) ) ;
#194 = AXIS2_PLACEMENT_3D ( 'NONE', #115, #255, #94 ) ;
#195 = ADVANCED_FACE ( 'NONE', ( #190 ), #256, .T. ) ;
#196 =( LENGTH_UNIT ( ) NAMED_UNIT ( * ) SI_UNIT ( $, .METRE. ) );
#197 = CARTESIAN_POINT ( 'NONE',  ( 0.000000000000000000, 0.000000000000000000, 0.000000000000000000 ) ) ;
#198 = DIRECTION ( 'NONE',  ( -6.531449595452546658E-17, 1.000000000000000000, -0.000000000000000000 ) ) ;
#199 = EDGE_CURVE ( 'NONE', #210, #180, #159, .T. ) ;
#200 = AXIS2_PLACEMENT_3D ( 'NONE', #175, #265, #52 ) ;
#201 = MECHANICAL_DESIGN_GEOMETRIC_PRESENTATION_REPRESENTATION (  '', ( #296 ), #125 ) ;
#202 = AXIS2_PLACEMENT_3D ( 'NONE', #227, #87, #128 ) ;
#203 = DIMENSIONAL_EXPONENTS ( 1.000000000000000000, 0.000000000000000000, 0.000000000000000000, 0.000000000000000000, 0.000000000000000000, 0.000000000000000000, 0.000000000000000000 ) ;
#204 = SURFACE_STYLE_USAGE ( .BOTH. , #81 ) ;
#205 = ORIENTED_EDGE ( 'NONE', *, *, #20, .T. ) ;
#206 = AXIS2_PLACEMENT_3D ( 'NONE', #283, #171, #1 ) ;
#207 =( GEOMETRIC_REPRESENTATION_CONTEXT ( 3 ) GLOBAL_UNCERTAINTY_ASSIGNED_CONTEXT ( ( #274 ) ) GLOBAL_UNIT_ASSIGNED_CONTEXT ( ( #39, #235, #165 ) ) REPRESENTATION_CONTEXT ( 'NONE', 'WORKASPACE' ) );
#208 = FACE_OUTER_BOUND ( 'NONE', #254, .T. ) ;
#209 = VERTEX_POINT ( 'NONE', #289 ) ;
#210 = VERTEX_POINT ( 'NONE', #147 ) ;
#211 = FACE_OUTER_BOUND ( 'NONE', #271, .T. ) ;
#212 = PRESENTATION_LAYER_ASSIGNMENT (  '', '', ( #45 ) ) ;
#213 = STYLED_ITEM ( 'NONE', ( #298 ), #216 ) ;
#214 = ADVANCED_FACE ( 'NONE', ( #53 ), #111, .T. ) ;
#215 = FACE_OUTER_BOUND ( 'NONE', #135, .T. ) ;
#216 = ADVANCED_FACE ( 'NONE', ( #208 ), #57, .T. ) ;
#217 = PLANE ( 'NONE',  #59 ) ;
#218 = AXIS2_PLACEMENT_3D ( 'NONE', #85, #179, #273 ) ;
#219 = DIMENSIONAL_EXPONENTS ( 1.000000000000000000, 0.000000000000000000, 0.000000000000000000, 0.000000000000000000, 0.000000000000000000, 0.000000000000000000, 0.000000000000000000 ) ;
#220 = DIRECTION ( 'NONE',  ( -6.531449595452546658E-17, 1.000000000000000000, -0.000000000000000000 ) ) ;
#221 =( LENGTH_UNIT ( ) NAMED_UNIT ( * ) SI_UNIT ( $, .METRE. ) );
#222 = APPLICATION_CONTEXT ( 'automotive_design' ) ;
#223 = CIRCLE ( 'NONE', #129, 0.1562500000000000000 ) ;
#224 = CYLINDRICAL_SURFACE ( 'NONE', #95, 0.1562500000000000833 ) ;
#225 = COLOUR_RGB ( '',0.7921568627450980005, 0.8196078431372548767, 0.9333333333333333481 ) ;
#226 = SURFACE_STYLE_FILL_AREA ( #181 ) ;
#227 = CARTESIAN_POINT ( 'NONE',  ( 0.000000000000000000, 0.000000000000000000, 0.000000000000000000 ) ) ;
#228 = ORIENTED_EDGE ( 'NONE', *, *, #154, .F. ) ;
#229 = EDGE_CURVE ( 'NONE', #249, #112, #28, .T. ) ;
#230 = ORIENTED_EDGE ( 'NONE', *, *, #229, .F. ) ;
#231 = PRESENTATION_LAYER_ASSIGNMENT (  '', '', ( #149 ) ) ;
#232 = STYLED_ITEM ( 'NONE', ( #237 ), #242 ) ;
#233 = CARTESIAN_POINT ( 'NONE',  ( 0.000000000000000000, 2.125000000000000000, 0.000000000000000000 ) ) ;
#234 =( NAMED_UNIT ( * ) PLANE_ANGLE_UNIT ( ) SI_UNIT ( $, .RADIAN. ) );
#235 =( NAMED_UNIT ( * ) PLANE_ANGLE_UNIT ( ) SI_UNIT ( $, .RADIAN. ) );
#236 = ADVANCED_FACE ( 'NONE', ( #279 ), #257, .F. ) ;
#237 = PRESENTATION_STYLE_ASSIGNMENT (( #139 ) ) ;
#238 = SURFACE_STYLE_USAGE ( .BOTH. , #4 ) ;
#239 = CARTESIAN_POINT ( 'NONE',  ( 0.000000000000000000, 2.125000000000000000, 0.000000000000000000 ) ) ;
#240 = ADVANCED_FACE ( 'NONE', ( #215 ), #141, .F. ) ;
#241 = DIRECTION ( 'NONE',  ( 0.000000000000000000, 0.000000000000000000, -1.000000000000000000 ) ) ;
#242 = MANIFOLD_SOLID_BREP ( 'Revolve - Cutting Edge', #58 ) ;
#243 = COLOUR_RGB ( '',1.000000000000000000, 0.000000000000000000, 0.000000000000000000 ) ;
#244 = DIRECTION ( 'NONE',  ( -0.000000000000000000, -1.000000000000000000, -0.000000000000000000 ) ) ;
#245 = UNCERTAINTY_MEASURE_WITH_UNIT (LENGTH_MEASURE( 1.000000000000000082E-05 ), #70, 'distance_accuracy_value', 'NONE');
#246 = LENGTH_MEASURE_WITH_UNIT ( LENGTH_MEASURE( 0.02539999999999999897 ), #148 );
#247 = UNCERTAINTY_MEASURE_WITH_UNIT (LENGTH_MEASURE( 1.000000000000000082E-05 ), #75, 'distance_accuracy_value', 'NONE');
#248 = EDGE_LOOP ( 'NONE', ( #297, #60 ) ) ;
#249 = VERTEX_POINT ( 'NONE', #92 ) ;
#250 = ORIENTED_EDGE ( 'NONE', *, *, #42, .F. ) ;
#251 =( GEOMETRIC_REPRESENTATION_CONTEXT ( 3 ) GLOBAL_UNCERTAINTY_ASSIGNED_CONTEXT ( ( #247 ) ) GLOBAL_UNIT_ASSIGNED_CONTEXT ( ( #75, #234, #306 ) ) REPRESENTATION_CONTEXT ( 'NONE', 'WORKASPACE' ) );
#252 =( NAMED_UNIT ( * ) SI_UNIT ( $, .STERADIAN. ) SOLID_ANGLE_UNIT ( ) );
#253 = ADVANCED_BREP_SHAPE_REPRESENTATION ( '03300', ( #242, #37, #36 ), #174 ) ;
#254 = EDGE_LOOP ( 'NONE', ( #61, #17, #307, #79 ) ) ;
#255 = DIRECTION ( 'NONE',  ( -6.531449595452546658E-17, 1.000000000000000000, 0.000000000000000000 ) ) ;
#256 = CYLINDRICAL_SURFACE ( 'NONE', #158, 0.1562500000000000833 ) ;
#257 = PLANE ( 'NONE',  #194 ) ;
#258 = DIRECTION ( 'NONE',  ( 0.000000000000000000, 0.000000000000000000, -1.000000000000000000 ) ) ;
#259 = DIRECTION ( 'NONE',  ( 0.000000000000000000, 0.000000000000000000, -1.000000000000000000 ) ) ;
#260 = SURFACE_SIDE_STYLE ('',( #18 ) ) ;
#261 = DIMENSIONAL_EXPONENTS ( 1.000000000000000000, 0.000000000000000000, 0.000000000000000000, 0.000000000000000000, 0.000000000000000000, 0.000000000000000000, 0.000000000000000000 ) ;
#262 = AXIS2_PLACEMENT_3D ( 'NONE', #35, #220, #7 ) ;
#263 = PRESENTATION_LAYER_ASSIGNMENT (  '', '', ( #232 ) ) ;
#264 =( NAMED_UNIT ( * ) PLANE_ANGLE_UNIT ( ) SI_UNIT ( $, .RADIAN. ) );
#265 = DIRECTION ( 'NONE',  ( -6.531449595452546658E-17, 1.000000000000000000, -0.000000000000000000 ) ) ;
#266 = LENGTH_MEASURE_WITH_UNIT ( LENGTH_MEASURE( 0.02539999999999999897 ), #64 );
#267 =( NAMED_UNIT ( * ) SI_UNIT ( $, .STERADIAN. ) SOLID_ANGLE_UNIT ( ) );
#268 = MECHANICAL_DESIGN_GEOMETRIC_PRESENTATION_REPRESENTATION (  '', ( #149 ), #41 ) ;
#269 = LINE ( 'NONE', #291, #184 ) ;
#270 = FILL_AREA_STYLE_COLOUR ( '', #118 ) ;
#271 = EDGE_LOOP ( 'NONE', ( #304, #84 ) ) ;
#272 =( LENGTH_UNIT ( ) NAMED_UNIT ( * ) SI_UNIT ( $, .METRE. ) );
#273 = DIRECTION ( 'NONE',  ( -1.000000000000000000, 0.000000000000000000, 0.000000000000000000 ) ) ;
#274 = UNCERTAINTY_MEASURE_WITH_UNIT (LENGTH_MEASURE( 1.000000000000000082E-05 ), #39, 'distance_accuracy_value', 'NONE');
#275 = ORIENTED_EDGE ( 'NONE', *, *, #137, .T. ) ;
#276 = CARTESIAN_POINT ( 'NONE',  ( -0.1562500000000002220, 4.000000000000000000, 0.000000000000000000 ) ) ;
#277 = MECHANICAL_DESIGN_GEOMETRIC_PRESENTATION_REPRESENTATION (  '', ( #213 ), #207 ) ;
#278 = ORIENTED_EDGE ( 'NONE', *, *, #119, .T. ) ;
#279 = FACE_OUTER_BOUND ( 'NONE', #248, .T. ) ;
#280 = DIRECTION ( 'NONE',  ( 0.000000000000000000, 1.000000000000000000, 0.000000000000000000 ) ) ;
#281 = DIRECTION ( 'NONE',  ( -0.000000000000000000, -1.000000000000000000, -0.000000000000000000 ) ) ;
#282 = DIRECTION ( 'NONE',  ( -0.000000000000000000, -1.000000000000000000, -0.000000000000000000 ) ) ;
#283 = CARTESIAN_POINT ( 'NONE',  ( -1.224646799147352714E-16, 4.000000000000000000, 0.000000000000000000 ) ) ;
#284 =( GEOMETRIC_REPRESENTATION_CONTEXT ( 3 ) GLOBAL_UNCERTAINTY_ASSIGNED_CONTEXT ( ( #157 ) ) GLOBAL_UNIT_ASSIGNED_CONTEXT ( ( #69, #189, #170 ) ) REPRESENTATION_CONTEXT ( 'NONE', 'WORKASPACE' ) );
#285 = CARTESIAN_POINT ( 'NONE',  ( 0.1562500000000000000, 4.000000000000000000, 1.913510623667740388E-17 ) ) ;
#286 = AXIS2_PLACEMENT_3D ( 'NONE', #169, #281, #6 ) ;
#287 = SURFACE_STYLE_USAGE ( .BOTH. , #177 ) ;
#288 = CARTESIAN_POINT ( 'NONE',  ( 0.000000000000000000, 0.000000000000000000, 0.000000000000000000 ) ) ;
#289 = CARTESIAN_POINT ( 'NONE',  ( -0.1562500000000002776, 4.000000000000000000, 0.000000000000000000 ) ) ;
#290 = DIMENSIONAL_EXPONENTS ( 1.000000000000000000, 0.000000000000000000, 0.000000000000000000, 0.000000000000000000, 0.000000000000000000, 0.000000000000000000, 0.000000000000000000 ) ;
#291 = CARTESIAN_POINT ( 'NONE',  ( 0.000000000000000000, 0.000000000000000000, -0.1562500000000000000 ) ) ;
#292 =( NAMED_UNIT ( * ) SI_UNIT ( $, .STERADIAN. ) SOLID_ANGLE_UNIT ( ) );
#293 = DIRECTION ( 'NONE',  ( -0.000000000000000000, -1.000000000000000000, -0.000000000000000000 ) ) ;
#294 = CIRCLE ( 'NONE', #262, 0.1562500000000000000 ) ;
#295 = PRODUCT_CONTEXT ( 'NONE', #13, 'mechanical' ) ;
#296 = STYLED_ITEM ( 'NONE', ( #63 ), #303 ) ;
#297 = ORIENTED_EDGE ( 'NONE', *, *, #199, .F. ) ;
#298 = PRESENTATION_STYLE_ASSIGNMENT (( #204 ) ) ;
#299 = ORIENTED_EDGE ( 'NONE', *, *, #154, .T. ) ;
#300 = EDGE_LOOP ( 'NONE', ( #40, #275, #156, #250 ) ) ;
#301 = EDGE_CURVE ( 'NONE', #112, #131, #134, .T. ) ;
#302 = DIRECTION ( 'NONE',  ( -6.531449595452546658E-17, 1.000000000000000000, -0.000000000000000000 ) ) ;
#303 = ADVANCED_FACE ( 'NONE', ( #211 ), #217, .T. ) ;
#304 = ORIENTED_EDGE ( 'NONE', *, *, #164, .T. ) ;
#305 = UNCERTAINTY_MEASURE_WITH_UNIT (LENGTH_MEASURE( 1.000000000000000082E-05 ), #10, 'distance_accuracy_value', 'NONE');
#306 =( NAMED_UNIT ( * ) SI_UNIT ( $, .STERADIAN. ) SOLID_ANGLE_UNIT ( ) );
#307 = ORIENTED_EDGE ( 'NONE', *, *, #164, .F. ) ;
#308 = SURFACE_STYLE_FILL_AREA ( #114 ) ;
#309 = MECHANICAL_DESIGN_GEOMETRIC_PRESENTATION_REPRESENTATION (  '', ( #45 ), #136 ) ;
ENDSEC;
END-ISO-10303-21;
