ISO-10303-21;
HEADER;
FILE_DESCRIPTION (( 'STEP AP214' ),
    '1' );
FILE_NAME ('Micro_RNCM-060-1.STEP',
    '2021-09-03T17:41:26',
    ( '' ),
    ( '' ),
    'SwSTEP 2.0',
    'SolidWorks 2020',
    '' );
FILE_SCHEMA (( 'AUTOMOTIVE_DESIGN' ));
ENDSEC;

DATA;
#1 = AXIS2_PLACEMENT_3D ( 'NONE', #110, #33, #179 ) ;
#2 = EDGE_CURVE ( 'NONE', #18, #220, #237, .T. ) ;
#3 = CIRCLE ( 'NONE', #176, 0.1031100000000002570 ) ;
#4 = EDGE_CURVE ( 'NONE', #203, #69, #146, .T. ) ;
#5 = ORIENTED_EDGE ( 'NONE', *, *, #191, .F. ) ;
#6 = AXIS2_PLACEMENT_3D ( 'NONE', #165, #16, #43 ) ;
#7 = CARTESIAN_POINT ( 'NONE',  ( 0.0000000000000000000, 0.0000000000000000000, 2.244094000000000033 ) ) ;
#8 = PRODUCT_RELATED_PRODUCT_CATEGORY ( 'part', '', ( #21 ) ) ;
#9 = CARTESIAN_POINT ( 'NONE',  ( -0.003936999999999995191, 7.473223394776851115E-18, 0.0000000000000000000 ) ) ;
#10 = APPLICATION_PROTOCOL_DEFINITION ( 'draft international standard', 'automotive_design', 1998, #192 ) ;
#11 = FILL_AREA_STYLE ('',( #62 ) ) ;
#12 = FACE_OUTER_BOUND ( 'NONE', #185, .T. ) ;
#13 = VECTOR ( 'NONE', #190, 39.37007874015748143 ) ;
#14 = DIMENSIONAL_EXPONENTS ( 1.000000000000000000, 0.0000000000000000000, 0.0000000000000000000, 0.0000000000000000000, 0.0000000000000000000, 0.0000000000000000000, 0.0000000000000000000 ) ;
#15 = CARTESIAN_POINT ( 'NONE',  ( 0.0000000000000000000, 0.0000000000000000000, 2.244094000000000033 ) ) ;
#16 = DIRECTION ( 'NONE',  ( -0.0000000000000000000, -0.0000000000000000000, -1.000000000000000000 ) ) ;
#17 = DIRECTION ( 'NONE',  ( -0.7071067811865490160, 8.659560562354951347E-17, 0.7071067811865460184 ) ) ;
#18 = VERTEX_POINT ( 'NONE', #166 ) ;
#19 = ORIENTED_EDGE ( 'NONE', *, *, #57, .F. ) ;
#20 = ORIENTED_EDGE ( 'NONE', *, *, #4, .T. ) ;
#21 = PRODUCT ( 'Micro_RNCM-060-1', 'Micro_RNCM-060-1', '', ( #159 ) ) ;
#22 = ADVANCED_FACE ( 'NONE', ( #12 ), #137, .T. ) ;
#23 = VECTOR ( 'NONE', #107, 39.37007874015748143 ) ;
#24 = LINE ( 'NONE', #106, #231 ) ;
#25 = ADVANCED_FACE ( 'NONE', ( #219 ), #89, .T. ) ;
#26 = AXIS2_PLACEMENT_3D ( 'NONE', #84, #223, #66 ) ;
#27 = DIRECTION ( 'NONE',  ( -1.000000000000000000, 0.0000000000000000000, 0.0000000000000000000 ) ) ;
#28 = CYLINDRICAL_SURFACE ( 'NONE', #1, 0.1181100000000000066 ) ;
#29 = ADVANCED_FACE ( 'NONE', ( #61 ), #117, .T. ) ;
#30 = LINE ( 'NONE', #56, #13 ) ;
#31 = CARTESIAN_POINT ( 'NONE',  ( 0.0000000000000000000, 0.0000000000000000000, 0.0000000000000000000 ) ) ;
#32 = AXIS2_PLACEMENT_3D ( 'NONE', #129, #145, #195 ) ;
#33 = DIRECTION ( 'NONE',  ( -0.0000000000000000000, -0.0000000000000000000, -1.000000000000000000 ) ) ;
#34 = ORIENTED_EDGE ( 'NONE', *, *, #236, .F. ) ;
#35 = DIMENSIONAL_EXPONENTS ( 1.000000000000000000, 0.0000000000000000000, 0.0000000000000000000, 0.0000000000000000000, 0.0000000000000000000, 0.0000000000000000000, 0.0000000000000000000 ) ;
#36 = LENGTH_MEASURE_WITH_UNIT ( LENGTH_MEASURE( 0.02539999999999999897 ), #78 );
#37 = EDGE_CURVE ( 'NONE', #69, #203, #154, .T. ) ;
#38 = CIRCLE ( 'NONE', #199, 0.1181100000000000066 ) ;
#39 = UNCERTAINTY_MEASURE_WITH_UNIT (LENGTH_MEASURE( 1.000000000000000082E-05 ), #161, 'distance_accuracy_value', 'NONE');
#40 = EDGE_LOOP ( 'NONE', ( #204, #86 ) ) ;
#41 = SURFACE_STYLE_USAGE ( .BOTH. , #85 ) ;
#42 = DIRECTION ( 'NONE',  ( 0.0000000000000000000, 0.0000000000000000000, 1.000000000000000000 ) ) ;
#43 = DIRECTION ( 'NONE',  ( -1.000000000000000000, 0.0000000000000000000, 0.0000000000000000000 ) ) ;
#44 = EDGE_LOOP ( 'NONE', ( #34, #225, #162, #124 ) ) ;
#45 = DIRECTION ( 'NONE',  ( -0.0000000000000000000, -0.0000000000000000000, -1.000000000000000000 ) ) ;
#46 = LINE ( 'NONE', #102, #232 ) ;
#47 = ORIENTED_EDGE ( 'NONE', *, *, #121, .T. ) ;
#48 = EDGE_LOOP ( 'NONE', ( #226, #103, #20, #202 ) ) ;
#49 = AXIS2_PLACEMENT_3D ( 'NONE', #152, #115, #169 ) ;
#50 = DIRECTION ( 'NONE',  ( 1.000000000000000000, 0.0000000000000000000, 0.0000000000000000000 ) ) ;
#51 = DIRECTION ( 'NONE',  ( 0.0000000000000000000, 0.0000000000000000000, 1.000000000000000000 ) ) ;
#52 = AXIS2_PLACEMENT_3D ( 'NONE', #245, #42, #114 ) ;
#53 = DIRECTION ( 'NONE',  ( 1.000000000000000000, 0.0000000000000000000, -0.0000000000000000000 ) ) ;
#54 = VERTEX_POINT ( 'NONE', #9 ) ;
#55 = AXIS2_PLACEMENT_3D ( 'NONE', #183, #147, #221 ) ;
#56 = CARTESIAN_POINT ( 'NONE',  ( 0.003936999999999995191, 0.0000000000000000000, 0.0000000000000000000 ) ) ;
#57 = EDGE_CURVE ( 'NONE', #205, #18, #95, .T. ) ;
#58 = FACE_OUTER_BOUND ( 'NONE', #44, .T. ) ;
#59 = PRESENTATION_STYLE_ASSIGNMENT (( #216 ) ) ;
#60 = EDGE_CURVE ( 'NONE', #54, #172, #182, .T. ) ;
#61 = FACE_OUTER_BOUND ( 'NONE', #104, .T. ) ;
#62 = FILL_AREA_STYLE_COLOUR ( '', #71 ) ;
#63 =( GEOMETRIC_REPRESENTATION_CONTEXT ( 3 ) GLOBAL_UNCERTAINTY_ASSIGNED_CONTEXT ( ( #39 ) ) GLOBAL_UNIT_ASSIGNED_CONTEXT ( ( #161, #131, #113 ) ) REPRESENTATION_CONTEXT ( 'NONE', 'WORKASPACE' ) );
#64 = PRODUCT_DEFINITION ( 'UNKNOWN', '', #180, #200 ) ;
#65 = ORIENTED_EDGE ( 'NONE', *, *, #57, .T. ) ;
#66 = DIRECTION ( 'NONE',  ( 1.000000000000000000, 0.0000000000000000000, -0.0000000000000000000 ) ) ;
#67 = ORIENTED_EDGE ( 'NONE', *, *, #60, .T. ) ;
#68 = CARTESIAN_POINT ( 'NONE',  ( -0.003936999999999995191, 4.821434448243123477E-19, 0.0000000000000000000 ) ) ;
#69 = VERTEX_POINT ( 'NONE', #212 ) ;
#70 = ADVANCED_FACE ( 'NONE', ( #58 ), #128, .T. ) ;
#71 = COLOUR_RGB ( '',0.7921568627450980005, 0.8196078431372548767, 0.9333333333333333481 ) ;
#72 = AXIS2_PLACEMENT_3D ( 'NONE', #31, #181, #168 ) ;
#73 = DIRECTION ( 'NONE',  ( 0.0000000000000000000, 0.0000000000000000000, -1.000000000000000000 ) ) ;
#74 = DIRECTION ( 'NONE',  ( 1.000000000000000000, 0.0000000000000000000, 0.0000000000000000000 ) ) ;
#75 = AXIS2_PLACEMENT_3D ( 'NONE', #134, #87, #50 ) ;
#76 = CARTESIAN_POINT ( 'NONE',  ( 0.0000000000000000000, 0.0000000000000000000, 0.0000000000000000000 ) ) ;
#77 = DIRECTION ( 'NONE',  ( -0.0000000000000000000, -0.0000000000000000000, -1.000000000000000000 ) ) ;
#78 =( LENGTH_UNIT ( ) NAMED_UNIT ( * ) SI_UNIT ( $, .METRE. ) );
#79 = SURFACE_SIDE_STYLE ('',( #198 ) ) ;
#80 = AXIS2_PLACEMENT_3D ( 'NONE', #76, #77, #143 ) ;
#81 =( NAMED_UNIT ( * ) PLANE_ANGLE_UNIT ( ) SI_UNIT ( $, .RADIAN. ) );
#82 = ADVANCED_FACE ( 'NONE', ( #194 ), #28, .T. ) ;
#83 = AXIS2_PLACEMENT_3D ( 'NONE', #136, #45, #93 ) ;
#84 = CARTESIAN_POINT ( 'NONE',  ( 0.0000000000000000000, 0.0000000000000000000, 2.244094000000000033 ) ) ;
#85 = SURFACE_SIDE_STYLE ('',( #244 ) ) ;
#86 = ORIENTED_EDGE ( 'NONE', *, *, #88, .T. ) ;
#87 = DIRECTION ( 'NONE',  ( 0.0000000000000000000, 0.0000000000000000000, -1.000000000000000000 ) ) ;
#88 = EDGE_CURVE ( 'NONE', #205, #158, #3, .T. ) ;
#89 = CONICAL_SURFACE ( 'NONE', #210, 0.1031100000000002570, 0.7853981633974318477 ) ;
#90 = MECHANICAL_DESIGN_GEOMETRIC_PRESENTATION_REPRESENTATION (  '', ( #186 ), #142 ) ;
#91 = CARTESIAN_POINT ( 'NONE',  ( 0.1031100000000002570, 1.262733314600838667E-17, 2.244094000000000033 ) ) ;
#92 = VECTOR ( 'NONE', #17, 39.37007874015748143 ) ;
#93 = DIRECTION ( 'NONE',  ( -1.000000000000000000, 0.0000000000000000000, 0.0000000000000000000 ) ) ;
#94 = DIRECTION ( 'NONE',  ( -0.7071067811865358044, 0.0000000000000000000, -0.7071067811865590080 ) ) ;
#95 = LINE ( 'NONE', #91, #122 ) ;
#96 = FILL_AREA_STYLE_COLOUR ( '', #222 ) ;
#97 = PRESENTATION_STYLE_ASSIGNMENT (( #41 ) ) ;
#98 = DIRECTION ( 'NONE',  ( -1.000000000000000000, 0.0000000000000000000, 0.0000000000000000000 ) ) ;
#99 =( CONVERSION_BASED_UNIT ( 'INCH', #243 ) LENGTH_UNIT ( ) NAMED_UNIT ( #14 ) );
#100 = ADVANCED_FACE ( 'NONE', ( #215 ), #123, .F. ) ;
#101 = UNCERTAINTY_MEASURE_WITH_UNIT (LENGTH_MEASURE( 1.000000000000000082E-05 ), #112, 'distance_accuracy_value', 'NONE');
#102 = CARTESIAN_POINT ( 'NONE',  ( 0.1181100000000000066, 1.446430334472939084E-17, 2.244094000000000033 ) ) ;
#103 = ORIENTED_EDGE ( 'NONE', *, *, #218, .T. ) ;
#104 = EDGE_LOOP ( 'NONE', ( #19, #5, #197, #249 ) ) ;
#105 = ORIENTED_EDGE ( 'NONE', *, *, #173, .T. ) ;
#106 = CARTESIAN_POINT ( 'NONE',  ( -0.1031100000000002570, 0.0000000000000000000, 2.244094000000000033 ) ) ;
#107 = DIRECTION ( 'NONE',  ( -0.0000000000000000000, -0.0000000000000000000, -1.000000000000000000 ) ) ;
#108 = AXIS2_PLACEMENT_3D ( 'NONE', #15, #51, #120 ) ;
#109 =( NAMED_UNIT ( * ) PLANE_ANGLE_UNIT ( ) SI_UNIT ( $, .RADIAN. ) );
#110 = CARTESIAN_POINT ( 'NONE',  ( 0.0000000000000000000, 0.0000000000000000000, 2.244094000000000033 ) ) ;
#111 = AXIS2_PLACEMENT_3D ( 'NONE', #127, #193, #27 ) ;
#112 =( CONVERSION_BASED_UNIT ( 'INCH', #242 ) LENGTH_UNIT ( ) NAMED_UNIT ( #233 ) );
#113 =( NAMED_UNIT ( * ) SI_UNIT ( $, .STERADIAN. ) SOLID_ANGLE_UNIT ( ) );
#114 = DIRECTION ( 'NONE',  ( 1.000000000000000000, 0.0000000000000000000, 0.0000000000000000000 ) ) ;
#115 = DIRECTION ( 'NONE',  ( 0.0000000000000000000, 0.0000000000000000000, 1.000000000000000000 ) ) ;
#116 = ORIENTED_EDGE ( 'NONE', *, *, #173, .F. ) ;
#117 = CONICAL_SURFACE ( 'NONE', #55, 0.1031100000000002570, 0.7853981633974318477 ) ;
#118 = FACE_OUTER_BOUND ( 'NONE', #40, .T. ) ;
#119 = ORIENTED_EDGE ( 'NONE', *, *, #125, .F. ) ;
#120 = DIRECTION ( 'NONE',  ( 1.000000000000000000, 0.0000000000000000000, 0.0000000000000000000 ) ) ;
#121 = EDGE_CURVE ( 'NONE', #172, #69, #30, .T. ) ;
#122 = VECTOR ( 'NONE', #155, 39.37007874015748854 ) ;
#123 = PLANE ( 'NONE',  #141 ) ;
#124 = ORIENTED_EDGE ( 'NONE', *, *, #37, .F. ) ;
#125 = EDGE_CURVE ( 'NONE', #158, #220, #24, .T. ) ;
#126 = PRODUCT_DEFINITION_SHAPE ( 'NONE', 'NONE',  #64 ) ;
#127 = CARTESIAN_POINT ( 'NONE',  ( 0.0000000000000000000, 0.0000000000000000000, 0.0000000000000000000 ) ) ;
#128 = CYLINDRICAL_SURFACE ( 'NONE', #32, 0.1181100000000000066 ) ;
#129 = CARTESIAN_POINT ( 'NONE',  ( 0.0000000000000000000, 0.0000000000000000000, 2.244094000000000033 ) ) ;
#130 =( LENGTH_UNIT ( ) NAMED_UNIT ( * ) SI_UNIT ( $, .METRE. ) );
#131 =( NAMED_UNIT ( * ) PLANE_ANGLE_UNIT ( ) SI_UNIT ( $, .RADIAN. ) );
#132 = CONICAL_SURFACE ( 'NONE', #72, 0.003936999999999995191, 0.7853981633974503884 ) ;
#133 = ADVANCED_BREP_SHAPE_REPRESENTATION ( 'Micro_RNCM-060-1', ( #217, #52 ), #63 ) ;
#134 = CARTESIAN_POINT ( 'NONE',  ( 0.0000000000000000000, 0.0000000000000000000, 2.229093999999999465 ) ) ;
#135 = ORIENTED_EDGE ( 'NONE', *, *, #236, .T. ) ;
#136 = CARTESIAN_POINT ( 'NONE',  ( 0.0000000000000000000, 0.0000000000000000000, 0.1141729999999995387 ) ) ;
#137 = CONICAL_SURFACE ( 'NONE', #49, 0.003936999999999995191, 0.7853981633974503884 ) ;
#138 = APPLICATION_CONTEXT ( 'automotive_design' ) ;
#139 = LINE ( 'NONE', #213, #23 ) ;
#140 = FACE_OUTER_BOUND ( 'NONE', #48, .T. ) ;
#141 = AXIS2_PLACEMENT_3D ( 'NONE', #178, #238, #53 ) ;
#142 =( GEOMETRIC_REPRESENTATION_CONTEXT ( 3 ) GLOBAL_UNCERTAINTY_ASSIGNED_CONTEXT ( ( #101 ) ) GLOBAL_UNIT_ASSIGNED_CONTEXT ( ( #112, #81, #164 ) ) REPRESENTATION_CONTEXT ( 'NONE', 'WORKASPACE' ) );
#143 = DIRECTION ( 'NONE',  ( -1.000000000000000000, 0.0000000000000000000, 0.0000000000000000000 ) ) ;
#144 = EDGE_CURVE ( 'NONE', #220, #18, #38, .T. ) ;
#145 = DIRECTION ( 'NONE',  ( -0.0000000000000000000, -0.0000000000000000000, -1.000000000000000000 ) ) ;
#146 = CIRCLE ( 'NONE', #6, 0.1181100000000000066 ) ;
#147 = DIRECTION ( 'NONE',  ( 0.0000000000000000000, 0.0000000000000000000, -1.000000000000000000 ) ) ;
#148 = ORIENTED_EDGE ( 'NONE', *, *, #157, .F. ) ;
#149 = PRESENTATION_LAYER_ASSIGNMENT (  '', '', ( #208 ) ) ;
#150 = CARTESIAN_POINT ( 'NONE',  ( -0.1181100000000000066, 0.0000000000000000000, 2.229093999999999465 ) ) ;
#151 = CARTESIAN_POINT ( 'NONE',  ( 0.0000000000000000000, 0.0000000000000000000, 2.244094000000000033 ) ) ;
#152 = CARTESIAN_POINT ( 'NONE',  ( 0.0000000000000000000, 0.0000000000000000000, 0.0000000000000000000 ) ) ;
#153 = EDGE_LOOP ( 'NONE', ( #229, #135, #230, #148 ) ) ;
#154 = CIRCLE ( 'NONE', #83, 0.1181100000000000066 ) ;
#155 = DIRECTION ( 'NONE',  ( 0.7071067811865358044, 8.659560562354788645E-17, -0.7071067811865590080 ) ) ;
#156 = CLOSED_SHELL ( 'NONE', ( #207, #25, #82, #70, #248, #29, #22, #100 ) ) ;
#157 = EDGE_CURVE ( 'NONE', #220, #203, #139, .T. ) ;
#158 = VERTEX_POINT ( 'NONE', #177 ) ;
#159 = PRODUCT_CONTEXT ( 'NONE', #192, 'mechanical' ) ;
#160 = DIRECTION ( 'NONE',  ( 0.0000000000000000000, 0.0000000000000000000, 1.000000000000000000 ) ) ;
#161 =( CONVERSION_BASED_UNIT ( 'INCH', #36 ) LENGTH_UNIT ( ) NAMED_UNIT ( #35 ) );
#162 = ORIENTED_EDGE ( 'NONE', *, *, #157, .T. ) ;
#163 = CARTESIAN_POINT ( 'NONE',  ( -0.1181100000000000066, 0.0000000000000000000, 0.1141729999999995387 ) ) ;
#164 =( NAMED_UNIT ( * ) SI_UNIT ( $, .STERADIAN. ) SOLID_ANGLE_UNIT ( ) );
#165 = CARTESIAN_POINT ( 'NONE',  ( 0.0000000000000000000, 0.0000000000000000000, 0.1141729999999995387 ) ) ;
#166 = CARTESIAN_POINT ( 'NONE',  ( 0.1181100000000000066, 1.446430334472939084E-17, 2.229093999999999465 ) ) ;
#167 = PRESENTATION_LAYER_ASSIGNMENT (  '', '', ( #186 ) ) ;
#168 = DIRECTION ( 'NONE',  ( 1.000000000000000000, 0.0000000000000000000, 0.0000000000000000000 ) ) ;
#169 = DIRECTION ( 'NONE',  ( 1.000000000000000000, 0.0000000000000000000, 0.0000000000000000000 ) ) ;
#170 =( NAMED_UNIT ( * ) SI_UNIT ( $, .STERADIAN. ) SOLID_ANGLE_UNIT ( ) );
#171 = ORIENTED_EDGE ( 'NONE', *, *, #144, .F. ) ;
#172 = VERTEX_POINT ( 'NONE', #211 ) ;
#173 = EDGE_CURVE ( 'NONE', #172, #54, #174, .T. ) ;
#174 = CIRCLE ( 'NONE', #111, 0.003936999999999995191 ) ;
#175 = CARTESIAN_POINT ( 'NONE',  ( 0.0000000000000000000, 0.0000000000000000000, 2.229093999999999465 ) ) ;
#176 = AXIS2_PLACEMENT_3D ( 'NONE', #7, #160, #241 ) ;
#177 = CARTESIAN_POINT ( 'NONE',  ( -0.1031100000000002570, 0.0000000000000000000, 2.244094000000000033 ) ) ;
#178 = CARTESIAN_POINT ( 'NONE',  ( 0.0000000000000000000, 0.0000000000000000000, 0.0000000000000000000 ) ) ;
#179 = DIRECTION ( 'NONE',  ( -1.000000000000000000, 0.0000000000000000000, 0.0000000000000000000 ) ) ;
#180 = PRODUCT_DEFINITION_FORMATION_WITH_SPECIFIED_SOURCE ( 'ANY', '', #21, .NOT_KNOWN. ) ;
#181 = DIRECTION ( 'NONE',  ( 0.0000000000000000000, 0.0000000000000000000, 1.000000000000000000 ) ) ;
#182 = CIRCLE ( 'NONE', #80, 0.003936999999999995191 ) ;
#183 = CARTESIAN_POINT ( 'NONE',  ( 0.0000000000000000000, 0.0000000000000000000, 2.244094000000000033 ) ) ;
#184 =( LENGTH_UNIT ( ) NAMED_UNIT ( * ) SI_UNIT ( $, .METRE. ) );
#185 = EDGE_LOOP ( 'NONE', ( #189, #116, #47, #239 ) ) ;
#186 = STYLED_ITEM ( 'NONE', ( #59 ), #133 ) ;
#187 = DIRECTION ( 'NONE',  ( -0.0000000000000000000, -0.0000000000000000000, -1.000000000000000000 ) ) ;
#188 = EDGE_LOOP ( 'NONE', ( #201, #65, #171, #119 ) ) ;
#189 = ORIENTED_EDGE ( 'NONE', *, *, #218, .F. ) ;
#190 = DIRECTION ( 'NONE',  ( 0.7071067811865490160, 0.0000000000000000000, 0.7071067811865460184 ) ) ;
#191 = EDGE_CURVE ( 'NONE', #158, #205, #206, .T. ) ;
#192 = APPLICATION_CONTEXT ( 'automotive_design' ) ;
#193 = DIRECTION ( 'NONE',  ( -0.0000000000000000000, -0.0000000000000000000, -1.000000000000000000 ) ) ;
#194 = FACE_OUTER_BOUND ( 'NONE', #153, .T. ) ;
#195 = DIRECTION ( 'NONE',  ( -1.000000000000000000, 0.0000000000000000000, 0.0000000000000000000 ) ) ;
#196 =( GEOMETRIC_REPRESENTATION_CONTEXT ( 3 ) GLOBAL_UNCERTAINTY_ASSIGNED_CONTEXT ( ( #224 ) ) GLOBAL_UNIT_ASSIGNED_CONTEXT ( ( #99, #109, #170 ) ) REPRESENTATION_CONTEXT ( 'NONE', 'WORKASPACE' ) );
#197 = ORIENTED_EDGE ( 'NONE', *, *, #125, .T. ) ;
#198 = SURFACE_STYLE_FILL_AREA ( #214 ) ;
#199 = AXIS2_PLACEMENT_3D ( 'NONE', #175, #73, #74 ) ;
#200 = PRODUCT_DEFINITION_CONTEXT ( 'detailed design', #138, 'design' ) ;
#201 = ORIENTED_EDGE ( 'NONE', *, *, #88, .F. ) ;
#202 = ORIENTED_EDGE ( 'NONE', *, *, #121, .F. ) ;
#203 = VERTEX_POINT ( 'NONE', #163 ) ;
#204 = ORIENTED_EDGE ( 'NONE', *, *, #191, .T. ) ;
#205 = VERTEX_POINT ( 'NONE', #234 ) ;
#206 = CIRCLE ( 'NONE', #108, 0.1031100000000002570 ) ;
#207 = ADVANCED_FACE ( 'NONE', ( #140 ), #132, .T. ) ;
#208 = STYLED_ITEM ( 'NONE', ( #97 ), #217 ) ;
#209 = EDGE_LOOP ( 'NONE', ( #105, #67 ) ) ;
#210 = AXIS2_PLACEMENT_3D ( 'NONE', #151, #227, #98 ) ;
#211 = CARTESIAN_POINT ( 'NONE',  ( 0.003936999999999995191, 0.0000000000000000000, 0.0000000000000000000 ) ) ;
#212 = CARTESIAN_POINT ( 'NONE',  ( 0.1181100000000000066, 1.446430334472939084E-17, 0.1141729999999995387 ) ) ;
#213 = CARTESIAN_POINT ( 'NONE',  ( -0.1181100000000000066, 0.0000000000000000000, 2.244094000000000033 ) ) ;
#214 = FILL_AREA_STYLE ('',( #96 ) ) ;
#215 = FACE_OUTER_BOUND ( 'NONE', #209, .T. ) ;
#216 = SURFACE_STYLE_USAGE ( .BOTH. , #79 ) ;
#217 = MANIFOLD_SOLID_BREP ( 'Cut-Revolve1', #156 ) ;
#218 = EDGE_CURVE ( 'NONE', #54, #203, #228, .T. ) ;
#219 = FACE_OUTER_BOUND ( 'NONE', #188, .T. ) ;
#220 = VERTEX_POINT ( 'NONE', #150 ) ;
#221 = DIRECTION ( 'NONE',  ( -1.000000000000000000, 0.0000000000000000000, 0.0000000000000000000 ) ) ;
#222 = COLOUR_RGB ( '',0.7921568627450980005, 0.8196078431372548767, 0.9333333333333333481 ) ;
#223 = DIRECTION ( 'NONE',  ( 0.0000000000000000000, 0.0000000000000000000, 1.000000000000000000 ) ) ;
#224 = UNCERTAINTY_MEASURE_WITH_UNIT (LENGTH_MEASURE( 1.000000000000000082E-05 ), #99, 'distance_accuracy_value', 'NONE');
#225 = ORIENTED_EDGE ( 'NONE', *, *, #2, .T. ) ;
#226 = ORIENTED_EDGE ( 'NONE', *, *, #60, .F. ) ;
#227 = DIRECTION ( 'NONE',  ( 0.0000000000000000000, 0.0000000000000000000, -1.000000000000000000 ) ) ;
#228 = LINE ( 'NONE', #68, #92 ) ;
#229 = ORIENTED_EDGE ( 'NONE', *, *, #144, .T. ) ;
#230 = ORIENTED_EDGE ( 'NONE', *, *, #4, .F. ) ;
#231 = VECTOR ( 'NONE', #94, 39.37007874015748854 ) ;
#232 = VECTOR ( 'NONE', #187, 39.37007874015748143 ) ;
#233 = DIMENSIONAL_EXPONENTS ( 1.000000000000000000, 0.0000000000000000000, 0.0000000000000000000, 0.0000000000000000000, 0.0000000000000000000, 0.0000000000000000000, 0.0000000000000000000 ) ;
#234 = CARTESIAN_POINT ( 'NONE',  ( 0.1031100000000002570, 1.354581824536888722E-17, 2.244094000000000033 ) ) ;
#235 = APPLICATION_PROTOCOL_DEFINITION ( 'draft international standard', 'automotive_design', 1998, #138 ) ;
#236 = EDGE_CURVE ( 'NONE', #18, #69, #46, .T. ) ;
#237 = CIRCLE ( 'NONE', #75, 0.1181100000000000066 ) ;
#238 = DIRECTION ( 'NONE',  ( 0.0000000000000000000, 0.0000000000000000000, 1.000000000000000000 ) ) ;
#239 = ORIENTED_EDGE ( 'NONE', *, *, #37, .T. ) ;
#240 = SHAPE_DEFINITION_REPRESENTATION ( #126, #133 ) ;
#241 = DIRECTION ( 'NONE',  ( 1.000000000000000000, 0.0000000000000000000, 0.0000000000000000000 ) ) ;
#242 = LENGTH_MEASURE_WITH_UNIT ( LENGTH_MEASURE( 0.02539999999999999897 ), #130 );
#243 = LENGTH_MEASURE_WITH_UNIT ( LENGTH_MEASURE( 0.02539999999999999897 ), #184 );
#244 = SURFACE_STYLE_FILL_AREA ( #11 ) ;
#245 = CARTESIAN_POINT ( 'NONE',  ( 0.0000000000000000000, 0.0000000000000000000, 0.0000000000000000000 ) ) ;
#246 = PLANE ( 'NONE',  #26 ) ;
#247 = MECHANICAL_DESIGN_GEOMETRIC_PRESENTATION_REPRESENTATION (  '', ( #208 ), #196 ) ;
#248 = ADVANCED_FACE ( 'NONE', ( #118 ), #246, .T. ) ;
#249 = ORIENTED_EDGE ( 'NONE', *, *, #2, .F. ) ;
ENDSEC;
END-ISO-10303-21;
