ISO-10303-21;
HEADER;
FILE_DESCRIPTION (( 'STEP AP214' ),
    '1' );
FILE_NAME ('81458.STEP',
    '2023-06-30T22:26:49',
    ( '' ),
    ( '' ),
    'SwSTEP 2.0',
    'SolidWorks 2023',
    '' );
FILE_SCHEMA (( 'AUTOMOTIVE_DESIGN' ));
ENDSEC;

DATA;
#1 = FILL_AREA_STYLE ('',( #2 ) ) ;
#2 = FILL_AREA_STYLE_COLOUR ( '', #197 ) ;
#3 = AXIS2_PLACEMENT_3D ( 'NONE', #146, #353, #57 ) ;
#4 = FACE_OUTER_BOUND ( 'NONE', #38, .T. ) ;
#5 = FILL_AREA_STYLE_COLOUR ( '', #285 ) ;
#6 = DIMENSIONAL_EXPONENTS ( 1.000000000000000000, 0.000000000000000000, 0.000000000000000000, 0.000000000000000000, 0.000000000000000000, 0.000000000000000000, 0.000000000000000000 ) ;
#7 = EDGE_CURVE ( 'NONE', #88, #335, #101, .T. ) ;
#8 = VERTEX_POINT ( 'NONE', #262 ) ;
#9 = LENGTH_MEASURE_WITH_UNIT ( LENGTH_MEASURE( 0.02539999999999999897 ), #148 );
#10 = CIRCLE ( 'NONE', #308, 0.1249999999999999861 ) ;
#11 = FACE_OUTER_BOUND ( 'NONE', #157, .T. ) ;
#12 = EDGE_LOOP ( 'NONE', ( #236, #354 ) ) ;
#13 = APPLICATION_CONTEXT ( 'automotive_design' ) ;
#14 =( NAMED_UNIT ( * ) PLANE_ANGLE_UNIT ( ) SI_UNIT ( $, .RADIAN. ) );
#15 = SURFACE_STYLE_FILL_AREA ( #358 ) ;
#16 = DIRECTION ( 'NONE',  ( -0.000000000000000000, -1.000000000000000000, -0.000000000000000000 ) ) ;
#17 = EDGE_CURVE ( 'NONE', #8, #141, #117, .T. ) ;
#18 = CARTESIAN_POINT ( 'NONE',  ( -1.530808498934191201E-17, 0.1249999999999999861, 0.000000000000000000 ) ) ;
#19 = DIRECTION ( 'NONE',  ( 0.000000000000000000, -0.000000000000000000, 1.000000000000000000 ) ) ;
#20 = DIRECTION ( 'NONE',  ( -0.000000000000000000, -1.000000000000000000, -0.000000000000000000 ) ) ;
#21 =( CONVERSION_BASED_UNIT ( 'INCH', #316 ) LENGTH_UNIT ( ) NAMED_UNIT ( #106 ) );
#22 = EDGE_CURVE ( 'NONE', #225, #210, #10, .T. ) ;
#23 = PLANE ( 'NONE',  #83 ) ;
#24 = FILL_AREA_STYLE ('',( #131 ) ) ;
#25 = DIRECTION ( 'NONE',  ( -1.000000000000000000, 0.000000000000000000, 0.000000000000000000 ) ) ;
#26 = EDGE_CURVE ( 'NONE', #29, #225, #63, .T. ) ;
#27 = DIRECTION ( 'NONE',  ( -1.219736248827480055E-16, 1.000000000000000000, -0.000000000000000000 ) ) ;
#28 = STYLED_ITEM ( 'NONE', ( #216 ), #145 ) ;
#29 = VERTEX_POINT ( 'NONE', #302 ) ;
#30 = CARTESIAN_POINT ( 'NONE',  ( 0.000000000000000000, 0.1250000000000000000, 0.000000000000000000 ) ) ;
#31 = DIMENSIONAL_EXPONENTS ( 1.000000000000000000, 0.000000000000000000, 0.000000000000000000, 0.000000000000000000, 0.000000000000000000, 0.000000000000000000, 0.000000000000000000 ) ;
#32 = CARTESIAN_POINT ( 'NONE',  ( -1.530808498934191201E-17, 0.1249999999999999861, 0.000000000000000000 ) ) ;
#33 = DIRECTION ( 'NONE',  ( -1.219736248827480055E-16, 1.000000000000000000, -0.000000000000000000 ) ) ;
#34 = ADVANCED_FACE ( 'NONE', ( #180 ), #39, .F. ) ;
#35 = CIRCLE ( 'NONE', #240, 0.1249999999999996808 ) ;
#36 =( CONVERSION_BASED_UNIT ( 'INCH', #171 ) LENGTH_UNIT ( ) NAMED_UNIT ( #318 ) );
#37 = CARTESIAN_POINT ( 'NONE',  ( -1.530808498934191201E-17, 0.1249999999999999861, 0.000000000000000000 ) ) ;
#38 = EDGE_LOOP ( 'NONE', ( #87, #65, #118, #309 ) ) ;
#39 = PLANE ( 'NONE',  #273 ) ;
#40 = DIRECTION ( 'NONE',  ( -0.000000000000000000, -1.000000000000000000, -0.000000000000000000 ) ) ;
#41 = CARTESIAN_POINT ( 'NONE',  ( 0.1249999999999999306, 2.000000000000000000, 0.000000000000000000 ) ) ;
#42 = DIRECTION ( 'NONE',  ( 1.219736248827480055E-16, -1.000000000000000000, 0.000000000000000000 ) ) ;
#43 = COLOUR_RGB ( '',0.7921568627450980005, 0.8196078431372548767, 0.9333333333333333481 ) ;
#44 = SURFACE_STYLE_USAGE ( .BOTH. , #313 ) ;
#45 = PRESENTATION_STYLE_ASSIGNMENT (( #127 ) ) ;
#46 = ORIENTED_EDGE ( 'NONE', *, *, #74, .F. ) ;
#47 = CARTESIAN_POINT ( 'NONE',  ( 0.000000000000000000, 0.000000000000000000, 0.000000000000000000 ) ) ;
#48 = AXIS2_PLACEMENT_3D ( 'NONE', #18, #314, #217 ) ;
#49 = DIRECTION ( 'NONE',  ( -1.000000000000000000, 0.000000000000000000, 0.000000000000000000 ) ) ;
#50 = FACE_OUTER_BOUND ( 'NONE', #234, .T. ) ;
#51 = DIRECTION ( 'NONE',  ( 0.000000000000000000, 0.000000000000000000, -1.000000000000000000 ) ) ;
#52 = AXIS2_PLACEMENT_3D ( 'NONE', #184, #16, #62 ) ;
#53 = COLOUR_RGB ( '',1.000000000000000000, 0.000000000000000000, 0.000000000000000000 ) ;
#54 = DIMENSIONAL_EXPONENTS ( 1.000000000000000000, 0.000000000000000000, 0.000000000000000000, 0.000000000000000000, 0.000000000000000000, 0.000000000000000000, 0.000000000000000000 ) ;
#55 = DIRECTION ( 'NONE',  ( -0.000000000000000000, -1.000000000000000000, -0.000000000000000000 ) ) ;
#56 = STYLED_ITEM ( 'NONE', ( #269 ), #282 ) ;
#57 = DIRECTION ( 'NONE',  ( 1.000000000000000000, 0.000000000000000000, 0.000000000000000000 ) ) ;
#58 =( NAMED_UNIT ( * ) PLANE_ANGLE_UNIT ( ) SI_UNIT ( $, .RADIAN. ) );
#59 = CARTESIAN_POINT ( 'NONE',  ( -0.1249999999999997086, 2.000000000000000000, 0.000000000000000000 ) ) ;
#60 = AXIS2_PLACEMENT_3D ( 'NONE', #249, #334, #19 ) ;
#61 = LENGTH_MEASURE_WITH_UNIT ( LENGTH_MEASURE( 0.02539999999999999897 ), #293 );
#62 = DIRECTION ( 'NONE',  ( 0.000000000000000000, 0.000000000000000000, -1.000000000000000000 ) ) ;
#63 = CIRCLE ( 'NONE', #52, 0.1249999999999999861 ) ;
#64 = DIRECTION ( 'NONE',  ( -0.000000000000000000, -1.000000000000000000, -0.000000000000000000 ) ) ;
#65 = ORIENTED_EDGE ( 'NONE', *, *, #191, .T. ) ;
#66 = DIRECTION ( 'NONE',  ( -1.219736248827480055E-16, 1.000000000000000000, -0.000000000000000000 ) ) ;
#67 = ORIENTED_EDGE ( 'NONE', *, *, #200, .T. ) ;
#68 = EDGE_CURVE ( 'NONE', #209, #232, #109, .T. ) ;
#69 = UNCERTAINTY_MEASURE_WITH_UNIT (LENGTH_MEASURE( 1.000000000000000082E-05 ), #151, 'distance_accuracy_value', 'NONE');
#70 = AXIS2_PLACEMENT_3D ( 'NONE', #32, #349, #140 ) ;
#71 = LINE ( 'NONE', #126, #301 ) ;
#72 = PRESENTATION_LAYER_ASSIGNMENT (  '', '', ( #340 ) ) ;
#73 = FACE_OUTER_BOUND ( 'NONE', #81, .T. ) ;
#74 = EDGE_CURVE ( 'NONE', #225, #232, #265, .T. ) ;
#75 = DIRECTION ( 'NONE',  ( 0.000000000000000000, 0.000000000000000000, -1.000000000000000000 ) ) ;
#76 = LENGTH_MEASURE_WITH_UNIT ( LENGTH_MEASURE( 0.02539999999999999897 ), #346 );
#77 =( GEOMETRIC_REPRESENTATION_CONTEXT ( 3 ) GLOBAL_UNCERTAINTY_ASSIGNED_CONTEXT ( ( #261 ) ) GLOBAL_UNIT_ASSIGNED_CONTEXT ( ( #36, #352, #291 ) ) REPRESENTATION_CONTEXT ( 'NONE', 'WORKASPACE' ) );
#78 = SURFACE_STYLE_FILL_AREA ( #188 ) ;
#79 = APPLICATION_PROTOCOL_DEFINITION ( 'draft international standard', 'automotive_design', 1998, #214 ) ;
#80 = FILL_AREA_STYLE_COLOUR ( '', #53 ) ;
#81 = EDGE_LOOP ( 'NONE', ( #222, #178, #296, #102 ) ) ;
#82 = CARTESIAN_POINT ( 'NONE',  ( 2.441927772814896440E-16, 0.5000000000000001110, 0.000000000000000000 ) ) ;
#83 = AXIS2_PLACEMENT_3D ( 'NONE', #337, #185, #190 ) ;
#84 =( LENGTH_UNIT ( ) NAMED_UNIT ( * ) SI_UNIT ( $, .METRE. ) );
#85 = ORIENTED_EDGE ( 'NONE', *, *, #336, .F. ) ;
#86 = LINE ( 'NONE', #198, #99 ) ;
#87 = ORIENTED_EDGE ( 'NONE', *, *, #68, .F. ) ;
#88 = VERTEX_POINT ( 'NONE', #125 ) ;
#89 = MECHANICAL_DESIGN_GEOMETRIC_PRESENTATION_REPRESENTATION (  '', ( #147 ), #324 ) ;
#90 = UNCERTAINTY_MEASURE_WITH_UNIT (LENGTH_MEASURE( 1.000000000000000082E-05 ), #132, 'distance_accuracy_value', 'NONE');
#91 = EDGE_LOOP ( 'NONE', ( #175, #237, #46, #96 ) ) ;
#92 = DIRECTION ( 'NONE',  ( 0.000000000000000000, 0.000000000000000000, -1.000000000000000000 ) ) ;
#93 = SURFACE_STYLE_USAGE ( .BOTH. , #177 ) ;
#94 = ORIENTED_EDGE ( 'NONE', *, *, #259, .T. ) ;
#95 = AXIS2_PLACEMENT_3D ( 'NONE', #192, #161, #49 ) ;
#96 = ORIENTED_EDGE ( 'NONE', *, *, #22, .T. ) ;
#97 = DIRECTION ( 'NONE',  ( -0.000000000000000000, -1.000000000000000000, -0.000000000000000000 ) ) ;
#98 = FACE_OUTER_BOUND ( 'NONE', #364, .T. ) ;
#99 = VECTOR ( 'NONE', #323, 39.37007874015748143 ) ;
#100 =( NAMED_UNIT ( * ) SI_UNIT ( $, .STERADIAN. ) SOLID_ANGLE_UNIT ( ) );
#101 = CIRCLE ( 'NONE', #206, 0.1249999999999999306 ) ;
#102 = ORIENTED_EDGE ( 'NONE', *, *, #17, .F. ) ;
#103 = CARTESIAN_POINT ( 'NONE',  ( 0.1249999999999999861, 0.1250000000000000000, 0.000000000000000000 ) ) ;
#104 = CARTESIAN_POINT ( 'NONE',  ( 1.530808498934191509E-17, 0.1250000000000000000, 0.1250000000000000000 ) ) ;
#105 =( GEOMETRIC_REPRESENTATION_CONTEXT ( 3 ) GLOBAL_UNCERTAINTY_ASSIGNED_CONTEXT ( ( #303 ) ) GLOBAL_UNIT_ASSIGNED_CONTEXT ( ( #129, #373, #251 ) ) REPRESENTATION_CONTEXT ( 'NONE', 'WORKASPACE' ) );
#106 = DIMENSIONAL_EXPONENTS ( 1.000000000000000000, 0.000000000000000000, 0.000000000000000000, 0.000000000000000000, 0.000000000000000000, 0.000000000000000000, 0.000000000000000000 ) ;
#107 = CLOSED_SHELL ( 'NONE', ( #238, #149, #351, #282, #271 ) ) ;
#108 = DIRECTION ( 'NONE',  ( -0.000000000000000000, -1.000000000000000000, -0.000000000000000000 ) ) ;
#109 = CIRCLE ( 'NONE', #300, 0.1250000000000000000 ) ;
#110 = PRESENTATION_LAYER_ASSIGNMENT (  '', '', ( #172 ) ) ;
#111 =( GEOMETRIC_REPRESENTATION_CONTEXT ( 3 ) GLOBAL_UNCERTAINTY_ASSIGNED_CONTEXT ( ( #328 ) ) GLOBAL_UNIT_ASSIGNED_CONTEXT ( ( #120, #14, #116 ) ) REPRESENTATION_CONTEXT ( 'NONE', 'WORKASPACE' ) );
#112 = PRESENTATION_STYLE_ASSIGNMENT (( #317 ) ) ;
#113 = UNCERTAINTY_MEASURE_WITH_UNIT (LENGTH_MEASURE( 1.000000000000000082E-05 ), #21, 'distance_accuracy_value', 'NONE');
#114 = PRODUCT_DEFINITION ( 'UNKNOWN', '', #243, #263 ) ;
#115 = DIRECTION ( 'NONE',  ( -1.000000000000000000, 0.000000000000000000, 0.000000000000000000 ) ) ;
#116 =( NAMED_UNIT ( * ) SI_UNIT ( $, .STERADIAN. ) SOLID_ANGLE_UNIT ( ) );
#117 = LINE ( 'NONE', #59, #143 ) ;
#118 = ORIENTED_EDGE ( 'NONE', *, *, #26, .T. ) ;
#119 = ADVANCED_FACE ( 'NONE', ( #73 ), #371, .T. ) ;
#120 =( CONVERSION_BASED_UNIT ( 'INCH', #9 ) LENGTH_UNIT ( ) NAMED_UNIT ( #167 ) );
#121 = ORIENTED_EDGE ( 'NONE', *, *, #26, .F. ) ;
#122 = PRESENTATION_LAYER_ASSIGNMENT (  '', '', ( #294 ) ) ;
#123 = COLOUR_RGB ( '',1.000000000000000000, 0.000000000000000000, 0.000000000000000000 ) ;
#124 = FILL_AREA_STYLE_COLOUR ( '', #43 ) ;
#125 = CARTESIAN_POINT ( 'NONE',  ( 0.000000000000000000, 0.5000000000000000000, -0.1249999999999999306 ) ) ;
#126 = CARTESIAN_POINT ( 'NONE',  ( 1.530808498934191201E-17, 0.000000000000000000, 0.1249999999999999584 ) ) ;
#127 = SURFACE_STYLE_USAGE ( .BOTH. , #220 ) ;
#128 = AXIS2_PLACEMENT_3D ( 'NONE', #130, #189, #25 ) ;
#129 =( CONVERSION_BASED_UNIT ( 'INCH', #158 ) LENGTH_UNIT ( ) NAMED_UNIT ( #54 ) );
#130 = CARTESIAN_POINT ( 'NONE',  ( 6.123233995736766036E-17, 2.000000000000000000, 0.000000000000000000 ) ) ;
#131 = FILL_AREA_STYLE_COLOUR ( '', #123 ) ;
#132 =( CONVERSION_BASED_UNIT ( 'INCH', #76 ) LENGTH_UNIT ( ) NAMED_UNIT ( #256 ) );
#133 = LENGTH_MEASURE_WITH_UNIT ( LENGTH_MEASURE( 0.02539999999999999897 ), #221 );
#134 =( NAMED_UNIT ( * ) PLANE_ANGLE_UNIT ( ) SI_UNIT ( $, .RADIAN. ) );
#135 = AXIS2_PLACEMENT_3D ( 'NONE', #368, #97, #211 ) ;
#136 = AXIS2_PLACEMENT_3D ( 'NONE', #30, #55, #51 ) ;
#137 = CARTESIAN_POINT ( 'NONE',  ( 0.000000000000000000, 0.5000000000000000000, 0.000000000000000000 ) ) ;
#138 = ORIENTED_EDGE ( 'NONE', *, *, #360, .F. ) ;
#139 = SURFACE_SIDE_STYLE ('',( #288 ) ) ;
#140 = DIRECTION ( 'NONE',  ( 1.000000000000000000, 0.000000000000000000, 0.000000000000000000 ) ) ;
#141 = VERTEX_POINT ( 'NONE', #279 ) ;
#142 = AXIS2_PLACEMENT_3D ( 'NONE', #196, #203, #348 ) ;
#143 = VECTOR ( 'NONE', #359, 39.37007874015748143 ) ;
#144 = CYLINDRICAL_SURFACE ( 'NONE', #213, 0.1249999999999999584 ) ;
#145 = MANIFOLD_SOLID_BREP ( 'Revolve - Cutting Edge', #107 ) ;
#146 = CARTESIAN_POINT ( 'NONE',  ( -1.530808498934191201E-17, 0.1249999999999999861, 0.000000000000000000 ) ) ;
#147 = STYLED_ITEM ( 'NONE', ( #45 ), #149 ) ;
#148 =( LENGTH_UNIT ( ) NAMED_UNIT ( * ) SI_UNIT ( $, .METRE. ) );
#149 = ADVANCED_FACE ( 'NONE', ( #156 ), #342, .T. ) ;
#150 = DIRECTION ( 'NONE',  ( 1.000000000000000000, 1.219736248827480055E-16, 0.000000000000000000 ) ) ;
#151 =( CONVERSION_BASED_UNIT ( 'INCH', #61 ) LENGTH_UNIT ( ) NAMED_UNIT ( #6 ) );
#152 = DIRECTION ( 'NONE',  ( 1.224646799147353207E-16, -0.000000000000000000, 1.000000000000000000 ) ) ;
#153 =( GEOMETRIC_REPRESENTATION_CONTEXT ( 3 ) GLOBAL_UNCERTAINTY_ASSIGNED_CONTEXT ( ( #69 ) ) GLOBAL_UNIT_ASSIGNED_CONTEXT ( ( #151, #58, #179 ) ) REPRESENTATION_CONTEXT ( 'NONE', 'WORKASPACE' ) );
#154 = ADVANCED_FACE ( 'NONE', ( #98 ), #155, .T. ) ;
#155 = CYLINDRICAL_SURFACE ( 'NONE', #95, 0.1249999999999997780 ) ;
#156 = FACE_OUTER_BOUND ( 'NONE', #333, .T. ) ;
#157 = EDGE_LOOP ( 'NONE', ( #350, #94, #67, #270, #138 ) ) ;
#158 = LENGTH_MEASURE_WITH_UNIT ( LENGTH_MEASURE( 0.02539999999999999897 ), #311 );
#159 =( NAMED_UNIT ( * ) SI_UNIT ( $, .STERADIAN. ) SOLID_ANGLE_UNIT ( ) );
#160 = PRESENTATION_STYLE_ASSIGNMENT (( #44 ) ) ;
#161 = DIRECTION ( 'NONE',  ( -1.219736248827480055E-16, 1.000000000000000000, -0.000000000000000000 ) ) ;
#162 = CARTESIAN_POINT ( 'NONE',  ( -7.654042494670956004E-18, -1.707404996040164512E-17, 0.000000000000000000 ) ) ;
#163 = MECHANICAL_DESIGN_GEOMETRIC_PRESENTATION_REPRESENTATION (  '', ( #294 ), #153 ) ;
#164 = FILL_AREA_STYLE ('',( #5 ) ) ;
#165 = ORIENTED_EDGE ( 'NONE', *, *, #290, .T. ) ;
#166 = SURFACE_STYLE_FILL_AREA ( #223 ) ;
#167 = DIMENSIONAL_EXPONENTS ( 1.000000000000000000, 0.000000000000000000, 0.000000000000000000, 0.000000000000000000, 0.000000000000000000, 0.000000000000000000, 0.000000000000000000 ) ;
#168 = ORIENTED_EDGE ( 'NONE', *, *, #229, .F. ) ;
#169 =( NAMED_UNIT ( * ) SI_UNIT ( $, .STERADIAN. ) SOLID_ANGLE_UNIT ( ) );
#170 = CARTESIAN_POINT ( 'NONE',  ( 0.1249999999999999167, 0.5000000000000001110, 1.530808498934189352E-17 ) ) ;
#171 = LENGTH_MEASURE_WITH_UNIT ( LENGTH_MEASURE( 0.02539999999999999897 ), #84 );
#172 = STYLED_ITEM ( 'NONE', ( #112 ), #238 ) ;
#173 = PRESENTATION_LAYER_ASSIGNMENT (  '', '', ( #248 ) ) ;
#174 =( NAMED_UNIT ( * ) SI_UNIT ( $, .STERADIAN. ) SOLID_ANGLE_UNIT ( ) );
#175 = ORIENTED_EDGE ( 'NONE', *, *, #360, .T. ) ;
#176 = ORIENTED_EDGE ( 'NONE', *, *, #252, .T. ) ;
#177 = SURFACE_SIDE_STYLE ('',( #326 ) ) ;
#178 = ORIENTED_EDGE ( 'NONE', *, *, #229, .T. ) ;
#179 =( NAMED_UNIT ( * ) SI_UNIT ( $, .STERADIAN. ) SOLID_ANGLE_UNIT ( ) );
#180 = FACE_OUTER_BOUND ( 'NONE', #305, .T. ) ;
#181 =( CONVERSION_BASED_UNIT ( 'INCH', #304 ) LENGTH_UNIT ( ) NAMED_UNIT ( #31 ) );
#182 = DIRECTION ( 'NONE',  ( 0.000000000000000000, 0.000000000000000000, -1.000000000000000000 ) ) ;
#183 = FILL_AREA_STYLE ('',( #124 ) ) ;
#184 = CARTESIAN_POINT ( 'NONE',  ( 0.000000000000000000, 0.1250000000000000000, 0.000000000000000000 ) ) ;
#185 = DIRECTION ( 'NONE',  ( -1.219736248827480055E-16, 1.000000000000000000, 0.000000000000000000 ) ) ;
#186 = AXIS2_PLACEMENT_3D ( 'NONE', #322, #195, #320 ) ;
#187 = AXIS2_PLACEMENT_3D ( 'NONE', #343, #66, #194 ) ;
#188 = FILL_AREA_STYLE ('',( #345 ) ) ;
#189 = DIRECTION ( 'NONE',  ( -1.219736248827480055E-16, 1.000000000000000000, -0.000000000000000000 ) ) ;
#190 = DIRECTION ( 'NONE',  ( -1.000000000000000000, -1.219736248827480055E-16, 0.000000000000000000 ) ) ;
#191 = EDGE_CURVE ( 'NONE', #209, #29, #193, .T. ) ;
#192 = CARTESIAN_POINT ( 'NONE',  ( 6.123233995736766036E-17, 2.000000000000000000, 0.000000000000000000 ) ) ;
#193 = CIRCLE ( 'NONE', #136, 0.1249999999999999861 ) ;
#194 = DIRECTION ( 'NONE',  ( -1.000000000000000000, 0.000000000000000000, 0.000000000000000000 ) ) ;
#195 = DIRECTION ( 'NONE',  ( -1.219736248827480055E-16, 1.000000000000000000, -0.000000000000000000 ) ) ;
#196 = CARTESIAN_POINT ( 'NONE',  ( 0.000000000000000000, 0.000000000000000000, 0.000000000000000000 ) ) ;
#197 = COLOUR_RGB ( '',1.000000000000000000, 0.000000000000000000, 0.000000000000000000 ) ;
#198 = CARTESIAN_POINT ( 'NONE',  ( 0.000000000000000000, 0.000000000000000000, -0.1249999999999999584 ) ) ;
#199 = ORIENTED_EDGE ( 'NONE', *, *, #336, .T. ) ;
#200 = EDGE_CURVE ( 'NONE', #88, #29, #86, .T. ) ;
#201 = CARTESIAN_POINT ( 'NONE',  ( -0.1250000000000000000, 0.1250000000000000000, 1.530808498934191201E-17 ) ) ;
#202 = ORIENTED_EDGE ( 'NONE', *, *, #200, .F. ) ;
#203 = DIRECTION ( 'NONE',  ( 0.000000000000000000, 0.000000000000000000, 1.000000000000000000 ) ) ;
#204 = FILL_AREA_STYLE_COLOUR ( '', #315 ) ;
#205 = UNCERTAINTY_MEASURE_WITH_UNIT (LENGTH_MEASURE( 1.000000000000000082E-05 ), #181, 'distance_accuracy_value', 'NONE');
#206 = AXIS2_PLACEMENT_3D ( 'NONE', #362, #64, #92 ) ;
#207 =( GEOMETRIC_REPRESENTATION_CONTEXT ( 3 ) GLOBAL_UNCERTAINTY_ASSIGNED_CONTEXT ( ( #367 ) ) GLOBAL_UNIT_ASSIGNED_CONTEXT ( ( #260, #292, #169 ) ) REPRESENTATION_CONTEXT ( 'NONE', 'WORKASPACE' ) );
#208 = CLOSED_SHELL ( 'NONE', ( #119, #306, #154, #34 ) ) ;
#209 = VERTEX_POINT ( 'NONE', #201 ) ;
#210 = VERTEX_POINT ( 'NONE', #104 ) ;
#211 = DIRECTION ( 'NONE',  ( 0.000000000000000000, 0.000000000000000000, -1.000000000000000000 ) ) ;
#212 = CIRCLE ( 'NONE', #247, 0.1249999999999999306 ) ;
#213 = AXIS2_PLACEMENT_3D ( 'NONE', #330, #40, #75 ) ;
#214 = APPLICATION_CONTEXT ( 'automotive_design' ) ;
#215 = DIRECTION ( 'NONE',  ( -1.219736248827480055E-16, 1.000000000000000000, -0.000000000000000000 ) ) ;
#216 = PRESENTATION_STYLE_ASSIGNMENT (( #218 ) ) ;
#217 = DIRECTION ( 'NONE',  ( -1.000000000000000000, 0.000000000000000000, 0.000000000000000000 ) ) ;
#218 = SURFACE_STYLE_USAGE ( .BOTH. , #250 ) ;
#219 = PRODUCT_CONTEXT ( 'NONE', #214, 'mechanical' ) ;
#220 = SURFACE_SIDE_STYLE ('',( #278 ) ) ;
#221 =( LENGTH_UNIT ( ) NAMED_UNIT ( * ) SI_UNIT ( $, .METRE. ) );
#222 = ORIENTED_EDGE ( 'NONE', *, *, #246, .T. ) ;
#223 = FILL_AREA_STYLE ('',( #204 ) ) ;
#224 = CIRCLE ( 'NONE', #135, 0.1249999999999999861 ) ;
#225 = VERTEX_POINT ( 'NONE', #103 ) ;
#226 = AXIS2_PLACEMENT_3D ( 'NONE', #47, #20, #339 ) ;
#227 = SURFACE_SIDE_STYLE ('',( #166 ) ) ;
#228 = PRESENTATION_LAYER_ASSIGNMENT (  '', '', ( #56 ) ) ;
#229 = EDGE_CURVE ( 'NONE', #268, #289, #231, .T. ) ;
#230 = CARTESIAN_POINT ( 'NONE',  ( 0.1249999999999998473, 2.000000000000000000, 1.530808498934188736E-17 ) ) ;
#231 = LINE ( 'NONE', #230, #347 ) ;
#232 = VERTEX_POINT ( 'NONE', #162 ) ;
#233 = PRESENTATION_STYLE_ASSIGNMENT (( #93 ) ) ;
#234 = EDGE_LOOP ( 'NONE', ( #321, #266 ) ) ;
#235 = PRODUCT ( '81458', '81458', '', ( #219 ) ) ;
#236 = ORIENTED_EDGE ( 'NONE', *, *, #7, .F. ) ;
#237 = ORIENTED_EDGE ( 'NONE', *, *, #68, .T. ) ;
#238 = ADVANCED_FACE ( 'NONE', ( #295 ), #284, .T. ) ;
#239 =( NAMED_UNIT ( * ) PLANE_ANGLE_UNIT ( ) SI_UNIT ( $, .RADIAN. ) );
#240 = AXIS2_PLACEMENT_3D ( 'NONE', #82, #27, #115 ) ;
#241 = MECHANICAL_DESIGN_GEOMETRIC_PRESENTATION_REPRESENTATION (  '', ( #56 ), #111 ) ;
#242 = PLANE ( 'NONE',  #60 ) ;
#243 = PRODUCT_DEFINITION_FORMATION_WITH_SPECIFIED_SOURCE ( 'ANY', '', #235, .NOT_KNOWN. ) ;
#244 = DIRECTION ( 'NONE',  ( -0.000000000000000000, -1.000000000000000000, -0.000000000000000000 ) ) ;
#245 =( LENGTH_UNIT ( ) NAMED_UNIT ( * ) SI_UNIT ( $, .METRE. ) );
#246 = EDGE_CURVE ( 'NONE', #8, #268, #331, .T. ) ;
#247 = AXIS2_PLACEMENT_3D ( 'NONE', #137, #108, #254 ) ;
#248 = STYLED_ITEM ( 'NONE', ( #160 ), #351 ) ;
#249 = CARTESIAN_POINT ( 'NONE',  ( 0.000000000000000000, 0.5000000000000000000, 0.000000000000000000 ) ) ;
#250 = SURFACE_SIDE_STYLE ('',( #78 ) ) ;
#251 =( NAMED_UNIT ( * ) SI_UNIT ( $, .STERADIAN. ) SOLID_ANGLE_UNIT ( ) );
#252 = EDGE_CURVE ( 'NONE', #268, #8, #35, .T. ) ;
#253 =( GEOMETRIC_REPRESENTATION_CONTEXT ( 3 ) GLOBAL_UNCERTAINTY_ASSIGNED_CONTEXT ( ( #90 ) ) GLOBAL_UNIT_ASSIGNED_CONTEXT ( ( #132, #134, #159 ) ) REPRESENTATION_CONTEXT ( 'NONE', 'WORKASPACE' ) );
#254 = DIRECTION ( 'NONE',  ( 0.000000000000000000, 0.000000000000000000, -1.000000000000000000 ) ) ;
#255 = ORIENTED_EDGE ( 'NONE', *, *, #17, .T. ) ;
#256 = DIMENSIONAL_EXPONENTS ( 1.000000000000000000, 0.000000000000000000, 0.000000000000000000, 0.000000000000000000, 0.000000000000000000, 0.000000000000000000, 0.000000000000000000 ) ;
#257 = PRESENTATION_STYLE_ASSIGNMENT (( #258 ) ) ;
#258 = SURFACE_STYLE_USAGE ( .BOTH. , #139 ) ;
#259 = EDGE_CURVE ( 'NONE', #335, #88, #212, .T. ) ;
#260 =( CONVERSION_BASED_UNIT ( 'INCH', #133 ) LENGTH_UNIT ( ) NAMED_UNIT ( #344 ) );
#261 = UNCERTAINTY_MEASURE_WITH_UNIT (LENGTH_MEASURE( 1.000000000000000082E-05 ), #36, 'distance_accuracy_value', 'NONE');
#262 = CARTESIAN_POINT ( 'NONE',  ( -0.1249999999999994310, 0.5000000000000001110, 0.000000000000000000 ) ) ;
#263 = PRODUCT_DEFINITION_CONTEXT ( 'detailed design', #13, 'design' ) ;
#264 =( LENGTH_UNIT ( ) NAMED_UNIT ( * ) SI_UNIT ( $, .METRE. ) );
#265 = CIRCLE ( 'NONE', #48, 0.1250000000000000000 ) ;
#266 = ORIENTED_EDGE ( 'NONE', *, *, #252, .F. ) ;
#267 = CIRCLE ( 'NONE', #319, 0.1249999999999998612 ) ;
#268 = VERTEX_POINT ( 'NONE', #170 ) ;
#269 = PRESENTATION_STYLE_ASSIGNMENT (( #272 ) ) ;
#270 = ORIENTED_EDGE ( 'NONE', *, *, #191, .F. ) ;
#271 = ADVANCED_FACE ( 'NONE', ( #4 ), #325, .T. ) ;
#272 = SURFACE_STYLE_USAGE ( .BOTH. , #299 ) ;
#273 = AXIS2_PLACEMENT_3D ( 'NONE', #41, #42, #150 ) ;
#274 = DIRECTION ( 'NONE',  ( 1.000000000000000000, 0.000000000000000000, -1.224646799147353207E-16 ) ) ;
#275 = CARTESIAN_POINT ( 'NONE',  ( 0.1249999999999999306, 2.000000000000000000, 1.530808498934189352E-17 ) ) ;
#276 =( NAMED_UNIT ( * ) PLANE_ANGLE_UNIT ( ) SI_UNIT ( $, .RADIAN. ) );
#277 = MANIFOLD_SOLID_BREP ( 'Revolve - Tool Body (Straight Shanked)', #208 ) ;
#278 = SURFACE_STYLE_FILL_AREA ( #1 ) ;
#279 = CARTESIAN_POINT ( 'NONE',  ( -0.1249999999999997918, 2.000000000000000000, 0.000000000000000000 ) ) ;
#280 = COLOUR_RGB ( '',0.7921568627450980005, 0.8196078431372548767, 0.9333333333333333481 ) ;
#281 = CARTESIAN_POINT ( 'NONE',  ( 1.530808498934190893E-17, 0.5000000000000000000, 0.1249999999999999306 ) ) ;
#282 = ADVANCED_FACE ( 'NONE', ( #11 ), #144, .T. ) ;
#283 = SHAPE_DEFINITION_REPRESENTATION ( #361, #312 ) ;
#284 = SPHERICAL_SURFACE ( 'NONE', #70, 0.1250000000000000000 ) ;
#285 = COLOUR_RGB ( '',1.000000000000000000, 0.000000000000000000, 0.000000000000000000 ) ;
#286 = APPLICATION_PROTOCOL_DEFINITION ( 'draft international standard', 'automotive_design', 1998, #13 ) ;
#287 =( GEOMETRIC_REPRESENTATION_CONTEXT ( 3 ) GLOBAL_UNCERTAINTY_ASSIGNED_CONTEXT ( ( #205 ) ) GLOBAL_UNIT_ASSIGNED_CONTEXT ( ( #181, #239, #174 ) ) REPRESENTATION_CONTEXT ( 'NONE', 'WORKASPACE' ) );
#288 = SURFACE_STYLE_FILL_AREA ( #164 ) ;
#289 = VERTEX_POINT ( 'NONE', #275 ) ;
#290 = EDGE_CURVE ( 'NONE', #141, #289, #356, .T. ) ;
#291 =( NAMED_UNIT ( * ) SI_UNIT ( $, .STERADIAN. ) SOLID_ANGLE_UNIT ( ) );
#292 =( NAMED_UNIT ( * ) PLANE_ANGLE_UNIT ( ) SI_UNIT ( $, .RADIAN. ) );
#293 =( LENGTH_UNIT ( ) NAMED_UNIT ( * ) SI_UNIT ( $, .METRE. ) );
#294 = STYLED_ITEM ( 'NONE', ( #257 ), #271 ) ;
#295 = FACE_OUTER_BOUND ( 'NONE', #91, .T. ) ;
#296 = ORIENTED_EDGE ( 'NONE', *, *, #290, .F. ) ;
#297 = DIRECTION ( 'NONE',  ( -0.000000000000000000, -1.000000000000000000, -0.000000000000000000 ) ) ;
#298 = ORIENTED_EDGE ( 'NONE', *, *, #329, .T. ) ;
#299 = SURFACE_SIDE_STYLE ('',( #15 ) ) ;
#300 = AXIS2_PLACEMENT_3D ( 'NONE', #37, #152, #274 ) ;
#301 = VECTOR ( 'NONE', #244, 39.37007874015748143 ) ;
#302 = CARTESIAN_POINT ( 'NONE',  ( 0.000000000000000000, 0.1250000000000000000, -0.1249999999999999861 ) ) ;
#303 = UNCERTAINTY_MEASURE_WITH_UNIT (LENGTH_MEASURE( 1.000000000000000082E-05 ), #129, 'distance_accuracy_value', 'NONE');
#304 = LENGTH_MEASURE_WITH_UNIT ( LENGTH_MEASURE( 0.02539999999999999897 ), #264 );
#305 = EDGE_LOOP ( 'NONE', ( #165, #199 ) ) ;
#306 = ADVANCED_FACE ( 'NONE', ( #50 ), #23, .F. ) ;
#307 = FACE_OUTER_BOUND ( 'NONE', #12, .T. ) ;
#308 = AXIS2_PLACEMENT_3D ( 'NONE', #327, #297, #182 ) ;
#309 = ORIENTED_EDGE ( 'NONE', *, *, #74, .T. ) ;
#310 = SURFACE_STYLE_FILL_AREA ( #24 ) ;
#311 =( LENGTH_UNIT ( ) NAMED_UNIT ( * ) SI_UNIT ( $, .METRE. ) );
#312 = ADVANCED_BREP_SHAPE_REPRESENTATION ( '81458', ( #145, #277, #142 ), #207 ) ;
#313 = SURFACE_SIDE_STYLE ('',( #310 ) ) ;
#314 = DIRECTION ( 'NONE',  ( 0.000000000000000000, 0.000000000000000000, -1.000000000000000000 ) ) ;
#315 = COLOUR_RGB ( '',1.000000000000000000, 0.000000000000000000, 0.000000000000000000 ) ;
#316 = LENGTH_MEASURE_WITH_UNIT ( LENGTH_MEASURE( 0.02539999999999999897 ), #245 );
#317 = SURFACE_STYLE_USAGE ( .BOTH. , #227 ) ;
#318 = DIMENSIONAL_EXPONENTS ( 1.000000000000000000, 0.000000000000000000, 0.000000000000000000, 0.000000000000000000, 0.000000000000000000, 0.000000000000000000, 0.000000000000000000 ) ;
#319 = AXIS2_PLACEMENT_3D ( 'NONE', #369, #215, #341 ) ;
#320 = DIRECTION ( 'NONE',  ( -1.000000000000000000, 0.000000000000000000, 0.000000000000000000 ) ) ;
#321 = ORIENTED_EDGE ( 'NONE', *, *, #246, .F. ) ;
#322 = CARTESIAN_POINT ( 'NONE',  ( 2.441927772814896440E-16, 0.5000000000000001110, 0.000000000000000000 ) ) ;
#323 = DIRECTION ( 'NONE',  ( -0.000000000000000000, -1.000000000000000000, -0.000000000000000000 ) ) ;
#324 =( GEOMETRIC_REPRESENTATION_CONTEXT ( 3 ) GLOBAL_UNCERTAINTY_ASSIGNED_CONTEXT ( ( #113 ) ) GLOBAL_UNIT_ASSIGNED_CONTEXT ( ( #21, #276, #100 ) ) REPRESENTATION_CONTEXT ( 'NONE', 'WORKASPACE' ) );
#325 = SPHERICAL_SURFACE ( 'NONE', #3, 0.1250000000000000000 ) ;
#326 = SURFACE_STYLE_FILL_AREA ( #183 ) ;
#327 = CARTESIAN_POINT ( 'NONE',  ( 0.000000000000000000, 0.1250000000000000000, 0.000000000000000000 ) ) ;
#328 = UNCERTAINTY_MEASURE_WITH_UNIT (LENGTH_MEASURE( 1.000000000000000082E-05 ), #120, 'distance_accuracy_value', 'NONE');
#329 = EDGE_CURVE ( 'NONE', #335, #210, #71, .T. ) ;
#330 = CARTESIAN_POINT ( 'NONE',  ( 0.000000000000000000, 0.000000000000000000, 0.000000000000000000 ) ) ;
#331 = CIRCLE ( 'NONE', #186, 0.1249999999999996808 ) ;
#332 = ORIENTED_EDGE ( 'NONE', *, *, #7, .T. ) ;
#333 = EDGE_LOOP ( 'NONE', ( #332, #298, #366, #121, #202 ) ) ;
#334 = DIRECTION ( 'NONE',  ( 0.000000000000000000, 1.000000000000000000, 0.000000000000000000 ) ) ;
#335 = VERTEX_POINT ( 'NONE', #281 ) ;
#336 = EDGE_CURVE ( 'NONE', #289, #141, #267, .T. ) ;
#337 = CARTESIAN_POINT ( 'NONE',  ( 2.441927772814896440E-16, 0.5000000000000000000, 0.000000000000000000 ) ) ;
#338 = PRESENTATION_LAYER_ASSIGNMENT (  '', '', ( #147 ) ) ;
#339 = DIRECTION ( 'NONE',  ( 0.000000000000000000, 0.000000000000000000, -1.000000000000000000 ) ) ;
#340 = STYLED_ITEM ( 'NONE', ( #233 ), #277 ) ;
#341 = DIRECTION ( 'NONE',  ( -1.000000000000000000, 0.000000000000000000, 0.000000000000000000 ) ) ;
#342 = CYLINDRICAL_SURFACE ( 'NONE', #226, 0.1249999999999999584 ) ;
#343 = CARTESIAN_POINT ( 'NONE',  ( 6.123233995736766036E-17, 2.000000000000000000, 0.000000000000000000 ) ) ;
#344 = DIMENSIONAL_EXPONENTS ( 1.000000000000000000, 0.000000000000000000, 0.000000000000000000, 0.000000000000000000, 0.000000000000000000, 0.000000000000000000, 0.000000000000000000 ) ;
#345 = FILL_AREA_STYLE_COLOUR ( '', #280 ) ;
#346 =( LENGTH_UNIT ( ) NAMED_UNIT ( * ) SI_UNIT ( $, .METRE. ) );
#347 = VECTOR ( 'NONE', #33, 39.37007874015748143 ) ;
#348 = DIRECTION ( 'NONE',  ( 1.000000000000000000, 0.000000000000000000, 0.000000000000000000 ) ) ;
#349 = DIRECTION ( 'NONE',  ( 0.000000000000000000, 0.000000000000000000, 1.000000000000000000 ) ) ;
#350 = ORIENTED_EDGE ( 'NONE', *, *, #329, .F. ) ;
#351 = ADVANCED_FACE ( 'NONE', ( #307 ), #242, .T. ) ;
#352 =( NAMED_UNIT ( * ) PLANE_ANGLE_UNIT ( ) SI_UNIT ( $, .RADIAN. ) );
#353 = DIRECTION ( 'NONE',  ( 0.000000000000000000, 0.000000000000000000, 1.000000000000000000 ) ) ;
#354 = ORIENTED_EDGE ( 'NONE', *, *, #259, .F. ) ;
#355 = MECHANICAL_DESIGN_GEOMETRIC_PRESENTATION_REPRESENTATION (  '', ( #172 ), #77 ) ;
#356 = CIRCLE ( 'NONE', #187, 0.1249999999999998612 ) ;
#357 = MECHANICAL_DESIGN_GEOMETRIC_PRESENTATION_REPRESENTATION (  '', ( #248 ), #105 ) ;
#358 = FILL_AREA_STYLE ('',( #80 ) ) ;
#359 = DIRECTION ( 'NONE',  ( -1.219736248827480055E-16, 1.000000000000000000, -0.000000000000000000 ) ) ;
#360 = EDGE_CURVE ( 'NONE', #210, #209, #224, .T. ) ;
#361 = PRODUCT_DEFINITION_SHAPE ( 'NONE', 'NONE',  #114 ) ;
#362 = CARTESIAN_POINT ( 'NONE',  ( 0.000000000000000000, 0.5000000000000000000, 0.000000000000000000 ) ) ;
#363 = MECHANICAL_DESIGN_GEOMETRIC_PRESENTATION_REPRESENTATION (  '', ( #28 ), #253 ) ;
#364 = EDGE_LOOP ( 'NONE', ( #168, #176, #255, #85 ) ) ;
#365 = PRODUCT_RELATED_PRODUCT_CATEGORY ( 'part', '', ( #235 ) ) ;
#366 = ORIENTED_EDGE ( 'NONE', *, *, #22, .F. ) ;
#367 = UNCERTAINTY_MEASURE_WITH_UNIT (LENGTH_MEASURE( 1.000000000000000082E-05 ), #260, 'distance_accuracy_value', 'NONE');
#368 = CARTESIAN_POINT ( 'NONE',  ( 0.000000000000000000, 0.1250000000000000000, 0.000000000000000000 ) ) ;
#369 = CARTESIAN_POINT ( 'NONE',  ( 6.123233995736766036E-17, 2.000000000000000000, 0.000000000000000000 ) ) ;
#370 = PRESENTATION_LAYER_ASSIGNMENT (  '', '', ( #28 ) ) ;
#371 = CYLINDRICAL_SURFACE ( 'NONE', #128, 0.1249999999999997780 ) ;
#372 = MECHANICAL_DESIGN_GEOMETRIC_PRESENTATION_REPRESENTATION (  '', ( #340 ), #287 ) ;
#373 =( NAMED_UNIT ( * ) PLANE_ANGLE_UNIT ( ) SI_UNIT ( $, .RADIAN. ) );
ENDSEC;
END-ISO-10303-21;
