ISO-10303-21;
HEADER;
FILE_DESCRIPTION (( 'STEP AP214' ),
    '1' );
FILE_NAME ('30092.STEP',
    '2023-06-22T17:56:05',
    ( '' ),
    ( '' ),
    'SwSTEP 2.0',
    'SolidWorks 2023',
    '' );
FILE_SCHEMA (( 'AUTOMOTIVE_DESIGN' ));
ENDSEC;

DATA;
#1 = CARTESIAN_POINT ( 'NONE',  ( 0.000000000000000000, 0.6250000000000000000, 0.000000000000000000 ) ) ;
#2 = DIRECTION ( 'NONE',  ( -0.000000000000000000, -1.000000000000000000, -0.000000000000000000 ) ) ;
#3 = AXIS2_PLACEMENT_3D ( 'NONE', #14, #142, #118 ) ;
#4 = MECHANICAL_DESIGN_GEOMETRIC_PRESENTATION_REPRESENTATION (  '', ( #23 ), #8 ) ;
#5 = DIRECTION ( 'NONE',  ( 0.000000000000000000, 1.000000000000000000, 0.000000000000000000 ) ) ;
#6 = FACE_OUTER_BOUND ( 'NONE', #13, .T. ) ;
#7 = SURFACE_STYLE_USAGE ( .BOTH. , #34 ) ;
#8 =( GEOMETRIC_REPRESENTATION_CONTEXT ( 3 ) GLOBAL_UNCERTAINTY_ASSIGNED_CONTEXT ( ( #100 ) ) GLOBAL_UNIT_ASSIGNED_CONTEXT ( ( #52, #99, #169 ) ) REPRESENTATION_CONTEXT ( 'NONE', 'WORKASPACE' ) );
#9 = CARTESIAN_POINT ( 'NONE',  ( 0.000000000000000000, 0.000000000000000000, 0.000000000000000000 ) ) ;
#10 = MECHANICAL_DESIGN_GEOMETRIC_PRESENTATION_REPRESENTATION (  '', ( #289 ), #265 ) ;
#11 = DIRECTION ( 'NONE',  ( -1.000000000000000000, 0.000000000000000000, 0.000000000000000000 ) ) ;
#12 = DIRECTION ( 'NONE',  ( 1.000000000000000000, 0.000000000000000000, 0.000000000000000000 ) ) ;
#13 = EDGE_LOOP ( 'NONE', ( #164, #91, #67, #176 ) ) ;
#14 = CARTESIAN_POINT ( 'NONE',  ( 0.000000000000000000, 0.000000000000000000, 0.000000000000000000 ) ) ;
#15 = CIRCLE ( 'NONE', #206, 0.09375000000000005551 ) ;
#16 = ORIENTED_EDGE ( 'NONE', *, *, #27, .T. ) ;
#17 = CARTESIAN_POINT ( 'NONE',  ( 0.09374999999999998612, 0.6250000000000000000, 1.148106374200644171E-17 ) ) ;
#18 =( LENGTH_UNIT ( ) NAMED_UNIT ( * ) SI_UNIT ( $, .METRE. ) );
#19 = VERTEX_POINT ( 'NONE', #171 ) ;
#20 = DIRECTION ( 'NONE',  ( -0.000000000000000000, -1.000000000000000000, -0.000000000000000000 ) ) ;
#21 = ORIENTED_EDGE ( 'NONE', *, *, #193, .F. ) ;
#22 = CARTESIAN_POINT ( 'NONE',  ( 0.000000000000000000, 0.000000000000000000, 0.000000000000000000 ) ) ;
#23 = STYLED_ITEM ( 'NONE', ( #260 ), #103 ) ;
#24 = ORIENTED_EDGE ( 'NONE', *, *, #242, .T. ) ;
#25 = UNCERTAINTY_MEASURE_WITH_UNIT (LENGTH_MEASURE( 1.000000000000000082E-05 ), #292, 'distance_accuracy_value', 'NONE');
#26 = LENGTH_MEASURE_WITH_UNIT ( LENGTH_MEASURE( 0.02539999999999999897 ), #191 );
#27 = EDGE_CURVE ( 'NONE', #309, #258, #97, .T. ) ;
#28 = LENGTH_MEASURE_WITH_UNIT ( LENGTH_MEASURE( 0.02539999999999999897 ), #305 );
#29 = CARTESIAN_POINT ( 'NONE',  ( -6.123233995736766036E-17, 2.500000000000000000, 0.000000000000000000 ) ) ;
#30 = CLOSED_SHELL ( 'NONE', ( #253, #273, #82, #45 ) ) ;
#31 = CIRCLE ( 'NONE', #78, 0.09374999999999998612 ) ;
#32 = DIRECTION ( 'NONE',  ( -3.265724797726275178E-17, 1.000000000000000000, -0.000000000000000000 ) ) ;
#33 = EDGE_CURVE ( 'NONE', #19, #42, #151, .T. ) ;
#34 = SURFACE_SIDE_STYLE ('',( #245 ) ) ;
#35 =( NAMED_UNIT ( * ) PLANE_ANGLE_UNIT ( ) SI_UNIT ( $, .RADIAN. ) );
#36 = PLANE ( 'NONE',  #3 ) ;
#37 =( NAMED_UNIT ( * ) PLANE_ANGLE_UNIT ( ) SI_UNIT ( $, .RADIAN. ) );
#38 =( NAMED_UNIT ( * ) PLANE_ANGLE_UNIT ( ) SI_UNIT ( $, .RADIAN. ) );
#39 = CARTESIAN_POINT ( 'NONE',  ( 0.000000000000000000, 0.000000000000000000, 0.000000000000000000 ) ) ;
#40 = AXIS2_PLACEMENT_3D ( 'NONE', #47, #5, #145 ) ;
#41 = EDGE_CURVE ( 'NONE', #187, #85, #255, .T. ) ;
#42 = VERTEX_POINT ( 'NONE', #17 ) ;
#43 = CARTESIAN_POINT ( 'NONE',  ( 0.000000000000000000, 0.000000000000000000, 0.000000000000000000 ) ) ;
#44 = APPLICATION_CONTEXT ( 'automotive_design' ) ;
#45 = ADVANCED_FACE ( 'NONE', ( #274 ), #36, .T. ) ;
#46 = DIRECTION ( 'NONE',  ( -1.000000000000000000, 0.000000000000000000, 0.000000000000000000 ) ) ;
#47 = CARTESIAN_POINT ( 'NONE',  ( 0.000000000000000000, 0.6250000000000000000, 0.000000000000000000 ) ) ;
#48 = FILL_AREA_STYLE ('',( #124 ) ) ;
#49 =( NAMED_UNIT ( * ) PLANE_ANGLE_UNIT ( ) SI_UNIT ( $, .RADIAN. ) );
#50 = CARTESIAN_POINT ( 'NONE',  ( -0.09375000000000012490, 2.500000000000000000, 0.000000000000000000 ) ) ;
#51 = ADVANCED_FACE ( 'NONE', ( #213 ), #303, .F. ) ;
#52 =( CONVERSION_BASED_UNIT ( 'INCH', #26 ) LENGTH_UNIT ( ) NAMED_UNIT ( #299 ) );
#53 = PRODUCT_DEFINITION ( 'UNKNOWN', '', #220, #277 ) ;
#54 = COLOUR_RGB ( '',1.000000000000000000, 0.000000000000000000, 0.000000000000000000 ) ;
#55 = COLOUR_RGB ( '',1.000000000000000000, 0.000000000000000000, 0.000000000000000000 ) ;
#56 = SURFACE_STYLE_FILL_AREA ( #294 ) ;
#57 = FILL_AREA_STYLE ('',( #293 ) ) ;
#58 = PRESENTATION_STYLE_ASSIGNMENT (( #272 ) ) ;
#59 = UNCERTAINTY_MEASURE_WITH_UNIT (LENGTH_MEASURE( 1.000000000000000082E-05 ), #252, 'distance_accuracy_value', 'NONE');
#60 =( LENGTH_UNIT ( ) NAMED_UNIT ( * ) SI_UNIT ( $, .METRE. ) );
#61 = PRESENTATION_STYLE_ASSIGNMENT (( #247 ) ) ;
#62 = ORIENTED_EDGE ( 'NONE', *, *, #134, .F. ) ;
#63 = DIMENSIONAL_EXPONENTS ( 1.000000000000000000, 0.000000000000000000, 0.000000000000000000, 0.000000000000000000, 0.000000000000000000, 0.000000000000000000, 0.000000000000000000 ) ;
#64 = AXIS2_PLACEMENT_3D ( 'NONE', #285, #222, #69 ) ;
#65 = DIRECTION ( 'NONE',  ( -0.000000000000000000, -1.000000000000000000, -0.000000000000000000 ) ) ;
#66 = SURFACE_STYLE_FILL_AREA ( #306 ) ;
#67 = ORIENTED_EDGE ( 'NONE', *, *, #41, .F. ) ;
#68 = ORIENTED_EDGE ( 'NONE', *, *, #138, .F. ) ;
#69 = DIRECTION ( 'NONE',  ( -1.000000000000000000, 0.000000000000000000, 0.000000000000000000 ) ) ;
#70 = DIRECTION ( 'NONE',  ( -0.000000000000000000, -1.000000000000000000, -0.000000000000000000 ) ) ;
#71 =( GEOMETRIC_REPRESENTATION_CONTEXT ( 3 ) GLOBAL_UNCERTAINTY_ASSIGNED_CONTEXT ( ( #141 ) ) GLOBAL_UNIT_ASSIGNED_CONTEXT ( ( #126, #262, #223 ) ) REPRESENTATION_CONTEXT ( 'NONE', 'WORKASPACE' ) );
#72 = LENGTH_MEASURE_WITH_UNIT ( LENGTH_MEASURE( 0.02539999999999999897 ), #288 );
#73 = CARTESIAN_POINT ( 'NONE',  ( 0.000000000000000000, 0.000000000000000000, 0.000000000000000000 ) ) ;
#74 = CARTESIAN_POINT ( 'NONE',  ( 0.000000000000000000, 0.000000000000000000, -0.09375000000000001388 ) ) ;
#75 = CLOSED_SHELL ( 'NONE', ( #161, #51, #300, #279 ) ) ;
#76 = CARTESIAN_POINT ( 'NONE',  ( 1.148106374200643401E-17, 0.6250000000000000000, 0.09374999999999998612 ) ) ;
#77 = LENGTH_MEASURE_WITH_UNIT ( LENGTH_MEASURE( 0.02539999999999999897 ), #135 );
#78 = AXIS2_PLACEMENT_3D ( 'NONE', #227, #261, #241 ) ;
#79 = ORIENTED_EDGE ( 'NONE', *, *, #284, .F. ) ;
#80 = LENGTH_MEASURE_WITH_UNIT ( LENGTH_MEASURE( 0.02539999999999999897 ), #60 );
#81 = CARTESIAN_POINT ( 'NONE',  ( 1.148106374200643401E-17, 0.000000000000000000, 0.09374999999999998612 ) ) ;
#82 = ADVANCED_FACE ( 'NONE', ( #189 ), #278, .T. ) ;
#83 = SURFACE_STYLE_FILL_AREA ( #298 ) ;
#84 = AXIS2_PLACEMENT_3D ( 'NONE', #1, #70, #266 ) ;
#85 = VERTEX_POINT ( 'NONE', #307 ) ;
#86 = FILL_AREA_STYLE_COLOUR ( '', #54 ) ;
#87 = DIRECTION ( 'NONE',  ( 0.000000000000000000, 0.000000000000000000, 1.000000000000000000 ) ) ;
#88 = DIMENSIONAL_EXPONENTS ( 1.000000000000000000, 0.000000000000000000, 0.000000000000000000, 0.000000000000000000, 0.000000000000000000, 0.000000000000000000, 0.000000000000000000 ) ;
#89 = PRESENTATION_STYLE_ASSIGNMENT (( #210 ) ) ;
#90 =( NAMED_UNIT ( * ) SI_UNIT ( $, .STERADIAN. ) SOLID_ANGLE_UNIT ( ) );
#91 = ORIENTED_EDGE ( 'NONE', *, *, #229, .T. ) ;
#92 = DIRECTION ( 'NONE',  ( -1.000000000000000000, -3.265724797726275178E-17, 0.000000000000000000 ) ) ;
#93 = MANIFOLD_SOLID_BREP ( 'Revolve - Cutting Edge', #30 ) ;
#94 = STYLED_ITEM ( 'NONE', ( #61 ), #273 ) ;
#95 = EDGE_LOOP ( 'NONE', ( #304, #248, #209, #62 ) ) ;
#96 = DIRECTION ( 'NONE',  ( 0.000000000000000000, 0.000000000000000000, -1.000000000000000000 ) ) ;
#97 = CIRCLE ( 'NONE', #84, 0.09374999999999998612 ) ;
#98 = AXIS2_PLACEMENT_3D ( 'NONE', #9, #203, #179 ) ;
#99 =( NAMED_UNIT ( * ) PLANE_ANGLE_UNIT ( ) SI_UNIT ( $, .RADIAN. ) );
#100 = UNCERTAINTY_MEASURE_WITH_UNIT (LENGTH_MEASURE( 1.000000000000000082E-05 ), #52, 'distance_accuracy_value', 'NONE');
#101 = CARTESIAN_POINT ( 'NONE',  ( 0.09374999999999998612, 2.500000000000000000, 0.000000000000000000 ) ) ;
#102 = CARTESIAN_POINT ( 'NONE',  ( -6.123233995736766036E-17, 2.500000000000000000, 0.000000000000000000 ) ) ;
#103 = MANIFOLD_SOLID_BREP ( 'Revolve - Tool Body (Straight Shanked)', #75 ) ;
#104 = LINE ( 'NONE', #201, #308 ) ;
#105 = ADVANCED_BREP_SHAPE_REPRESENTATION ( '30092', ( #93, #103, #160 ), #147 ) ;
#106 = AXIS2_PLACEMENT_3D ( 'NONE', #43, #20, #218 ) ;
#107 = ORIENTED_EDGE ( 'NONE', *, *, #138, .T. ) ;
#108 =( NAMED_UNIT ( * ) SI_UNIT ( $, .STERADIAN. ) SOLID_ANGLE_UNIT ( ) );
#109 = CYLINDRICAL_SURFACE ( 'NONE', #98, 0.09374999999999998612 ) ;
#110 = PRESENTATION_LAYER_ASSIGNMENT (  '', '', ( #228 ) ) ;
#111 = DIMENSIONAL_EXPONENTS ( 1.000000000000000000, 0.000000000000000000, 0.000000000000000000, 0.000000000000000000, 0.000000000000000000, 0.000000000000000000, 0.000000000000000000 ) ;
#112 = DIMENSIONAL_EXPONENTS ( 1.000000000000000000, 0.000000000000000000, 0.000000000000000000, 0.000000000000000000, 0.000000000000000000, 0.000000000000000000, 0.000000000000000000 ) ;
#113 = SURFACE_STYLE_FILL_AREA ( #119 ) ;
#114 = PRODUCT_CONTEXT ( 'NONE', #297, 'mechanical' ) ;
#115 =( CONVERSION_BASED_UNIT ( 'INCH', #140 ) LENGTH_UNIT ( ) NAMED_UNIT ( #88 ) );
#116 = EDGE_CURVE ( 'NONE', #19, #187, #283, .T. ) ;
#117 = ORIENTED_EDGE ( 'NONE', *, *, #229, .F. ) ;
#118 = DIRECTION ( 'NONE',  ( 0.000000000000000000, 0.000000000000000000, -1.000000000000000000 ) ) ;
#119 = FILL_AREA_STYLE ('',( #86 ) ) ;
#120 =( NAMED_UNIT ( * ) PLANE_ANGLE_UNIT ( ) SI_UNIT ( $, .RADIAN. ) );
#121 = ORIENTED_EDGE ( 'NONE', *, *, #235, .F. ) ;
#122 = FILL_AREA_STYLE_COLOUR ( '', #263 ) ;
#123 = PRESENTATION_LAYER_ASSIGNMENT (  '', '', ( #289 ) ) ;
#124 = FILL_AREA_STYLE_COLOUR ( '', #133 ) ;
#125 = EDGE_LOOP ( 'NONE', ( #117, #149, #131, #68 ) ) ;
#126 =( CONVERSION_BASED_UNIT ( 'INCH', #72 ) LENGTH_UNIT ( ) NAMED_UNIT ( #111 ) );
#127 = CARTESIAN_POINT ( 'NONE',  ( 1.148106374200643555E-17, 0.000000000000000000, 0.09375000000000001388 ) ) ;
#128 = PRODUCT_RELATED_PRODUCT_CATEGORY ( 'part', '', ( #268 ) ) ;
#129 = STYLED_ITEM ( 'NONE', ( #89 ), #45 ) ;
#130 = DIRECTION ( 'NONE',  ( -0.000000000000000000, -1.000000000000000000, -0.000000000000000000 ) ) ;
#131 = ORIENTED_EDGE ( 'NONE', *, *, #116, .T. ) ;
#132 = AXIS2_PLACEMENT_3D ( 'NONE', #231, #197, #226 ) ;
#133 = COLOUR_RGB ( '',0.7921568627450980005, 0.8196078431372548767, 0.9333333333333333481 ) ;
#134 = EDGE_CURVE ( 'NONE', #137, #166, #139, .T. ) ;
#135 =( LENGTH_UNIT ( ) NAMED_UNIT ( * ) SI_UNIT ( $, .METRE. ) );
#136 = VECTOR ( 'NONE', #32, 39.37007874015748143 ) ;
#137 = VERTEX_POINT ( 'NONE', #127 ) ;
#138 = EDGE_CURVE ( 'NONE', #85, #187, #15, .T. ) ;
#139 = CIRCLE ( 'NONE', #302, 0.09375000000000001388 ) ;
#140 = LENGTH_MEASURE_WITH_UNIT ( LENGTH_MEASURE( 0.02539999999999999897 ), #18 );
#141 = UNCERTAINTY_MEASURE_WITH_UNIT (LENGTH_MEASURE( 1.000000000000000082E-05 ), #126, 'distance_accuracy_value', 'NONE');
#142 = DIRECTION ( 'NONE',  ( 0.000000000000000000, -1.000000000000000000, -0.000000000000000000 ) ) ;
#143 = SURFACE_SIDE_STYLE ('',( #66 ) ) ;
#144 =( CONVERSION_BASED_UNIT ( 'INCH', #28 ) LENGTH_UNIT ( ) NAMED_UNIT ( #184 ) );
#145 = DIRECTION ( 'NONE',  ( 0.000000000000000000, -0.000000000000000000, 1.000000000000000000 ) ) ;
#146 = VECTOR ( 'NONE', #249, 39.37007874015748143 ) ;
#147 =( GEOMETRIC_REPRESENTATION_CONTEXT ( 3 ) GLOBAL_UNCERTAINTY_ASSIGNED_CONTEXT ( ( #286 ) ) GLOBAL_UNIT_ASSIGNED_CONTEXT ( ( #254, #38, #233 ) ) REPRESENTATION_CONTEXT ( 'NONE', 'WORKASPACE' ) );
#148 = PRODUCT_DEFINITION_SHAPE ( 'NONE', 'NONE',  #53 ) ;
#149 = ORIENTED_EDGE ( 'NONE', *, *, #193, .T. ) ;
#150 = FACE_OUTER_BOUND ( 'NONE', #215, .T. ) ;
#151 = CIRCLE ( 'NONE', #132, 0.09374999999999998612 ) ;
#152 = VECTOR ( 'NONE', #172, 39.37007874015748143 ) ;
#153 = SURFACE_SIDE_STYLE ('',( #56 ) ) ;
#154 = LINE ( 'NONE', #81, #146 ) ;
#155 =( NAMED_UNIT ( * ) SI_UNIT ( $, .STERADIAN. ) SOLID_ANGLE_UNIT ( ) );
#156 = COLOUR_RGB ( '',0.7921568627450980005, 0.8196078431372548767, 0.9333333333333333481 ) ;
#157 = DIMENSIONAL_EXPONENTS ( 1.000000000000000000, 0.000000000000000000, 0.000000000000000000, 0.000000000000000000, 0.000000000000000000, 0.000000000000000000, 0.000000000000000000 ) ;
#158 = ORIENTED_EDGE ( 'NONE', *, *, #33, .F. ) ;
#159 = AXIS2_PLACEMENT_3D ( 'NONE', #73, #130, #225 ) ;
#160 = AXIS2_PLACEMENT_3D ( 'NONE', #39, #87, #12 ) ;
#161 = ADVANCED_FACE ( 'NONE', ( #6 ), #238, .T. ) ;
#162 = FACE_OUTER_BOUND ( 'NONE', #125, .T. ) ;
#163 = CARTESIAN_POINT ( 'NONE',  ( 0.000000000000000000, 0.6250000000000000000, -0.09374999999999998612 ) ) ;
#164 = ORIENTED_EDGE ( 'NONE', *, *, #33, .T. ) ;
#165 = SURFACE_STYLE_FILL_AREA ( #48 ) ;
#166 = VERTEX_POINT ( 'NONE', #74 ) ;
#167 = MECHANICAL_DESIGN_GEOMETRIC_PRESENTATION_REPRESENTATION (  '', ( #129 ), #243 ) ;
#168 = STYLED_ITEM ( 'NONE', ( #267 ), #253 ) ;
#169 =( NAMED_UNIT ( * ) SI_UNIT ( $, .STERADIAN. ) SOLID_ANGLE_UNIT ( ) );
#170 = CARTESIAN_POINT ( 'NONE',  ( 0.09374999999999995837, 2.500000000000000000, 1.148106374200644017E-17 ) ) ;
#171 = CARTESIAN_POINT ( 'NONE',  ( -0.09374999999999998612, 0.6250000000000000000, 0.000000000000000000 ) ) ;
#172 = DIRECTION ( 'NONE',  ( -3.265724797726275178E-17, 1.000000000000000000, -0.000000000000000000 ) ) ;
#173 = DIRECTION ( 'NONE',  ( -1.000000000000000000, 0.000000000000000000, 0.000000000000000000 ) ) ;
#174 = FACE_OUTER_BOUND ( 'NONE', #185, .T. ) ;
#175 =( GEOMETRIC_REPRESENTATION_CONTEXT ( 3 ) GLOBAL_UNCERTAINTY_ASSIGNED_CONTEXT ( ( #194 ) ) GLOBAL_UNIT_ASSIGNED_CONTEXT ( ( #144, #49, #190 ) ) REPRESENTATION_CONTEXT ( 'NONE', 'WORKASPACE' ) );
#176 = ORIENTED_EDGE ( 'NONE', *, *, #116, .F. ) ;
#177 = ORIENTED_EDGE ( 'NONE', *, *, #296, .F. ) ;
#178 = UNCERTAINTY_MEASURE_WITH_UNIT (LENGTH_MEASURE( 1.000000000000000082E-05 ), #115, 'distance_accuracy_value', 'NONE');
#179 = DIRECTION ( 'NONE',  ( 0.000000000000000000, 0.000000000000000000, -1.000000000000000000 ) ) ;
#180 = SURFACE_SIDE_STYLE ('',( #83 ) ) ;
#181 = CIRCLE ( 'NONE', #159, 0.09375000000000001388 ) ;
#182 = DIRECTION ( 'NONE',  ( -3.265724797726275178E-17, 1.000000000000000000, -0.000000000000000000 ) ) ;
#183 = PRESENTATION_STYLE_ASSIGNMENT (( #256 ) ) ;
#184 = DIMENSIONAL_EXPONENTS ( 1.000000000000000000, 0.000000000000000000, 0.000000000000000000, 0.000000000000000000, 0.000000000000000000, 0.000000000000000000, 0.000000000000000000 ) ;
#185 = EDGE_LOOP ( 'NONE', ( #212, #121 ) ) ;
#186 = CARTESIAN_POINT ( 'NONE',  ( 4.999199275539525146E-35, 0.6250000000000000000, 0.000000000000000000 ) ) ;
#187 = VERTEX_POINT ( 'NONE', #50 ) ;
#188 = PRESENTATION_LAYER_ASSIGNMENT (  '', '', ( #168 ) ) ;
#189 = FACE_OUTER_BOUND ( 'NONE', #95, .T. ) ;
#190 =( NAMED_UNIT ( * ) SI_UNIT ( $, .STERADIAN. ) SOLID_ANGLE_UNIT ( ) );
#191 =( LENGTH_UNIT ( ) NAMED_UNIT ( * ) SI_UNIT ( $, .METRE. ) );
#192 = ORIENTED_EDGE ( 'NONE', *, *, #284, .T. ) ;
#193 = EDGE_CURVE ( 'NONE', #42, #19, #196, .T. ) ;
#194 = UNCERTAINTY_MEASURE_WITH_UNIT (LENGTH_MEASURE( 1.000000000000000082E-05 ), #144, 'distance_accuracy_value', 'NONE');
#195 = AXIS2_PLACEMENT_3D ( 'NONE', #269, #182, #11 ) ;
#196 = CIRCLE ( 'NONE', #64, 0.09374999999999998612 ) ;
#197 = DIRECTION ( 'NONE',  ( -3.265724797726275178E-17, 1.000000000000000000, -0.000000000000000000 ) ) ;
#198 = DIRECTION ( 'NONE',  ( -1.000000000000000000, 0.000000000000000000, 0.000000000000000000 ) ) ;
#199 = DIRECTION ( 'NONE',  ( 3.265724797726275178E-17, -1.000000000000000000, 0.000000000000000000 ) ) ;
#200 = DIRECTION ( 'NONE',  ( -3.265724797726275178E-17, 1.000000000000000000, -0.000000000000000000 ) ) ;
#201 = CARTESIAN_POINT ( 'NONE',  ( 0.000000000000000000, 0.000000000000000000, -0.09374999999999998612 ) ) ;
#202 = CARTESIAN_POINT ( 'NONE',  ( -0.09375000000000009714, 2.500000000000000000, 0.000000000000000000 ) ) ;
#203 = DIRECTION ( 'NONE',  ( -0.000000000000000000, -1.000000000000000000, -0.000000000000000000 ) ) ;
#204 = CYLINDRICAL_SURFACE ( 'NONE', #291, 0.09375000000000002776 ) ;
#205 = FILL_AREA_STYLE_COLOUR ( '', #259 ) ;
#206 = AXIS2_PLACEMENT_3D ( 'NONE', #29, #282, #46 ) ;
#207 =( LENGTH_UNIT ( ) NAMED_UNIT ( * ) SI_UNIT ( $, .METRE. ) );
#208 = FILL_AREA_STYLE_COLOUR ( '', #156 ) ;
#209 = ORIENTED_EDGE ( 'NONE', *, *, #296, .T. ) ;
#210 = SURFACE_STYLE_USAGE ( .BOTH. , #216 ) ;
#211 = MECHANICAL_DESIGN_GEOMETRIC_PRESENTATION_REPRESENTATION (  '', ( #94 ), #175 ) ;
#212 = ORIENTED_EDGE ( 'NONE', *, *, #27, .F. ) ;
#213 = FACE_OUTER_BOUND ( 'NONE', #257, .T. ) ;
#214 = APPLICATION_PROTOCOL_DEFINITION ( 'draft international standard', 'automotive_design', 1998, #44 ) ;
#215 = EDGE_LOOP ( 'NONE', ( #16, #24, #79, #177 ) ) ;
#216 = SURFACE_SIDE_STYLE ('',( #113 ) ) ;
#217 = DIRECTION ( 'NONE',  ( -3.265724797726275178E-17, 1.000000000000000000, 0.000000000000000000 ) ) ;
#218 = DIRECTION ( 'NONE',  ( 0.000000000000000000, 0.000000000000000000, -1.000000000000000000 ) ) ;
#219 = MECHANICAL_DESIGN_GEOMETRIC_PRESENTATION_REPRESENTATION (  '', ( #168 ), #234 ) ;
#220 = PRODUCT_DEFINITION_FORMATION_WITH_SPECIFIED_SOURCE ( 'ANY', '', #268, .NOT_KNOWN. ) ;
#221 = SURFACE_STYLE_USAGE ( .BOTH. , #239 ) ;
#222 = DIRECTION ( 'NONE',  ( -3.265724797726275178E-17, 1.000000000000000000, -0.000000000000000000 ) ) ;
#223 =( NAMED_UNIT ( * ) SI_UNIT ( $, .STERADIAN. ) SOLID_ANGLE_UNIT ( ) );
#224 = AXIS2_PLACEMENT_3D ( 'NONE', #101, #199, #287 ) ;
#225 = DIRECTION ( 'NONE',  ( 0.000000000000000000, 0.000000000000000000, -1.000000000000000000 ) ) ;
#226 = DIRECTION ( 'NONE',  ( -1.000000000000000000, 0.000000000000000000, 0.000000000000000000 ) ) ;
#227 = CARTESIAN_POINT ( 'NONE',  ( 0.000000000000000000, 0.6250000000000000000, 0.000000000000000000 ) ) ;
#228 = STYLED_ITEM ( 'NONE', ( #58 ), #93 ) ;
#229 = EDGE_CURVE ( 'NONE', #42, #85, #244, .T. ) ;
#230 = PLANE ( 'NONE',  #40 ) ;
#231 = CARTESIAN_POINT ( 'NONE',  ( 0.000000000000000000, 0.6250000000000000000, 0.000000000000000000 ) ) ;
#232 = ORIENTED_EDGE ( 'NONE', *, *, #134, .T. ) ;
#233 =( NAMED_UNIT ( * ) SI_UNIT ( $, .STERADIAN. ) SOLID_ANGLE_UNIT ( ) );
#234 =( GEOMETRIC_REPRESENTATION_CONTEXT ( 3 ) GLOBAL_UNCERTAINTY_ASSIGNED_CONTEXT ( ( #25 ) ) GLOBAL_UNIT_ASSIGNED_CONTEXT ( ( #292, #35, #108 ) ) REPRESENTATION_CONTEXT ( 'NONE', 'WORKASPACE' ) );
#235 = EDGE_CURVE ( 'NONE', #258, #309, #31, .T. ) ;
#236 = EDGE_LOOP ( 'NONE', ( #192, #232 ) ) ;
#237 = PRESENTATION_LAYER_ASSIGNMENT (  '', '', ( #94 ) ) ;
#238 = CYLINDRICAL_SURFACE ( 'NONE', #276, 0.09375000000000002776 ) ;
#239 = SURFACE_SIDE_STYLE ('',( #165 ) ) ;
#240 = PLANE ( 'NONE',  #224 ) ;
#241 = DIRECTION ( 'NONE',  ( 0.000000000000000000, 0.000000000000000000, -1.000000000000000000 ) ) ;
#242 = EDGE_CURVE ( 'NONE', #258, #137, #154, .T. ) ;
#243 =( GEOMETRIC_REPRESENTATION_CONTEXT ( 3 ) GLOBAL_UNCERTAINTY_ASSIGNED_CONTEXT ( ( #59 ) ) GLOBAL_UNIT_ASSIGNED_CONTEXT ( ( #252, #37, #155 ) ) REPRESENTATION_CONTEXT ( 'NONE', 'WORKASPACE' ) );
#244 = LINE ( 'NONE', #170, #136 ) ;
#245 = SURFACE_STYLE_FILL_AREA ( #57 ) ;
#246 = AXIS2_PLACEMENT_3D ( 'NONE', #186, #217, #92 ) ;
#247 = SURFACE_STYLE_USAGE ( .BOTH. , #153 ) ;
#248 = ORIENTED_EDGE ( 'NONE', *, *, #235, .T. ) ;
#249 = DIRECTION ( 'NONE',  ( -0.000000000000000000, -1.000000000000000000, -0.000000000000000000 ) ) ;
#250 = ORIENTED_EDGE ( 'NONE', *, *, #41, .T. ) ;
#251 = APPLICATION_PROTOCOL_DEFINITION ( 'draft international standard', 'automotive_design', 1998, #297 ) ;
#252 =( CONVERSION_BASED_UNIT ( 'INCH', #80 ) LENGTH_UNIT ( ) NAMED_UNIT ( #63 ) );
#253 = ADVANCED_FACE ( 'NONE', ( #150 ), #109, .T. ) ;
#254 =( CONVERSION_BASED_UNIT ( 'INCH', #270 ) LENGTH_UNIT ( ) NAMED_UNIT ( #112 ) );
#255 = CIRCLE ( 'NONE', #195, 0.09375000000000005551 ) ;
#256 = SURFACE_STYLE_USAGE ( .BOTH. , #143 ) ;
#257 = EDGE_LOOP ( 'NONE', ( #158, #21 ) ) ;
#258 = VERTEX_POINT ( 'NONE', #76 ) ;
#259 = COLOUR_RGB ( '',1.000000000000000000, 0.000000000000000000, 0.000000000000000000 ) ;
#260 = PRESENTATION_STYLE_ASSIGNMENT (( #221 ) ) ;
#261 = DIRECTION ( 'NONE',  ( -0.000000000000000000, -1.000000000000000000, -0.000000000000000000 ) ) ;
#262 =( NAMED_UNIT ( * ) PLANE_ANGLE_UNIT ( ) SI_UNIT ( $, .RADIAN. ) );
#263 = COLOUR_RGB ( '',1.000000000000000000, 0.000000000000000000, 0.000000000000000000 ) ;
#264 = CARTESIAN_POINT ( 'NONE',  ( -6.123233995736766036E-17, 2.500000000000000000, 0.000000000000000000 ) ) ;
#265 =( GEOMETRIC_REPRESENTATION_CONTEXT ( 3 ) GLOBAL_UNCERTAINTY_ASSIGNED_CONTEXT ( ( #178 ) ) GLOBAL_UNIT_ASSIGNED_CONTEXT ( ( #115, #120, #90 ) ) REPRESENTATION_CONTEXT ( 'NONE', 'WORKASPACE' ) );
#266 = DIRECTION ( 'NONE',  ( 0.000000000000000000, 0.000000000000000000, -1.000000000000000000 ) ) ;
#267 = PRESENTATION_STYLE_ASSIGNMENT (( #7 ) ) ;
#268 = PRODUCT ( '30092', '30092', '', ( #114 ) ) ;
#269 = CARTESIAN_POINT ( 'NONE',  ( -6.123233995736766036E-17, 2.500000000000000000, 0.000000000000000000 ) ) ;
#270 = LENGTH_MEASURE_WITH_UNIT ( LENGTH_MEASURE( 0.02539999999999999897 ), #207 );
#271 = MECHANICAL_DESIGN_GEOMETRIC_PRESENTATION_REPRESENTATION (  '', ( #228 ), #71 ) ;
#272 = SURFACE_STYLE_USAGE ( .BOTH. , #180 ) ;
#273 = ADVANCED_FACE ( 'NONE', ( #174 ), #230, .T. ) ;
#274 = FACE_OUTER_BOUND ( 'NONE', #236, .T. ) ;
#275 = SHAPE_DEFINITION_REPRESENTATION ( #148, #105 ) ;
#276 = AXIS2_PLACEMENT_3D ( 'NONE', #102, #200, #198 ) ;
#277 = PRODUCT_DEFINITION_CONTEXT ( 'detailed design', #44, 'design' ) ;
#278 = CYLINDRICAL_SURFACE ( 'NONE', #106, 0.09374999999999998612 ) ;
#279 = ADVANCED_FACE ( 'NONE', ( #281 ), #240, .F. ) ;
#280 = EDGE_LOOP ( 'NONE', ( #250, #107 ) ) ;
#281 = FACE_OUTER_BOUND ( 'NONE', #280, .T. ) ;
#282 = DIRECTION ( 'NONE',  ( -3.265724797726275178E-17, 1.000000000000000000, -0.000000000000000000 ) ) ;
#283 = LINE ( 'NONE', #202, #152 ) ;
#284 = EDGE_CURVE ( 'NONE', #166, #137, #181, .T. ) ;
#285 = CARTESIAN_POINT ( 'NONE',  ( 0.000000000000000000, 0.6250000000000000000, 0.000000000000000000 ) ) ;
#286 = UNCERTAINTY_MEASURE_WITH_UNIT (LENGTH_MEASURE( 1.000000000000000082E-05 ), #254, 'distance_accuracy_value', 'NONE');
#287 = DIRECTION ( 'NONE',  ( 1.000000000000000000, 3.265724797726275178E-17, 0.000000000000000000 ) ) ;
#288 =( LENGTH_UNIT ( ) NAMED_UNIT ( * ) SI_UNIT ( $, .METRE. ) );
#289 = STYLED_ITEM ( 'NONE', ( #183 ), #82 ) ;
#290 = DIRECTION ( 'NONE',  ( -3.265724797726275178E-17, 1.000000000000000000, -0.000000000000000000 ) ) ;
#291 = AXIS2_PLACEMENT_3D ( 'NONE', #264, #290, #173 ) ;
#292 =( CONVERSION_BASED_UNIT ( 'INCH', #77 ) LENGTH_UNIT ( ) NAMED_UNIT ( #157 ) );
#293 = FILL_AREA_STYLE_COLOUR ( '', #55 ) ;
#294 = FILL_AREA_STYLE ('',( #205 ) ) ;
#295 = PRESENTATION_LAYER_ASSIGNMENT (  '', '', ( #23 ) ) ;
#296 = EDGE_CURVE ( 'NONE', #309, #166, #104, .T. ) ;
#297 = APPLICATION_CONTEXT ( 'automotive_design' ) ;
#298 = FILL_AREA_STYLE ('',( #208 ) ) ;
#299 = DIMENSIONAL_EXPONENTS ( 1.000000000000000000, 0.000000000000000000, 0.000000000000000000, 0.000000000000000000, 0.000000000000000000, 0.000000000000000000, 0.000000000000000000 ) ;
#300 = ADVANCED_FACE ( 'NONE', ( #162 ), #204, .T. ) ;
#301 = PRESENTATION_LAYER_ASSIGNMENT (  '', '', ( #129 ) ) ;
#302 = AXIS2_PLACEMENT_3D ( 'NONE', #22, #2, #96 ) ;
#303 = PLANE ( 'NONE',  #246 ) ;
#304 = ORIENTED_EDGE ( 'NONE', *, *, #242, .F. ) ;
#305 =( LENGTH_UNIT ( ) NAMED_UNIT ( * ) SI_UNIT ( $, .METRE. ) );
#306 = FILL_AREA_STYLE ('',( #122 ) ) ;
#307 = CARTESIAN_POINT ( 'NONE',  ( 0.09374999999999998612, 2.500000000000000000, 1.148106374200644171E-17 ) ) ;
#308 = VECTOR ( 'NONE', #65, 39.37007874015748143 ) ;
#309 = VERTEX_POINT ( 'NONE', #163 ) ;
ENDSEC;
END-ISO-10303-21;
