ISO-10303-21;
HEADER;
FILE_DESCRIPTION (( 'STEP AP214' ),
    '1' );
FILE_NAME ('Micro_SHLM-180-4X.STEP',
    '2021-09-02T08:36:09',
    ( '' ),
    ( '' ),
    'SwSTEP 2.0',
    'SolidWorks 2020',
    '' );
FILE_SCHEMA (( 'AUTOMOTIVE_DESIGN' ));
ENDSEC;

DATA;
#1 = VERTEX_POINT ( 'NONE', #186 ) ;
#2 = CARTESIAN_POINT ( 'NONE',  ( 0.0000000000000000000, 0.0000000000000000000, 0.0000000000000000000 ) ) ;
#3 = ORIENTED_EDGE ( 'NONE', *, *, #138, .T. ) ;
#4 =( NAMED_UNIT ( * ) PLANE_ANGLE_UNIT ( ) SI_UNIT ( $, .RADIAN. ) );
#5 = ORIENTED_EDGE ( 'NONE', *, *, #212, .F. ) ;
#6 = PRODUCT_CONTEXT ( 'NONE', #107, 'mechanical' ) ;
#7 =( GEOMETRIC_REPRESENTATION_CONTEXT ( 3 ) GLOBAL_UNCERTAINTY_ASSIGNED_CONTEXT ( ( #188 ) ) GLOBAL_UNIT_ASSIGNED_CONTEXT ( ( #116, #4, #70 ) ) REPRESENTATION_CONTEXT ( 'NONE', 'WORKASPACE' ) );
#8 = CARTESIAN_POINT ( 'NONE',  ( -0.3539761694999995489, 4.337127478089485229E-17, 2.952755999999999936 ) ) ;
#9 = VERTEX_POINT ( 'NONE', #8 ) ;
#10 = PRODUCT_DEFINITION ( 'UNKNOWN', '', #159, #271 ) ;
#11 = FILL_AREA_STYLE ('',( #220 ) ) ;
#12 = DIRECTION ( 'NONE',  ( 0.7071067811865474617, 8.659560562354932858E-17, -0.7071067811865474617 ) ) ;
#13 = AXIS2_PLACEMENT_3D ( 'NONE', #204, #252, #298 ) ;
#14 = CARTESIAN_POINT ( 'NONE',  ( -0.3539761694999995489, 4.334957829526158110E-17, 2.952755999999999936 ) ) ;
#15 = DIRECTION ( 'NONE',  ( -0.0000000000000000000, -0.0000000000000000000, -1.000000000000000000 ) ) ;
#16 = DIRECTION ( 'NONE',  ( -0.0000000000000000000, -0.0000000000000000000, -1.000000000000000000 ) ) ;
#17 = DIRECTION ( 'NONE',  ( -1.000000000000000000, 0.0000000000000000000, 0.0000000000000000000 ) ) ;
#18 = DIRECTION ( 'NONE',  ( 1.000000000000000000, 0.0000000000000000000, 0.0000000000000000000 ) ) ;
#19 = STYLED_ITEM ( 'NONE', ( #246 ), #76 ) ;
#20 = DIRECTION ( 'NONE',  ( -1.224646799147353207E-16, -0.0000000000000000000, -1.000000000000000000 ) ) ;
#21 = ORIENTED_EDGE ( 'NONE', *, *, #22, .T. ) ;
#22 = EDGE_CURVE ( 'NONE', #278, #291, #139, .T. ) ;
#23 = CARTESIAN_POINT ( 'NONE',  ( 0.3539761695000002706, 0.0000000000000000000, 2.952755999999999936 ) ) ;
#24 = ORIENTED_EDGE ( 'NONE', *, *, #297, .T. ) ;
#25 = ORIENTED_EDGE ( 'NONE', *, *, #117, .F. ) ;
#26 = ORIENTED_EDGE ( 'NONE', *, *, #260, .F. ) ;
#27 = ORIENTED_EDGE ( 'NONE', *, *, #104, .F. ) ;
#28 = COLOUR_RGB ( '',0.7921568627450980005, 0.8196078431372548767, 0.9333333333333333481 ) ;
#29 = ORIENTED_EDGE ( 'NONE', *, *, #95, .F. ) ;
#30 = PLANE ( 'NONE',  #292 ) ;
#31 = ADVANCED_FACE ( 'NONE', ( #236 ), #96, .T. ) ;
#32 = FACE_OUTER_BOUND ( 'NONE', #239, .T. ) ;
#33 = AXIS2_PLACEMENT_3D ( 'NONE', #263, #289, #267 ) ;
#34 = AXIS2_PLACEMENT_3D ( 'NONE', #39, #133, #225 ) ;
#35 =( NAMED_UNIT ( * ) PLANE_ANGLE_UNIT ( ) SI_UNIT ( $, .RADIAN. ) );
#36 = ADVANCED_BREP_SHAPE_REPRESENTATION ( 'Micro_SHLM-180-4X', ( #76, #147 ), #255 ) ;
#37 = LINE ( 'NONE', #75, #211 ) ;
#38 = DIRECTION ( 'NONE',  ( 0.0000000000000000000, 0.0000000000000000000, -1.000000000000000000 ) ) ;
#39 = CARTESIAN_POINT ( 'NONE',  ( 3.616083184063142379E-16, 0.0000000000000000000, 2.952755999999999936 ) ) ;
#40 = DIRECTION ( 'NONE',  ( -1.000000000000000000, 0.0000000000000000000, 1.224646799147352961E-16 ) ) ;
#41 = FACE_OUTER_BOUND ( 'NONE', #192, .T. ) ;
#42 = DIRECTION ( 'NONE',  ( 0.0000000000000000000, 0.0000000000000000000, 1.000000000000000000 ) ) ;
#43 = ORIENTED_EDGE ( 'NONE', *, *, #156, .F. ) ;
#44 = SURFACE_STYLE_FILL_AREA ( #88 ) ;
#45 = ORIENTED_EDGE ( 'NONE', *, *, #55, .F. ) ;
#46 = AXIS2_PLACEMENT_3D ( 'NONE', #94, #283, #280 ) ;
#47 = CIRCLE ( 'NONE', #165, 0.3539761694999999930 ) ;
#48 = ORIENTED_EDGE ( 'NONE', *, *, #95, .T. ) ;
#49 = VERTEX_POINT ( 'NONE', #191 ) ;
#50 = ADVANCED_FACE ( 'NONE', ( #168 ), #73, .T. ) ;
#51 = ORIENTED_EDGE ( 'NONE', *, *, #117, .T. ) ;
#52 = MECHANICAL_DESIGN_GEOMETRIC_PRESENTATION_REPRESENTATION (  '', ( #90 ), #7 ) ;
#53 = DIRECTION ( 'NONE',  ( -1.224646799147353207E-16, -0.0000000000000000000, -1.000000000000000000 ) ) ;
#54 = DIRECTION ( 'NONE',  ( 1.000000000000000000, 0.0000000000000000000, 0.0000000000000000000 ) ) ;
#55 = EDGE_CURVE ( 'NONE', #278, #276, #174, .T. ) ;
#56 = CARTESIAN_POINT ( 'NONE',  ( 0.0000000000000000000, 0.0000000000000000000, 5.905511999999999873 ) ) ;
#57 = DIRECTION ( 'NONE',  ( 1.000000000000000000, 0.0000000000000000000, 0.0000000000000000000 ) ) ;
#58 =( CONVERSION_BASED_UNIT ( 'INCH', #173 ) LENGTH_UNIT ( ) NAMED_UNIT ( #160 ) );
#59 = FACE_OUTER_BOUND ( 'NONE', #92, .T. ) ;
#60 = DIRECTION ( 'NONE',  ( -1.224646799147353207E-16, -0.0000000000000000000, -1.000000000000000000 ) ) ;
#61 = MECHANICAL_DESIGN_GEOMETRIC_PRESENTATION_REPRESENTATION (  '', ( #19 ), #228 ) ;
#62 = AXIS2_PLACEMENT_3D ( 'NONE', #108, #38, #17 ) ;
#63 = CARTESIAN_POINT ( 'NONE',  ( -0.3543304999999996596, 0.0000000000000000000, 2.954765508122786599 ) ) ;
#64 = AXIS2_PLACEMENT_3D ( 'NONE', #56, #15, #219 ) ;
#65 = APPLICATION_PROTOCOL_DEFINITION ( 'draft international standard', 'automotive_design', 1998, #107 ) ;
#66 = EDGE_LOOP ( 'NONE', ( #115, #24, #207, #26 ) ) ;
#67 = SHAPE_DEFINITION_REPRESENTATION ( #127, #36 ) ;
#68 = ORIENTED_EDGE ( 'NONE', *, *, #268, .F. ) ;
#69 = AXIS2_PLACEMENT_3D ( 'NONE', #183, #86, #177 ) ;
#70 =( NAMED_UNIT ( * ) SI_UNIT ( $, .STERADIAN. ) SOLID_ANGLE_UNIT ( ) );
#71 = EDGE_LOOP ( 'NONE', ( #233, #167 ) ) ;
#72 = ORIENTED_EDGE ( 'NONE', *, *, #260, .T. ) ;
#73 = CYLINDRICAL_SURFACE ( 'NONE', #206, 0.3539761694999999375 ) ;
#74 = VECTOR ( 'NONE', #16, 39.37007874015748143 ) ;
#75 = CARTESIAN_POINT ( 'NONE',  ( 0.3393305000000013671, 4.155600106780726413E-17, 5.905511999999999873 ) ) ;
#76 = MANIFOLD_SOLID_BREP ( 'Cut-Revolve1', #234 ) ;
#77 = LINE ( 'NONE', #149, #85 ) ;
#78 = CARTESIAN_POINT ( 'NONE',  ( 3.618544121753573079E-16, 0.0000000000000000000, 2.954765508122786599 ) ) ;
#79 = AXIS2_PLACEMENT_3D ( 'NONE', #101, #123, #129 ) ;
#80 = AXIS2_PLACEMENT_3D ( 'NONE', #82, #20, #202 ) ;
#81 = UNCERTAINTY_MEASURE_WITH_UNIT (LENGTH_MEASURE( 1.000000000000000082E-05 ), #274, 'distance_accuracy_value', 'NONE');
#82 = CARTESIAN_POINT ( 'NONE',  ( 3.618544121753573079E-16, 0.0000000000000000000, 2.954765508122786599 ) ) ;
#83 = LENGTH_MEASURE_WITH_UNIT ( LENGTH_MEASURE( 0.02539999999999999897 ), #181 );
#84 = ADVANCED_FACE ( 'NONE', ( #32 ), #264, .T. ) ;
#85 = VECTOR ( 'NONE', #105, 39.37007874015748143 ) ;
#86 = DIRECTION ( 'NONE',  ( -1.224646799147353207E-16, -0.0000000000000000000, -1.000000000000000000 ) ) ;
#87 = DIRECTION ( 'NONE',  ( -0.0000000000000000000, -0.0000000000000000000, -1.000000000000000000 ) ) ;
#88 = FILL_AREA_STYLE ('',( #241 ) ) ;
#89 = CIRCLE ( 'NONE', #79, 0.3539761694999999375 ) ;
#90 = STYLED_ITEM ( 'NONE', ( #279 ), #36 ) ;
#91 = VERTEX_POINT ( 'NONE', #126 ) ;
#92 = EDGE_LOOP ( 'NONE', ( #29, #27, #113, #118 ) ) ;
#93 =( LENGTH_UNIT ( ) NAMED_UNIT ( * ) SI_UNIT ( $, .METRE. ) );
#94 = CARTESIAN_POINT ( 'NONE',  ( 0.0000000000000000000, 0.0000000000000000000, 5.905511999999999873 ) ) ;
#95 = EDGE_CURVE ( 'NONE', #49, #1, #37, .T. ) ;
#96 = PLANE ( 'NONE',  #46 ) ;
#97 = ORIENTED_EDGE ( 'NONE', *, *, #287, .F. ) ;
#98 = EDGE_CURVE ( 'NONE', #9, #278, #89, .T. ) ;
#99 = DIRECTION ( 'NONE',  ( 1.000000000000000000, 0.0000000000000000000, 0.0000000000000000000 ) ) ;
#100 = AXIS2_PLACEMENT_3D ( 'NONE', #154, #201, #40 ) ;
#101 = CARTESIAN_POINT ( 'NONE',  ( 3.616083184063142379E-16, 0.0000000000000000000, 2.952755999999999936 ) ) ;
#102 = CARTESIAN_POINT ( 'NONE',  ( -0.3543304999999999927, 0.0000000000000000000, 5.905511999999999873 ) ) ;
#103 = LINE ( 'NONE', #14, #244 ) ;
#104 = EDGE_CURVE ( 'NONE', #180, #49, #253, .T. ) ;
#105 = DIRECTION ( 'NONE',  ( -0.0000000000000000000, -0.0000000000000000000, -1.000000000000000000 ) ) ;
#106 = VECTOR ( 'NONE', #112, 39.37007874015748854 ) ;
#107 = APPLICATION_CONTEXT ( 'automotive_design' ) ;
#108 = CARTESIAN_POINT ( 'NONE',  ( 0.0000000000000000000, 0.0000000000000000000, 5.905511999999999873 ) ) ;
#109 = EDGE_CURVE ( 'NONE', #231, #1, #158, .T. ) ;
#110 = CYLINDRICAL_SURFACE ( 'NONE', #223, 0.3543304999999999927 ) ;
#111 = UNCERTAINTY_MEASURE_WITH_UNIT (LENGTH_MEASURE( 1.000000000000000082E-05 ), #58, 'distance_accuracy_value', 'NONE');
#112 = DIRECTION ( 'NONE',  ( -0.7071067811865474617, 0.0000000000000000000, -0.7071067811865474617 ) ) ;
#113 = ORIENTED_EDGE ( 'NONE', *, *, #212, .T. ) ;
#114 = DIRECTION ( 'NONE',  ( -1.000000000000000000, 0.0000000000000000000, 1.224646799147352961E-16 ) ) ;
#115 = ORIENTED_EDGE ( 'NONE', *, *, #22, .F. ) ;
#116 =( CONVERSION_BASED_UNIT ( 'INCH', #161 ) LENGTH_UNIT ( ) NAMED_UNIT ( #171 ) );
#117 = EDGE_CURVE ( 'NONE', #276, #189, #198, .T. ) ;
#118 = ORIENTED_EDGE ( 'NONE', *, *, #216, .F. ) ;
#119 = PRODUCT ( 'Micro_SHLM-180-4X', 'Micro_SHLM-180-4X', '', ( #6 ) ) ;
#120 = EDGE_LOOP ( 'NONE', ( #143, #72 ) ) ;
#121 = ORIENTED_EDGE ( 'NONE', *, *, #297, .F. ) ;
#122 = CARTESIAN_POINT ( 'NONE',  ( 0.0000000000000000000, 0.0000000000000000000, 0.0000000000000000000 ) ) ;
#123 = DIRECTION ( 'NONE',  ( -1.224646799147353207E-16, -0.0000000000000000000, -1.000000000000000000 ) ) ;
#124 = CIRCLE ( 'NONE', #69, 0.3539761694999999930 ) ;
#125 = CIRCLE ( 'NONE', #13, 0.3543304999999999927 ) ;
#126 = CARTESIAN_POINT ( 'NONE',  ( -0.3539761694999999930, 0.0000000000000000000, 8.669915659052318686E-17 ) ) ;
#127 = PRODUCT_DEFINITION_SHAPE ( 'NONE', 'NONE',  #10 ) ;
#128 = LINE ( 'NONE', #102, #74 ) ;
#129 = DIRECTION ( 'NONE',  ( -1.000000000000000000, 0.0000000000000000000, 0.0000000000000000000 ) ) ;
#130 = DIRECTION ( 'NONE',  ( 0.0000000000000000000, 0.0000000000000000000, -1.000000000000000000 ) ) ;
#131 = PRESENTATION_LAYER_ASSIGNMENT (  '', '', ( #19 ) ) ;
#132 = ADVANCED_FACE ( 'NONE', ( #150 ), #266, .T. ) ;
#133 = DIRECTION ( 'NONE',  ( -1.224646799147353207E-16, -0.0000000000000000000, -1.000000000000000000 ) ) ;
#134 = CARTESIAN_POINT ( 'NONE',  ( 0.3543305000000003258, 4.339297126652816661E-17, 2.954765508122786599 ) ) ;
#135 = CARTESIAN_POINT ( 'NONE',  ( -0.3543304999999999927, 0.0000000000000000000, 5.890512000000001969 ) ) ;
#136 = CONICAL_SURFACE ( 'NONE', #62, 0.3393305000000013671, 0.7853981633974482790 ) ;
#137 = CARTESIAN_POINT ( 'NONE',  ( 0.0000000000000000000, 0.0000000000000000000, 5.905511999999999873 ) ) ;
#138 = EDGE_CURVE ( 'NONE', #231, #189, #128, .T. ) ;
#139 = LINE ( 'NONE', #282, #145 ) ;
#140 =( NAMED_UNIT ( * ) SI_UNIT ( $, .STERADIAN. ) SOLID_ANGLE_UNIT ( ) );
#141 = ORIENTED_EDGE ( 'NONE', *, *, #222, .F. ) ;
#142 = AXIS2_PLACEMENT_3D ( 'NONE', #193, #245, #99 ) ;
#143 = ORIENTED_EDGE ( 'NONE', *, *, #222, .T. ) ;
#144 = EDGE_LOOP ( 'NONE', ( #281, #261, #146, #45 ) ) ;
#145 = VECTOR ( 'NONE', #259, 39.37007874015748143 ) ;
#146 = ORIENTED_EDGE ( 'NONE', *, *, #287, .T. ) ;
#147 = AXIS2_PLACEMENT_3D ( 'NONE', #2, #42, #166 ) ;
#148 = FACE_OUTER_BOUND ( 'NONE', #120, .T. ) ;
#149 = CARTESIAN_POINT ( 'NONE',  ( 0.3543304999999999927, 4.339297126652812347E-17, 5.905511999999999873 ) ) ;
#150 = FACE_OUTER_BOUND ( 'NONE', #243, .T. ) ;
#151 = CARTESIAN_POINT ( 'NONE',  ( -0.3393305000000013671, 0.0000000000000000000, 5.905511999999999873 ) ) ;
#152 = DIRECTION ( 'NONE',  ( 0.0000000000000000000, 0.0000000000000000000, 1.000000000000000000 ) ) ;
#153 = AXIS2_PLACEMENT_3D ( 'NONE', #249, #130, #157 ) ;
#154 = CARTESIAN_POINT ( 'NONE',  ( 0.0000000000000000000, 0.0000000000000000000, 0.0000000000000000000 ) ) ;
#155 = CARTESIAN_POINT ( 'NONE',  ( -0.3539761694999999375, 0.0000000000000000000, 4.334957829526158110E-17 ) ) ;
#156 = EDGE_CURVE ( 'NONE', #1, #276, #77, .T. ) ;
#157 = DIRECTION ( 'NONE',  ( -1.000000000000000000, 0.0000000000000000000, 0.0000000000000000000 ) ) ;
#158 = CIRCLE ( 'NONE', #299, 0.3543304999999999927 ) ;
#159 = PRODUCT_DEFINITION_FORMATION_WITH_SPECIFIED_SOURCE ( 'ANY', '', #119, .NOT_KNOWN. ) ;
#160 = DIMENSIONAL_EXPONENTS ( 1.000000000000000000, 0.0000000000000000000, 0.0000000000000000000, 0.0000000000000000000, 0.0000000000000000000, 0.0000000000000000000, 0.0000000000000000000 ) ;
#161 = LENGTH_MEASURE_WITH_UNIT ( LENGTH_MEASURE( 0.02539999999999999897 ), #93 );
#162 = ORIENTED_EDGE ( 'NONE', *, *, #169, .F. ) ;
#163 = ORIENTED_EDGE ( 'NONE', *, *, #138, .F. ) ;
#164 = CONICAL_SURFACE ( 'NONE', #288, 0.3539761694999999375, 0.1745329251994337527 ) ;
#165 = AXIS2_PLACEMENT_3D ( 'NONE', #295, #60, #200 ) ;
#166 = DIRECTION ( 'NONE',  ( 1.000000000000000000, 0.0000000000000000000, 0.0000000000000000000 ) ) ;
#167 = ORIENTED_EDGE ( 'NONE', *, *, #268, .T. ) ;
#168 = FACE_OUTER_BOUND ( 'NONE', #66, .T. ) ;
#169 = EDGE_CURVE ( 'NONE', #9, #189, #103, .T. ) ;
#170 = ORIENTED_EDGE ( 'NONE', *, *, #55, .T. ) ;
#171 = DIMENSIONAL_EXPONENTS ( 1.000000000000000000, 0.0000000000000000000, 0.0000000000000000000, 0.0000000000000000000, 0.0000000000000000000, 0.0000000000000000000, 0.0000000000000000000 ) ;
#172 = SURFACE_STYLE_USAGE ( .BOTH. , #269 ) ;
#173 = LENGTH_MEASURE_WITH_UNIT ( LENGTH_MEASURE( 0.02539999999999999897 ), #197 );
#174 = LINE ( 'NONE', #176, #175 ) ;
#175 = VECTOR ( 'NONE', #286, 39.37007874015748143 ) ;
#176 = CARTESIAN_POINT ( 'NONE',  ( 0.3539761695000002706, 0.0000000000000000000, 2.952755999999999936 ) ) ;
#177 = DIRECTION ( 'NONE',  ( -1.000000000000000000, 0.0000000000000000000, 1.224646799147353207E-16 ) ) ;
#178 = CARTESIAN_POINT ( 'NONE',  ( 0.3539761694999999930, 4.334957829526159343E-17, -7.582401355855259480E-33 ) ) ;
#179 = ADVANCED_FACE ( 'NONE', ( #148 ), #30, .F. ) ;
#180 = VERTEX_POINT ( 'NONE', #151 ) ;
#181 =( LENGTH_UNIT ( ) NAMED_UNIT ( * ) SI_UNIT ( $, .METRE. ) );
#182 = CYLINDRICAL_SURFACE ( 'NONE', #100, 0.3539761694999999375 ) ;
#183 = CARTESIAN_POINT ( 'NONE',  ( 5.308792230367967873E-33, 0.0000000000000000000, 4.334957829526159343E-17 ) ) ;
#184 = PRESENTATION_LAYER_ASSIGNMENT (  '', '', ( #90 ) ) ;
#185 = SURFACE_SIDE_STYLE ('',( #44 ) ) ;
#186 = CARTESIAN_POINT ( 'NONE',  ( 0.3543304999999999927, 4.339297126652812347E-17, 5.890512000000001969 ) ) ;
#187 = ORIENTED_EDGE ( 'NONE', *, *, #98, .T. ) ;
#188 = UNCERTAINTY_MEASURE_WITH_UNIT (LENGTH_MEASURE( 1.000000000000000082E-05 ), #116, 'distance_accuracy_value', 'NONE');
#189 = VERTEX_POINT ( 'NONE', #63 ) ;
#190 = APPLICATION_PROTOCOL_DEFINITION ( 'draft international standard', 'automotive_design', 1998, #265 ) ;
#191 = CARTESIAN_POINT ( 'NONE',  ( 0.3393305000000013671, 4.247448616716769688E-17, 5.905511999999999873 ) ) ;
#192 = EDGE_LOOP ( 'NONE', ( #187, #21, #141, #208 ) ) ;
#193 = CARTESIAN_POINT ( 'NONE',  ( 0.0000000000000000000, 0.0000000000000000000, 5.905511999999999873 ) ) ;
#194 = CIRCLE ( 'NONE', #80, 0.3543304999999999927 ) ;
#195 = DIRECTION ( 'NONE',  ( 0.0000000000000000000, 0.0000000000000000000, -1.000000000000000000 ) ) ;
#196 = EDGE_CURVE ( 'NONE', #9, #91, #251, .T. ) ;
#197 =( LENGTH_UNIT ( ) NAMED_UNIT ( * ) SI_UNIT ( $, .METRE. ) );
#198 = CIRCLE ( 'NONE', #293, 0.3543304999999999927 ) ;
#199 = DIRECTION ( 'NONE',  ( -0.1736481776669310251, 2.126576849575781468E-17, 0.9848077530122080203 ) ) ;
#200 = DIRECTION ( 'NONE',  ( -1.000000000000000000, 0.0000000000000000000, 1.224646799147353207E-16 ) ) ;
#201 = DIRECTION ( 'NONE',  ( -1.224646799147353207E-16, -0.0000000000000000000, -1.000000000000000000 ) ) ;
#202 = DIRECTION ( 'NONE',  ( 1.000000000000000000, 0.0000000000000000000, 0.0000000000000000000 ) ) ;
#203 = DIRECTION ( 'NONE',  ( -1.224646799147353207E-16, -0.0000000000000000000, -1.000000000000000000 ) ) ;
#204 = CARTESIAN_POINT ( 'NONE',  ( 0.0000000000000000000, 0.0000000000000000000, 5.890512000000001969 ) ) ;
#205 = ADVANCED_FACE ( 'NONE', ( #59 ), #284, .T. ) ;
#206 = AXIS2_PLACEMENT_3D ( 'NONE', #240, #262, #114 ) ;
#207 = ORIENTED_EDGE ( 'NONE', *, *, #196, .T. ) ;
#208 = ORIENTED_EDGE ( 'NONE', *, *, #196, .F. ) ;
#209 = EDGE_LOOP ( 'NONE', ( #242, #296, #97, #163 ) ) ;
#210 = EDGE_LOOP ( 'NONE', ( #68, #48, #257, #5 ) ) ;
#211 = VECTOR ( 'NONE', #12, 39.37007874015748854 ) ;
#212 = EDGE_CURVE ( 'NONE', #180, #231, #275, .T. ) ;
#213 = CIRCLE ( 'NONE', #34, 0.3539761694999999375 ) ;
#214 = ORIENTED_EDGE ( 'NONE', *, *, #216, .T. ) ;
#215 = DIRECTION ( 'NONE',  ( 1.000000000000000000, 0.0000000000000000000, -0.0000000000000000000 ) ) ;
#216 = EDGE_CURVE ( 'NONE', #1, #231, #125, .T. ) ;
#217 = SURFACE_STYLE_FILL_AREA ( #11 ) ;
#218 = CIRCLE ( 'NONE', #285, 0.3393305000000013671 ) ;
#219 = DIRECTION ( 'NONE',  ( -1.000000000000000000, 0.0000000000000000000, 0.0000000000000000000 ) ) ;
#220 = FILL_AREA_STYLE_COLOUR ( '', #28 ) ;
#221 = CARTESIAN_POINT ( 'NONE',  ( 0.0000000000000000000, 0.0000000000000000000, 5.890512000000001969 ) ) ;
#222 = EDGE_CURVE ( 'NONE', #91, #291, #124, .T. ) ;
#223 = AXIS2_PLACEMENT_3D ( 'NONE', #137, #87, #294 ) ;
#224 = FACE_OUTER_BOUND ( 'NONE', #210, .T. ) ;
#225 = DIRECTION ( 'NONE',  ( -1.000000000000000000, 0.0000000000000000000, 0.0000000000000000000 ) ) ;
#226 = ADVANCED_FACE ( 'NONE', ( #41 ), #182, .T. ) ;
#227 = DIRECTION ( 'NONE',  ( 1.224646799147353207E-16, 0.0000000000000000000, 1.000000000000000000 ) ) ;
#228 =( GEOMETRIC_REPRESENTATION_CONTEXT ( 3 ) GLOBAL_UNCERTAINTY_ASSIGNED_CONTEXT ( ( #111 ) ) GLOBAL_UNIT_ASSIGNED_CONTEXT ( ( #58, #35, #248 ) ) REPRESENTATION_CONTEXT ( 'NONE', 'WORKASPACE' ) );
#229 = DIRECTION ( 'NONE',  ( 1.000000000000000000, 0.0000000000000000000, 0.0000000000000000000 ) ) ;
#230 = COLOUR_RGB ( '',0.7921568627450980005, 0.8196078431372548767, 0.9333333333333333481 ) ;
#231 = VERTEX_POINT ( 'NONE', #135 ) ;
#232 =( NAMED_UNIT ( * ) PLANE_ANGLE_UNIT ( ) SI_UNIT ( $, .RADIAN. ) );
#233 = ORIENTED_EDGE ( 'NONE', *, *, #104, .T. ) ;
#234 = CLOSED_SHELL ( 'NONE', ( #226, #277, #238, #273, #132, #31, #205, #84, #50, #179 ) ) ;
#235 = SURFACE_STYLE_USAGE ( .BOTH. , #185 ) ;
#236 = FACE_OUTER_BOUND ( 'NONE', #71, .T. ) ;
#237 = DIMENSIONAL_EXPONENTS ( 1.000000000000000000, 0.0000000000000000000, 0.0000000000000000000, 0.0000000000000000000, 0.0000000000000000000, 0.0000000000000000000, 0.0000000000000000000 ) ;
#238 = ADVANCED_FACE ( 'NONE', ( #224 ), #136, .T. ) ;
#239 = EDGE_LOOP ( 'NONE', ( #162, #121, #170, #51 ) ) ;
#240 = CARTESIAN_POINT ( 'NONE',  ( 0.0000000000000000000, 0.0000000000000000000, 0.0000000000000000000 ) ) ;
#241 = FILL_AREA_STYLE_COLOUR ( '', #230 ) ;
#242 = ORIENTED_EDGE ( 'NONE', *, *, #109, .T. ) ;
#243 = EDGE_LOOP ( 'NONE', ( #43, #214, #3, #25 ) ) ;
#244 = VECTOR ( 'NONE', #199, 39.37007874015748854 ) ;
#245 = DIRECTION ( 'NONE',  ( 0.0000000000000000000, 0.0000000000000000000, 1.000000000000000000 ) ) ;
#246 = PRESENTATION_STYLE_ASSIGNMENT (( #172 ) ) ;
#247 = DIRECTION ( 'NONE',  ( 0.0000000000000000000, 0.0000000000000000000, 1.000000000000000000 ) ) ;
#248 =( NAMED_UNIT ( * ) SI_UNIT ( $, .STERADIAN. ) SOLID_ANGLE_UNIT ( ) );
#249 = CARTESIAN_POINT ( 'NONE',  ( 0.0000000000000000000, 0.0000000000000000000, 5.905511999999999873 ) ) ;
#250 = FACE_OUTER_BOUND ( 'NONE', #144, .T. ) ;
#251 = LINE ( 'NONE', #155, #258 ) ;
#252 = DIRECTION ( 'NONE',  ( 0.0000000000000000000, 0.0000000000000000000, -1.000000000000000000 ) ) ;
#253 = CIRCLE ( 'NONE', #142, 0.3393305000000013671 ) ;
#254 = CARTESIAN_POINT ( 'NONE',  ( -0.3393305000000013671, 0.0000000000000000000, 5.905511999999999873 ) ) ;
#255 =( GEOMETRIC_REPRESENTATION_CONTEXT ( 3 ) GLOBAL_UNCERTAINTY_ASSIGNED_CONTEXT ( ( #81 ) ) GLOBAL_UNIT_ASSIGNED_CONTEXT ( ( #274, #232, #140 ) ) REPRESENTATION_CONTEXT ( 'NONE', 'WORKASPACE' ) );
#256 = PRODUCT_RELATED_PRODUCT_CATEGORY ( 'part', '', ( #119 ) ) ;
#257 = ORIENTED_EDGE ( 'NONE', *, *, #109, .F. ) ;
#258 = VECTOR ( 'NONE', #203, 39.37007874015748143 ) ;
#259 = DIRECTION ( 'NONE',  ( -1.224646799147353207E-16, -0.0000000000000000000, -1.000000000000000000 ) ) ;
#260 = EDGE_CURVE ( 'NONE', #291, #91, #47, .T. ) ;
#261 = ORIENTED_EDGE ( 'NONE', *, *, #169, .T. ) ;
#262 = DIRECTION ( 'NONE',  ( -1.224646799147353207E-16, -0.0000000000000000000, -1.000000000000000000 ) ) ;
#263 = CARTESIAN_POINT ( 'NONE',  ( 3.616083184063142379E-16, 0.0000000000000000000, 2.952755999999999936 ) ) ;
#264 = CONICAL_SURFACE ( 'NONE', #33, 0.3539761694999999375, 0.1745329251994337527 ) ;
#265 = APPLICATION_CONTEXT ( 'automotive_design' ) ;
#266 = CYLINDRICAL_SURFACE ( 'NONE', #64, 0.3543304999999999927 ) ;
#267 = DIRECTION ( 'NONE',  ( 1.000000000000000000, 0.0000000000000000000, 0.0000000000000000000 ) ) ;
#268 = EDGE_CURVE ( 'NONE', #49, #180, #218, .T. ) ;
#269 = SURFACE_SIDE_STYLE ('',( #217 ) ) ;
#270 = CARTESIAN_POINT ( 'NONE',  ( 0.0000000000000000000, 0.0000000000000000000, 5.905511999999999873 ) ) ;
#271 = PRODUCT_DEFINITION_CONTEXT ( 'detailed design', #265, 'design' ) ;
#272 = CARTESIAN_POINT ( 'NONE',  ( 3.616083184063142379E-16, 0.0000000000000000000, 2.952755999999999936 ) ) ;
#273 = ADVANCED_FACE ( 'NONE', ( #290 ), #110, .T. ) ;
#274 =( CONVERSION_BASED_UNIT ( 'INCH', #83 ) LENGTH_UNIT ( ) NAMED_UNIT ( #237 ) );
#275 = LINE ( 'NONE', #254, #106 ) ;
#276 = VERTEX_POINT ( 'NONE', #134 ) ;
#277 = ADVANCED_FACE ( 'NONE', ( #250 ), #164, .T. ) ;
#278 = VERTEX_POINT ( 'NONE', #23 ) ;
#279 = PRESENTATION_STYLE_ASSIGNMENT (( #235 ) ) ;
#280 = DIRECTION ( 'NONE',  ( 1.000000000000000000, 0.0000000000000000000, -0.0000000000000000000 ) ) ;
#281 = ORIENTED_EDGE ( 'NONE', *, *, #98, .F. ) ;
#282 = CARTESIAN_POINT ( 'NONE',  ( 0.3539761694999999375, 4.334957829526158110E-17, -4.334957829526158110E-17 ) ) ;
#283 = DIRECTION ( 'NONE',  ( 0.0000000000000000000, 0.0000000000000000000, 1.000000000000000000 ) ) ;
#284 = CONICAL_SURFACE ( 'NONE', #153, 0.3393305000000013671, 0.7853981633974482790 ) ;
#285 = AXIS2_PLACEMENT_3D ( 'NONE', #270, #152, #229 ) ;
#286 = DIRECTION ( 'NONE',  ( 0.1736481776669312471, 0.0000000000000000000, 0.9848077530122077983 ) ) ;
#287 = EDGE_CURVE ( 'NONE', #189, #276, #194, .T. ) ;
#288 = AXIS2_PLACEMENT_3D ( 'NONE', #272, #227, #18 ) ;
#289 = DIRECTION ( 'NONE',  ( 1.224646799147353207E-16, 0.0000000000000000000, 1.000000000000000000 ) ) ;
#290 = FACE_OUTER_BOUND ( 'NONE', #209, .T. ) ;
#291 = VERTEX_POINT ( 'NONE', #178 ) ;
#292 = AXIS2_PLACEMENT_3D ( 'NONE', #122, #247, #215 ) ;
#293 = AXIS2_PLACEMENT_3D ( 'NONE', #78, #53, #57 ) ;
#294 = DIRECTION ( 'NONE',  ( -1.000000000000000000, 0.0000000000000000000, 0.0000000000000000000 ) ) ;
#295 = CARTESIAN_POINT ( 'NONE',  ( 5.308792230367967873E-33, 0.0000000000000000000, 4.334957829526159343E-17 ) ) ;
#296 = ORIENTED_EDGE ( 'NONE', *, *, #156, .T. ) ;
#297 = EDGE_CURVE ( 'NONE', #278, #9, #213, .T. ) ;
#298 = DIRECTION ( 'NONE',  ( 1.000000000000000000, 0.0000000000000000000, 0.0000000000000000000 ) ) ;
#299 = AXIS2_PLACEMENT_3D ( 'NONE', #221, #195, #54 ) ;
ENDSEC;
END-ISO-10303-21;
