ISO-10303-21;
HEADER;
FILE_DESCRIPTION (( 'STEP AP214' ),
    '1' );
FILE_NAME ('Micro_SBMM-020-406X.STEP',
    '2021-09-02T17:05:33',
    ( '' ),
    ( '' ),
    'SwSTEP 2.0',
    'SolidWorks 2020',
    '' );
FILE_SCHEMA (( 'AUTOMOTIVE_DESIGN' ));
ENDSEC;

DATA;
#1 = FACE_OUTER_BOUND ( 'NONE', #282, .T. ) ;
#2 = AXIS2_PLACEMENT_3D ( 'NONE', #171, #119, #246 ) ;
#3 = DIRECTION ( 'NONE',  ( 0.0000000000000000000, 1.000000000000000000, 0.0000000000000000000 ) ) ;
#4 = STYLED_ITEM ( 'NONE', ( #105 ), #29 ) ;
#5 = CIRCLE ( 'NONE', #198, 0.1031099999999991745 ) ;
#6 = ORIENTED_EDGE ( 'NONE', *, *, #69, .T. ) ;
#7 = ORIENTED_EDGE ( 'NONE', *, *, #229, .T. ) ;
#8 = CARTESIAN_POINT ( 'NONE',  ( 0.1181100000000000344, 1.446430334472939084E-17, 2.952755999999999936 ) ) ;
#9 = ORIENTED_EDGE ( 'NONE', *, *, #234, .T. ) ;
#10 = CARTESIAN_POINT ( 'NONE',  ( 0.0000000000000000000, 0.0000000000000000000, 2.937755999999999368 ) ) ;
#11 = EDGE_LOOP ( 'NONE', ( #309, #193, #245, #97 ) ) ;
#12 = DIRECTION ( 'NONE',  ( 0.0000000000000000000, 0.0000000000000000000, 1.000000000000000000 ) ) ;
#13 = EDGE_LOOP ( 'NONE', ( #203, #280 ) ) ;
#14 = DIRECTION ( 'NONE',  ( 0.0000000000000000000, 0.0000000000000000000, 1.000000000000000000 ) ) ;
#15 = VERTEX_POINT ( 'NONE', #86 ) ;
#16 = AXIS2_PLACEMENT_3D ( 'NONE', #134, #20, #185 ) ;
#17 = FACE_OUTER_BOUND ( 'NONE', #67, .T. ) ;
#18 = DIRECTION ( 'NONE',  ( 1.000000000000000000, 0.0000000000000000000, 0.0000000000000000000 ) ) ;
#19 = FACE_OUTER_BOUND ( 'NONE', #273, .T. ) ;
#20 = DIRECTION ( 'NONE',  ( 1.000000000000000000, 1.224646799147353207E-16, -0.0000000000000000000 ) ) ;
#21 = DIRECTION ( 'NONE',  ( 0.09001740739397517954, 0.0000000000000000000, 0.9959401921631976240 ) ) ;
#22 = AXIS2_PLACEMENT_3D ( 'NONE', #41, #277, #192 ) ;
#23 = CARTESIAN_POINT ( 'NONE',  ( 0.0000000000000000000, 0.0000000000000000000, 0.0000000000000000000 ) ) ;
#24 = CARTESIAN_POINT ( 'NONE',  ( 0.0000000000000000000, 0.0000000000000000000, 2.952755999999999936 ) ) ;
#25 = DIRECTION ( 'NONE',  ( -1.000000000000000000, 0.0000000000000000000, 0.0000000000000000000 ) ) ;
#26 = DIRECTION ( 'NONE',  ( -0.09001740739397517954, 1.102395298325749875E-17, 0.9959401921631976240 ) ) ;
#27 = CIRCLE ( 'NONE', #2, 0.1181100000000000344 ) ;
#28 = EDGE_CURVE ( 'NONE', #15, #73, #38, .T. ) ;
#29 = MANIFOLD_SOLID_BREP ( 'Cut-Revolve3', #302 ) ;
#30 = AXIS2_PLACEMENT_3D ( 'NONE', #271, #35, #18 ) ;
#31 = UNCERTAINTY_MEASURE_WITH_UNIT (LENGTH_MEASURE( 1.000000000000000082E-05 ), #306, 'distance_accuracy_value', 'NONE');
#32 = CARTESIAN_POINT ( 'NONE',  ( -0.1181100000000000344, 0.0000000000000000000, 2.952755999999999936 ) ) ;
#33 = VERTEX_POINT ( 'NONE', #262 ) ;
#34 = CYLINDRICAL_SURFACE ( 'NONE', #22, 0.02559049999999997438 ) ;
#35 = DIRECTION ( 'NONE',  ( 0.0000000000000000000, 0.0000000000000000000, -1.000000000000000000 ) ) ;
#36 = AXIS2_PLACEMENT_3D ( 'NONE', #10, #297, #333 ) ;
#37 = EDGE_CURVE ( 'NONE', #33, #15, #343, .T. ) ;
#38 = LINE ( 'NONE', #160, #268 ) ;
#39 = FACE_OUTER_BOUND ( 'NONE', #175, .T. ) ;
#40 = ORIENTED_EDGE ( 'NONE', *, *, #313, .F. ) ;
#41 = CARTESIAN_POINT ( 'NONE',  ( 0.0000000000000000000, 0.0000000000000000000, 0.0000000000000000000 ) ) ;
#42 = CARTESIAN_POINT ( 'NONE',  ( 0.0000000000000000000, 0.0000000000000000000, 0.03937000000000000915 ) ) ;
#43 = EDGE_LOOP ( 'NONE', ( #226, #256, #196, #70 ) ) ;
#44 = PRODUCT_RELATED_PRODUCT_CATEGORY ( 'part', '', ( #56 ) ) ;
#45 =( CONVERSION_BASED_UNIT ( 'INCH', #125 ) LENGTH_UNIT ( ) NAMED_UNIT ( #89 ) );
#46 = ORIENTED_EDGE ( 'NONE', *, *, #292, .F. ) ;
#47 = CIRCLE ( 'NONE', #30, 0.1181100000000000344 ) ;
#48 = CARTESIAN_POINT ( 'NONE',  ( 0.0000000000000000000, 0.0000000000000000000, 0.0000000000000000000 ) ) ;
#49 = PRESENTATION_LAYER_ASSIGNMENT (  '', '', ( #4 ) ) ;
#50 = LINE ( 'NONE', #106, #117 ) ;
#51 = CIRCLE ( 'NONE', #324, 0.02559049999999998132 ) ;
#52 = CARTESIAN_POINT ( 'NONE',  ( 0.0000000000000000000, 0.0000000000000000000, 2.952755999999999936 ) ) ;
#53 = DIRECTION ( 'NONE',  ( 1.000000000000000000, 0.0000000000000000000, 0.0000000000000000000 ) ) ;
#54 = SPHERICAL_SURFACE ( 'NONE', #189, 0.03936999999999999528 ) ;
#55 = CIRCLE ( 'NONE', #16, 0.03936999999999999528 ) ;
#56 = PRODUCT ( 'Micro_SBMM-020-406X', 'Micro_SBMM-020-406X', '', ( #181 ) ) ;
#57 = SURFACE_STYLE_USAGE ( .BOTH. , #168 ) ;
#58 = UNCERTAINTY_MEASURE_WITH_UNIT (LENGTH_MEASURE( 1.000000000000000082E-05 ), #45, 'distance_accuracy_value', 'NONE');
#59 = EDGE_LOOP ( 'NONE', ( #46, #7, #63, #251 ) ) ;
#60 = DIMENSIONAL_EXPONENTS ( 1.000000000000000000, 0.0000000000000000000, 0.0000000000000000000, 0.0000000000000000000, 0.0000000000000000000, 0.0000000000000000000, 0.0000000000000000000 ) ;
#61 = DIRECTION ( 'NONE',  ( 1.000000000000000000, 0.0000000000000000000, 0.0000000000000000000 ) ) ;
#62 = APPLICATION_PROTOCOL_DEFINITION ( 'draft international standard', 'automotive_design', 1998, #266 ) ;
#63 = ORIENTED_EDGE ( 'NONE', *, *, #301, .T. ) ;
#64 = CARTESIAN_POINT ( 'NONE',  ( 0.0000000000000000000, 0.0000000000000000000, 2.952755999999999936 ) ) ;
#65 = CARTESIAN_POINT ( 'NONE',  ( 0.0000000000000000000, 2.410717224121564242E-18, 1.707404996040164512E-17 ) ) ;
#66 = CIRCLE ( 'NONE', #165, 0.02559049999999998132 ) ;
#67 = EDGE_LOOP ( 'NONE', ( #123, #219, #332, #40 ) ) ;
#68 = DIRECTION ( 'NONE',  ( -1.000000000000000000, 0.0000000000000000000, 0.0000000000000000000 ) ) ;
#69 = EDGE_CURVE ( 'NONE', #15, #322, #50, .T. ) ;
#70 = ORIENTED_EDGE ( 'NONE', *, *, #28, .F. ) ;
#71 = CARTESIAN_POINT ( 'NONE',  ( -0.02559049999999997438, 0.0000000000000000000, 0.0000000000000000000 ) ) ;
#72 =( NAMED_UNIT ( * ) SI_UNIT ( $, .STERADIAN. ) SOLID_ANGLE_UNIT ( ) );
#73 = VERTEX_POINT ( 'NONE', #287 ) ;
#74 = DIRECTION ( 'NONE',  ( 0.0000000000000000000, 0.0000000000000000000, 1.000000000000000000 ) ) ;
#75 = AXIS2_PLACEMENT_3D ( 'NONE', #81, #101, #136 ) ;
#76 = DIRECTION ( 'NONE',  ( -0.0000000000000000000, -0.0000000000000000000, -1.000000000000000000 ) ) ;
#77 = SURFACE_STYLE_FILL_AREA ( #264 ) ;
#78 = SURFACE_STYLE_USAGE ( .BOTH. , #238 ) ;
#79 = DIRECTION ( 'NONE',  ( -1.000000000000000000, 0.0000000000000000000, 0.0000000000000000000 ) ) ;
#80 = CIRCLE ( 'NONE', #243, 0.1031099999999991745 ) ;
#81 = CARTESIAN_POINT ( 'NONE',  ( 0.0000000000000000000, 0.0000000000000000000, 1.259842999999999602 ) ) ;
#82 = LINE ( 'NONE', #188, #304 ) ;
#83 = PRODUCT_DEFINITION_FORMATION_WITH_SPECIFIED_SOURCE ( 'ANY', '', #56, .NOT_KNOWN. ) ;
#84 = ORIENTED_EDGE ( 'NONE', *, *, #104, .F. ) ;
#85 = VECTOR ( 'NONE', #217, 39.37007874015748143 ) ;
#86 = CARTESIAN_POINT ( 'NONE',  ( 0.02559049999999997091, 0.0000000000000000000, 0.2362200000000000688 ) ) ;
#87 = ADVANCED_FACE ( 'NONE', ( #1 ), #316, .T. ) ;
#88 = DIRECTION ( 'NONE',  ( 0.0000000000000000000, 0.0000000000000000000, 1.000000000000000000 ) ) ;
#89 = DIMENSIONAL_EXPONENTS ( 1.000000000000000000, 0.0000000000000000000, 0.0000000000000000000, 0.0000000000000000000, 0.0000000000000000000, 0.0000000000000000000, 0.0000000000000000000 ) ;
#90 =( NAMED_UNIT ( * ) SI_UNIT ( $, .STERADIAN. ) SOLID_ANGLE_UNIT ( ) );
#91 = ORIENTED_EDGE ( 'NONE', *, *, #183, .T. ) ;
#92 = LINE ( 'NONE', #116, #152 ) ;
#93 = ORIENTED_EDGE ( 'NONE', *, *, #270, .F. ) ;
#94 = PLANE ( 'NONE',  #213 ) ;
#95 = DIRECTION ( 'NONE',  ( -1.000000000000000000, 0.0000000000000000000, 0.0000000000000000000 ) ) ;
#96 = ADVANCED_FACE ( 'NONE', ( #19 ), #269, .T. ) ;
#97 = ORIENTED_EDGE ( 'NONE', *, *, #301, .F. ) ;
#98 = DIRECTION ( 'NONE',  ( 1.000000000000000000, 0.0000000000000000000, -0.0000000000000000000 ) ) ;
#99 = ORIENTED_EDGE ( 'NONE', *, *, #234, .F. ) ;
#100 = DIRECTION ( 'NONE',  ( -0.0000000000000000000, -0.0000000000000000000, -1.000000000000000000 ) ) ;
#101 = DIRECTION ( 'NONE',  ( 0.0000000000000000000, 0.0000000000000000000, 1.000000000000000000 ) ) ;
#102 = DIRECTION ( 'NONE',  ( -1.000000000000000000, 0.0000000000000000000, 0.0000000000000000000 ) ) ;
#103 =( GEOMETRIC_REPRESENTATION_CONTEXT ( 3 ) GLOBAL_UNCERTAINTY_ASSIGNED_CONTEXT ( ( #31 ) ) GLOBAL_UNIT_ASSIGNED_CONTEXT ( ( #306, #225, #72 ) ) REPRESENTATION_CONTEXT ( 'NONE', 'WORKASPACE' ) );
#104 = EDGE_CURVE ( 'NONE', #148, #338, #55, .T. ) ;
#105 = PRESENTATION_STYLE_ASSIGNMENT (( #78 ) ) ;
#106 = CARTESIAN_POINT ( 'NONE',  ( 0.02559049999999997438, 3.133932391358030934E-18, 0.0000000000000000000 ) ) ;
#107 = PRODUCT_DEFINITION ( 'UNKNOWN', '', #83, #272 ) ;
#108 = DIRECTION ( 'NONE',  ( -0.0000000000000000000, -0.0000000000000000000, -1.000000000000000000 ) ) ;
#109 = CONICAL_SURFACE ( 'NONE', #294, 0.1299209999999997589, 0.09013942335351884938 ) ;
#110 = DIRECTION ( 'NONE',  ( -0.0000000000000000000, -0.0000000000000000000, -1.000000000000000000 ) ) ;
#111 = ADVANCED_FACE ( 'NONE', ( #154 ), #233, .T. ) ;
#112 = CIRCLE ( 'NONE', #288, 0.02559049999999997091 ) ;
#113 = ORIENTED_EDGE ( 'NONE', *, *, #261, .T. ) ;
#114 = APPLICATION_CONTEXT ( 'automotive_design' ) ;
#115 = ORIENTED_EDGE ( 'NONE', *, *, #345, .T. ) ;
#116 = CARTESIAN_POINT ( 'NONE',  ( 0.1031099999999991745, 1.262733314600825725E-17, 2.952755999999999936 ) ) ;
#117 = VECTOR ( 'NONE', #76, 39.37007874015748143 ) ;
#118 = ORIENTED_EDGE ( 'NONE', *, *, #261, .F. ) ;
#119 = DIRECTION ( 'NONE',  ( 0.0000000000000000000, 0.0000000000000000000, 1.000000000000000000 ) ) ;
#120 = ORIENTED_EDGE ( 'NONE', *, *, #69, .F. ) ;
#121 = DIRECTION ( 'NONE',  ( -0.0000000000000000000, -0.0000000000000000000, -1.000000000000000000 ) ) ;
#122 = EDGE_CURVE ( 'NONE', #73, #146, #276, .T. ) ;
#123 = ORIENTED_EDGE ( 'NONE', *, *, #169, .F. ) ;
#124 = DIRECTION ( 'NONE',  ( 1.000000000000000000, 0.0000000000000000000, 0.0000000000000000000 ) ) ;
#125 = LENGTH_MEASURE_WITH_UNIT ( LENGTH_MEASURE( 0.02539999999999999897 ), #130 );
#126 = AXIS2_PLACEMENT_3D ( 'NONE', #344, #210, #318 ) ;
#127 = CARTESIAN_POINT ( 'NONE',  ( 0.0000000000000000000, 0.0000000000000000000, 1.390518276595741343 ) ) ;
#128 = VERTEX_POINT ( 'NONE', #186 ) ;
#129 = DIRECTION ( 'NONE',  ( -0.0000000000000000000, -0.0000000000000000000, -1.000000000000000000 ) ) ;
#130 =( LENGTH_UNIT ( ) NAMED_UNIT ( * ) SI_UNIT ( $, .METRE. ) );
#131 = DIRECTION ( 'NONE',  ( -1.000000000000000000, 0.0000000000000000000, 0.0000000000000000000 ) ) ;
#132 = DIRECTION ( 'NONE',  ( 0.0000000000000000000, 0.0000000000000000000, 1.000000000000000000 ) ) ;
#133 = FILL_AREA_STYLE_COLOUR ( '', #156 ) ;
#134 = CARTESIAN_POINT ( 'NONE',  ( 0.0000000000000000000, 0.0000000000000000000, 0.03937000000000000915 ) ) ;
#135 = ADVANCED_FACE ( 'NONE', ( #153 ), #321, .T. ) ;
#136 = DIRECTION ( 'NONE',  ( 1.000000000000000000, 0.0000000000000000000, 0.0000000000000000000 ) ) ;
#137 = PRODUCT_DEFINITION_SHAPE ( 'NONE', 'NONE',  #107 ) ;
#138 = CARTESIAN_POINT ( 'NONE',  ( -0.1031099999999991745, 0.0000000000000000000, 2.952755999999999936 ) ) ;
#139 = CONICAL_SURFACE ( 'NONE', #267, 0.1299209999999997589, 0.09013942335351884938 ) ;
#140 = AXIS2_PLACEMENT_3D ( 'NONE', #24, #260, #205 ) ;
#141 = DIRECTION ( 'NONE',  ( 1.000000000000000000, 0.0000000000000000000, 0.0000000000000000000 ) ) ;
#142 = EDGE_LOOP ( 'NONE', ( #299, #91, #230, #323 ) ) ;
#143 = LINE ( 'NONE', #32, #85 ) ;
#144 =( GEOMETRIC_REPRESENTATION_CONTEXT ( 3 ) GLOBAL_UNCERTAINTY_ASSIGNED_CONTEXT ( ( #244 ) ) GLOBAL_UNIT_ASSIGNED_CONTEXT ( ( #182, #237, #155 ) ) REPRESENTATION_CONTEXT ( 'NONE', 'WORKASPACE' ) );
#145 = FILL_AREA_STYLE_COLOUR ( '', #290 ) ;
#146 = VERTEX_POINT ( 'NONE', #207 ) ;
#147 = DIRECTION ( 'NONE',  ( -1.000000000000000000, 0.0000000000000000000, 0.0000000000000000000 ) ) ;
#148 = VERTEX_POINT ( 'NONE', #286 ) ;
#149 = FACE_OUTER_BOUND ( 'NONE', #13, .T. ) ;
#150 = VERTEX_POINT ( 'NONE', #232 ) ;
#151 = CARTESIAN_POINT ( 'NONE',  ( 0.0000000000000000000, 0.0000000000000000000, 0.03937000000000000915 ) ) ;
#152 = VECTOR ( 'NONE', #194, 39.37007874015748854 ) ;
#153 = FACE_OUTER_BOUND ( 'NONE', #177, .T. ) ;
#154 = FACE_OUTER_BOUND ( 'NONE', #59, .T. ) ;
#155 =( NAMED_UNIT ( * ) SI_UNIT ( $, .STERADIAN. ) SOLID_ANGLE_UNIT ( ) );
#156 = COLOUR_RGB ( '',0.7921568627450980005, 0.8196078431372548767, 0.9333333333333333481 ) ;
#157 = AXIS2_PLACEMENT_3D ( 'NONE', #231, #129, #147 ) ;
#158 = EDGE_CURVE ( 'NONE', #15, #33, #112, .T. ) ;
#159 = DIRECTION ( 'NONE',  ( 1.000000000000000000, 0.0000000000000000000, 0.0000000000000000000 ) ) ;
#160 = CARTESIAN_POINT ( 'NONE',  ( 0.1299209999999997589, 0.0000000000000000000, 1.390518276595741343 ) ) ;
#161 = CARTESIAN_POINT ( 'NONE',  ( 0.0000000000000000000, 0.0000000000000000000, 0.03937000000000000915 ) ) ;
#162 = ADVANCED_BREP_SHAPE_REPRESENTATION ( 'Micro_SBMM-020-406X', ( #29, #336 ), #312 ) ;
#163 = MECHANICAL_DESIGN_GEOMETRIC_PRESENTATION_REPRESENTATION (  '', ( #236 ), #103 ) ;
#164 = ADVANCED_FACE ( 'NONE', ( #314 ), #54, .T. ) ;
#165 = AXIS2_PLACEMENT_3D ( 'NONE', #329, #201, #308 ) ;
#166 = VERTEX_POINT ( 'NONE', #319 ) ;
#167 = CARTESIAN_POINT ( 'NONE',  ( 0.0000000000000000000, 0.0000000000000000000, 1.390518276595741343 ) ) ;
#168 = SURFACE_SIDE_STYLE ('',( #247 ) ) ;
#169 = EDGE_CURVE ( 'NONE', #33, #146, #82, .T. ) ;
#170 = VERTEX_POINT ( 'NONE', #138 ) ;
#171 = CARTESIAN_POINT ( 'NONE',  ( 0.0000000000000000000, 0.0000000000000000000, 1.259842999999999602 ) ) ;
#172 = ORIENTED_EDGE ( 'NONE', *, *, #320, .T. ) ;
#173 = FACE_OUTER_BOUND ( 'NONE', #11, .T. ) ;
#174 = CARTESIAN_POINT ( 'NONE',  ( -0.1181100000000000344, 0.0000000000000000000, 2.937755999999999368 ) ) ;
#175 = EDGE_LOOP ( 'NONE', ( #303, #6, #248, #284, #99 ) ) ;
#176 = CYLINDRICAL_SURFACE ( 'NONE', #258, 0.1181100000000000344 ) ;
#177 = EDGE_LOOP ( 'NONE', ( #216, #275, #254, #191 ) ) ;
#178 = DIRECTION ( 'NONE',  ( 1.000000000000000000, 0.0000000000000000000, 0.0000000000000000000 ) ) ;
#179 = AXIS2_PLACEMENT_3D ( 'NONE', #48, #315, #79 ) ;
#180 = LENGTH_MEASURE_WITH_UNIT ( LENGTH_MEASURE( 0.02539999999999999897 ), #265 );
#181 = PRODUCT_CONTEXT ( 'NONE', #266, 'mechanical' ) ;
#182 =( CONVERSION_BASED_UNIT ( 'INCH', #180 ) LENGTH_UNIT ( ) NAMED_UNIT ( #224 ) );
#183 = EDGE_CURVE ( 'NONE', #322, #148, #335, .T. ) ;
#184 = VECTOR ( 'NONE', #252, 39.37007874015748143 ) ;
#185 = DIRECTION ( 'NONE',  ( -1.224646799147352961E-16, 1.000000000000000000, 0.0000000000000000000 ) ) ;
#186 = CARTESIAN_POINT ( 'NONE',  ( 0.1181100000000000344, 1.446430334472939084E-17, 2.937755999999999368 ) ) ;
#187 = DIRECTION ( 'NONE',  ( 0.0000000000000000000, 0.0000000000000000000, 1.000000000000000000 ) ) ;
#188 = CARTESIAN_POINT ( 'NONE',  ( -0.1299209999999997589, 1.591073367920229727E-17, 1.390518276595741343 ) ) ;
#189 = AXIS2_PLACEMENT_3D ( 'NONE', #161, #211, #3 ) ;
#190 =( NAMED_UNIT ( * ) PLANE_ANGLE_UNIT ( ) SI_UNIT ( $, .RADIAN. ) );
#191 = ORIENTED_EDGE ( 'NONE', *, *, #229, .F. ) ;
#192 = DIRECTION ( 'NONE',  ( -1.000000000000000000, 0.0000000000000000000, 0.0000000000000000000 ) ) ;
#193 = ORIENTED_EDGE ( 'NONE', *, *, #292, .T. ) ;
#194 = DIRECTION ( 'NONE',  ( 0.7071067811865486830, 8.659560562354947649E-17, -0.7071067811865462405 ) ) ;
#195 = ADVANCED_FACE ( 'NONE', ( #39 ), #34, .T. ) ;
#196 = ORIENTED_EDGE ( 'NONE', *, *, #122, .F. ) ;
#197 = CARTESIAN_POINT ( 'NONE',  ( 0.1031099999999991745, 1.354581824536882559E-17, 2.952755999999999936 ) ) ;
#198 = AXIS2_PLACEMENT_3D ( 'NONE', #64, #88, #124 ) ;
#199 = PRESENTATION_LAYER_ASSIGNMENT (  '', '', ( #236 ) ) ;
#200 = VERTEX_POINT ( 'NONE', #197 ) ;
#201 = DIRECTION ( 'NONE',  ( -0.0000000000000000000, -0.0000000000000000000, -1.000000000000000000 ) ) ;
#202 =( LENGTH_UNIT ( ) NAMED_UNIT ( * ) SI_UNIT ( $, .METRE. ) );
#203 = ORIENTED_EDGE ( 'NONE', *, *, #239, .T. ) ;
#204 = FACE_OUTER_BOUND ( 'NONE', #326, .T. ) ;
#205 = DIRECTION ( 'NONE',  ( -1.000000000000000000, 0.0000000000000000000, 0.0000000000000000000 ) ) ;
#206 = AXIS2_PLACEMENT_3D ( 'NONE', #151, #141, #274 ) ;
#207 = CARTESIAN_POINT ( 'NONE',  ( -0.1181100000000000344, 0.0000000000000000000, 1.259842999999999602 ) ) ;
#208 = SHAPE_DEFINITION_REPRESENTATION ( #137, #162 ) ;
#209 = VECTOR ( 'NONE', #339, 39.37007874015748854 ) ;
#210 = DIRECTION ( 'NONE',  ( -0.0000000000000000000, -0.0000000000000000000, -1.000000000000000000 ) ) ;
#211 = DIRECTION ( 'NONE',  ( 1.000000000000000000, 0.0000000000000000000, 0.0000000000000000000 ) ) ;
#212 = ADVANCED_FACE ( 'NONE', ( #149 ), #94, .T. ) ;
#213 = AXIS2_PLACEMENT_3D ( 'NONE', #337, #14, #98 ) ;
#214 = EDGE_CURVE ( 'NONE', #166, #322, #66, .T. ) ;
#215 = ORIENTED_EDGE ( 'NONE', *, *, #340, .F. ) ;
#216 = ORIENTED_EDGE ( 'NONE', *, *, #320, .F. ) ;
#217 = DIRECTION ( 'NONE',  ( -0.0000000000000000000, -0.0000000000000000000, -1.000000000000000000 ) ) ;
#218 = LENGTH_MEASURE_WITH_UNIT ( LENGTH_MEASURE( 0.02539999999999999897 ), #202 );
#219 = ORIENTED_EDGE ( 'NONE', *, *, #158, .F. ) ;
#220 = EDGE_CURVE ( 'NONE', #150, #166, #263, .T. ) ;
#221 = CARTESIAN_POINT ( 'NONE',  ( -0.1031099999999991745, 0.0000000000000000000, 2.952755999999999936 ) ) ;
#222 = ORIENTED_EDGE ( 'NONE', *, *, #158, .T. ) ;
#223 = LINE ( 'NONE', #221, #209 ) ;
#224 = DIMENSIONAL_EXPONENTS ( 1.000000000000000000, 0.0000000000000000000, 0.0000000000000000000, 0.0000000000000000000, 0.0000000000000000000, 0.0000000000000000000, 0.0000000000000000000 ) ;
#225 =( NAMED_UNIT ( * ) PLANE_ANGLE_UNIT ( ) SI_UNIT ( $, .RADIAN. ) );
#226 = ORIENTED_EDGE ( 'NONE', *, *, #37, .F. ) ;
#227 = CARTESIAN_POINT ( 'NONE',  ( 0.0000000000000000000, 0.0000000000000000000, 0.06928860975630385388 ) ) ;
#228 = AXIS2_PLACEMENT_3D ( 'NONE', #42, #95, #278 ) ;
#229 = EDGE_CURVE ( 'NONE', #128, #334, #249, .T. ) ;
#230 = ORIENTED_EDGE ( 'NONE', *, *, #104, .T. ) ;
#231 = CARTESIAN_POINT ( 'NONE',  ( 0.0000000000000000000, 0.0000000000000000000, 0.06928860975630385388 ) ) ;
#232 = CARTESIAN_POINT ( 'NONE',  ( -0.02559049999999998479, 0.0000000000000000000, 0.06928860975630385388 ) ) ;
#233 = CYLINDRICAL_SURFACE ( 'NONE', #285, 0.1181100000000000344 ) ;
#234 = EDGE_CURVE ( 'NONE', #33, #150, #327, .T. ) ;
#235 = VECTOR ( 'NONE', #257, 39.37007874015748143 ) ;
#236 = STYLED_ITEM ( 'NONE', ( #298 ), #162 ) ;
#237 =( NAMED_UNIT ( * ) PLANE_ANGLE_UNIT ( ) SI_UNIT ( $, .RADIAN. ) );
#238 = SURFACE_SIDE_STYLE ('',( #77 ) ) ;
#239 = EDGE_CURVE ( 'NONE', #170, #200, #5, .T. ) ;
#240 = CARTESIAN_POINT ( 'NONE',  ( 0.0000000000000000000, 0.0000000000000000000, 0.06928860975630385388 ) ) ;
#241 = EDGE_CURVE ( 'NONE', #200, #170, #80, .T. ) ;
#242 = MECHANICAL_DESIGN_GEOMETRIC_PRESENTATION_REPRESENTATION (  '', ( #4 ), #144 ) ;
#243 = AXIS2_PLACEMENT_3D ( 'NONE', #305, #12, #61 ) ;
#244 = UNCERTAINTY_MEASURE_WITH_UNIT (LENGTH_MEASURE( 1.000000000000000082E-05 ), #182, 'distance_accuracy_value', 'NONE');
#245 = ORIENTED_EDGE ( 'NONE', *, *, #122, .T. ) ;
#246 = DIRECTION ( 'NONE',  ( 1.000000000000000000, 0.0000000000000000000, 0.0000000000000000000 ) ) ;
#247 = SURFACE_STYLE_FILL_AREA ( #253 ) ;
#248 = ORIENTED_EDGE ( 'NONE', *, *, #214, .F. ) ;
#249 = CIRCLE ( 'NONE', #36, 0.1181100000000000344 ) ;
#250 = SPHERICAL_SURFACE ( 'NONE', #206, 0.03936999999999999528 ) ;
#251 = ORIENTED_EDGE ( 'NONE', *, *, #313, .T. ) ;
#252 = DIRECTION ( 'NONE',  ( -0.0000000000000000000, -0.0000000000000000000, -1.000000000000000000 ) ) ;
#253 = FILL_AREA_STYLE ('',( #145 ) ) ;
#254 = ORIENTED_EDGE ( 'NONE', *, *, #270, .T. ) ;
#255 = DIRECTION ( 'NONE',  ( -1.000000000000000000, 0.0000000000000000000, 0.0000000000000000000 ) ) ;
#256 = ORIENTED_EDGE ( 'NONE', *, *, #169, .T. ) ;
#257 = DIRECTION ( 'NONE',  ( -0.0000000000000000000, -0.0000000000000000000, -1.000000000000000000 ) ) ;
#258 = AXIS2_PLACEMENT_3D ( 'NONE', #281, #100, #283 ) ;
#259 = DIRECTION ( 'NONE',  ( 0.0000000000000000000, 0.0000000000000000000, -1.000000000000000000 ) ) ;
#260 = DIRECTION ( 'NONE',  ( 0.0000000000000000000, 0.0000000000000000000, -1.000000000000000000 ) ) ;
#261 = EDGE_CURVE ( 'NONE', #148, #150, #51, .T. ) ;
#262 = CARTESIAN_POINT ( 'NONE',  ( -0.02559049999999997091, 8.799117868043711275E-18, 0.2362200000000000688 ) ) ;
#263 = CIRCLE ( 'NONE', #157, 0.02559049999999998132 ) ;
#264 = FILL_AREA_STYLE ('',( #133 ) ) ;
#265 =( LENGTH_UNIT ( ) NAMED_UNIT ( * ) SI_UNIT ( $, .METRE. ) );
#266 = APPLICATION_CONTEXT ( 'automotive_design' ) ;
#267 = AXIS2_PLACEMENT_3D ( 'NONE', #127, #187, #53 ) ;
#268 = VECTOR ( 'NONE', #21, 39.37007874015748854 ) ;
#269 = CONICAL_SURFACE ( 'NONE', #140, 0.1031099999999991745, 0.7853981633974500554 ) ;
#270 = EDGE_CURVE ( 'NONE', #170, #334, #223, .T. ) ;
#271 = CARTESIAN_POINT ( 'NONE',  ( 0.0000000000000000000, 0.0000000000000000000, 2.937755999999999368 ) ) ;
#272 = PRODUCT_DEFINITION_CONTEXT ( 'detailed design', #114, 'design' ) ;
#273 = EDGE_LOOP ( 'NONE', ( #307, #172, #215, #93 ) ) ;
#274 = DIRECTION ( 'NONE',  ( 0.0000000000000000000, 1.000000000000000000, 0.0000000000000000000 ) ) ;
#275 = ORIENTED_EDGE ( 'NONE', *, *, #239, .F. ) ;
#276 = CIRCLE ( 'NONE', #75, 0.1181100000000000344 ) ;
#277 = DIRECTION ( 'NONE',  ( -0.0000000000000000000, -0.0000000000000000000, -1.000000000000000000 ) ) ;
#278 = DIRECTION ( 'NONE',  ( 0.0000000000000000000, 0.0000000000000000000, 1.000000000000000000 ) ) ;
#279 = ADVANCED_FACE ( 'NONE', ( #173 ), #176, .T. ) ;
#280 = ORIENTED_EDGE ( 'NONE', *, *, #241, .T. ) ;
#281 = CARTESIAN_POINT ( 'NONE',  ( 0.0000000000000000000, 0.0000000000000000000, 2.952755999999999936 ) ) ;
#282 = EDGE_LOOP ( 'NONE', ( #120, #222, #9, #118, #296 ) ) ;
#283 = DIRECTION ( 'NONE',  ( -1.000000000000000000, 0.0000000000000000000, 0.0000000000000000000 ) ) ;
#284 = ORIENTED_EDGE ( 'NONE', *, *, #220, .F. ) ;
#285 = AXIS2_PLACEMENT_3D ( 'NONE', #52, #108, #25 ) ;
#286 = CARTESIAN_POINT ( 'NONE',  ( 3.133932391358032860E-18, -0.02559049999999999173, 0.06928860975630385388 ) ) ;
#287 = CARTESIAN_POINT ( 'NONE',  ( 0.1181100000000000344, 1.446430334472939084E-17, 1.259842999999999602 ) ) ;
#288 = AXIS2_PLACEMENT_3D ( 'NONE', #342, #341, #102 ) ;
#289 = APPLICATION_PROTOCOL_DEFINITION ( 'draft international standard', 'automotive_design', 1998, #114 ) ;
#290 = COLOUR_RGB ( '',0.7921568627450980005, 0.8196078431372548767, 0.9333333333333333481 ) ;
#291 = ADVANCED_FACE ( 'NONE', ( #204 ), #250, .T. ) ;
#292 = EDGE_CURVE ( 'NONE', #128, #73, #310, .T. ) ;
#293 = AXIS2_PLACEMENT_3D ( 'NONE', #240, #110, #255 ) ;
#294 = AXIS2_PLACEMENT_3D ( 'NONE', #167, #74, #178 ) ;
#295 = ADVANCED_FACE ( 'NONE', ( #17 ), #109, .T. ) ;
#296 = ORIENTED_EDGE ( 'NONE', *, *, #183, .F. ) ;
#297 = DIRECTION ( 'NONE',  ( 0.0000000000000000000, 0.0000000000000000000, -1.000000000000000000 ) ) ;
#298 = PRESENTATION_STYLE_ASSIGNMENT (( #57 ) ) ;
#299 = ORIENTED_EDGE ( 'NONE', *, *, #214, .T. ) ;
#300 = CARTESIAN_POINT ( 'NONE',  ( 0.02559049999999998479, 3.133932391358032475E-18, 0.06928860975630385388 ) ) ;
#301 = EDGE_CURVE ( 'NONE', #334, #146, #143, .T. ) ;
#302 = CLOSED_SHELL ( 'NONE', ( #195, #164, #330, #96, #279, #111, #212, #135, #295, #291, #87 ) ) ;
#303 = ORIENTED_EDGE ( 'NONE', *, *, #37, .T. ) ;
#304 = VECTOR ( 'NONE', #26, 39.37007874015748854 ) ;
#305 = CARTESIAN_POINT ( 'NONE',  ( 0.0000000000000000000, 0.0000000000000000000, 2.952755999999999936 ) ) ;
#306 =( CONVERSION_BASED_UNIT ( 'INCH', #218 ) LENGTH_UNIT ( ) NAMED_UNIT ( #60 ) );
#307 = ORIENTED_EDGE ( 'NONE', *, *, #241, .F. ) ;
#308 = DIRECTION ( 'NONE',  ( -1.000000000000000000, 0.0000000000000000000, 0.0000000000000000000 ) ) ;
#309 = ORIENTED_EDGE ( 'NONE', *, *, #340, .T. ) ;
#310 = LINE ( 'NONE', #8, #235 ) ;
#311 = CARTESIAN_POINT ( 'NONE',  ( 0.0000000000000000000, 0.0000000000000000000, 2.952755999999999936 ) ) ;
#312 =( GEOMETRIC_REPRESENTATION_CONTEXT ( 3 ) GLOBAL_UNCERTAINTY_ASSIGNED_CONTEXT ( ( #58 ) ) GLOBAL_UNIT_ASSIGNED_CONTEXT ( ( #45, #190, #90 ) ) REPRESENTATION_CONTEXT ( 'NONE', 'WORKASPACE' ) );
#313 = EDGE_CURVE ( 'NONE', #146, #73, #27, .T. ) ;
#314 = FACE_OUTER_BOUND ( 'NONE', #142, .T. ) ;
#315 = DIRECTION ( 'NONE',  ( -0.0000000000000000000, -0.0000000000000000000, -1.000000000000000000 ) ) ;
#316 = CYLINDRICAL_SURFACE ( 'NONE', #179, 0.02559049999999997438 ) ;
#317 = AXIS2_PLACEMENT_3D ( 'NONE', #311, #259, #131 ) ;
#318 = DIRECTION ( 'NONE',  ( -1.000000000000000000, 0.0000000000000000000, 0.0000000000000000000 ) ) ;
#319 = CARTESIAN_POINT ( 'NONE',  ( 0.0000000000000000000, 0.02559049999999999173, 0.06928860975630385388 ) ) ;
#320 = EDGE_CURVE ( 'NONE', #200, #128, #92, .T. ) ;
#321 = CONICAL_SURFACE ( 'NONE', #317, 0.1031099999999991745, 0.7853981633974500554 ) ;
#322 = VERTEX_POINT ( 'NONE', #300 ) ;
#323 = ORIENTED_EDGE ( 'NONE', *, *, #345, .F. ) ;
#324 = AXIS2_PLACEMENT_3D ( 'NONE', #227, #121, #68 ) ;
#325 = CIRCLE ( 'NONE', #228, 0.03936999999999999528 ) ;
#326 = EDGE_LOOP ( 'NONE', ( #84, #113, #328, #115 ) ) ;
#327 = LINE ( 'NONE', #71, #184 ) ;
#328 = ORIENTED_EDGE ( 'NONE', *, *, #220, .T. ) ;
#329 = CARTESIAN_POINT ( 'NONE',  ( 0.0000000000000000000, 0.0000000000000000000, 0.06928860975630385388 ) ) ;
#330 = ADVANCED_FACE ( 'NONE', ( #331 ), #139, .T. ) ;
#331 = FACE_OUTER_BOUND ( 'NONE', #43, .T. ) ;
#332 = ORIENTED_EDGE ( 'NONE', *, *, #28, .T. ) ;
#333 = DIRECTION ( 'NONE',  ( 1.000000000000000000, 0.0000000000000000000, 0.0000000000000000000 ) ) ;
#334 = VERTEX_POINT ( 'NONE', #174 ) ;
#335 = CIRCLE ( 'NONE', #293, 0.02559049999999998132 ) ;
#336 = AXIS2_PLACEMENT_3D ( 'NONE', #23, #132, #159 ) ;
#337 = CARTESIAN_POINT ( 'NONE',  ( 0.0000000000000000000, 0.0000000000000000000, 2.952755999999999936 ) ) ;
#338 = VERTEX_POINT ( 'NONE', #65 ) ;
#339 = DIRECTION ( 'NONE',  ( -0.7071067811865486830, 0.0000000000000000000, -0.7071067811865462405 ) ) ;
#340 = EDGE_CURVE ( 'NONE', #334, #128, #47, .T. ) ;
#341 = DIRECTION ( 'NONE',  ( -0.0000000000000000000, -0.0000000000000000000, -1.000000000000000000 ) ) ;
#342 = CARTESIAN_POINT ( 'NONE',  ( 0.0000000000000000000, 0.0000000000000000000, 0.2362200000000000688 ) ) ;
#343 = CIRCLE ( 'NONE', #126, 0.02559049999999997091 ) ;
#344 = CARTESIAN_POINT ( 'NONE',  ( 0.0000000000000000000, 0.0000000000000000000, 0.2362200000000000688 ) ) ;
#345 = EDGE_CURVE ( 'NONE', #166, #338, #325, .T. ) ;
ENDSEC;
END-ISO-10303-21;
