ISO-10303-21;
HEADER;
FILE_DESCRIPTION (( 'STEP AP214' ),
    '1' );
FILE_NAME ('Micro_BEM-375-04.STEP',
    '2021-09-03T13:13:26',
    ( '' ),
    ( '' ),
    'SwSTEP 2.0',
    'SolidWorks 2020',
    '' );
FILE_SCHEMA (( 'AUTOMOTIVE_DESIGN' ));
ENDSEC;

DATA;
#1 = CARTESIAN_POINT ( 'NONE',  ( 0.0000000000000000000, 0.0000000000000000000, 0.0000000000000000000 ) ) ;
#2 = PRODUCT_DEFINITION ( 'UNKNOWN', '', #259, #166 ) ;
#3 = EDGE_LOOP ( 'NONE', ( #184, #250, #197, #65 ) ) ;
#4 = DIRECTION ( 'NONE',  ( -0.1736481776669311916, 2.126576849575783316E-17, 0.9848077530122080203 ) ) ;
#5 = EDGE_CURVE ( 'NONE', #218, #319, #77, .T. ) ;
#6 = CIRCLE ( 'NONE', #141, 0.1873124999999999929 ) ;
#7 = DIRECTION ( 'NONE',  ( -0.0000000000000000000, -0.0000000000000000000, -1.000000000000000000 ) ) ;
#8 = CARTESIAN_POINT ( 'NONE',  ( 3.440874803479328548E-17, 0.0000000000000000000, 0.0000000000000000000 ) ) ;
#9 = DIRECTION ( 'NONE',  ( 1.224646799147353207E-16, 0.0000000000000000000, 1.000000000000000000 ) ) ;
#10 = EDGE_CURVE ( 'NONE', #175, #105, #257, .T. ) ;
#11 = CARTESIAN_POINT ( 'NONE',  ( 0.1873125000000001317, 0.0000000000000000000, 0.8750000000000000000 ) ) ;
#12 = CIRCLE ( 'NONE', #183, 0.1875000000000000278 ) ;
#13 = SURFACE_STYLE_USAGE ( .BOTH. , #137 ) ;
#14 = APPLICATION_PROTOCOL_DEFINITION ( 'draft international standard', 'automotive_design', 1998, #285 ) ;
#15 = ORIENTED_EDGE ( 'NONE', *, *, #224, .T. ) ;
#16 = AXIS2_PLACEMENT_3D ( 'NONE', #128, #274, #205 ) ;
#17 = SPHERICAL_SURFACE ( 'NONE', #232, 0.1873124999999999929 ) ;
#18 = CARTESIAN_POINT ( 'NONE',  ( 1.072868196215332272E-16, 0.0000000000000000000, 0.8760633653411783461 ) ) ;
#19 = VERTEX_POINT ( 'NONE', #280 ) ;
#20 = LENGTH_MEASURE_WITH_UNIT ( LENGTH_MEASURE( 0.02539999999999999897 ), #115 );
#21 = ORIENTED_EDGE ( 'NONE', *, *, #53, .F. ) ;
#22 = ORIENTED_EDGE ( 'NONE', *, *, #210, .F. ) ;
#23 = ADVANCED_FACE ( 'NONE', ( #277 ), #324, .T. ) ;
#24 = DIRECTION ( 'NONE',  ( 1.000000000000000000, 0.0000000000000000000, 0.0000000000000000000 ) ) ;
#25 = EDGE_LOOP ( 'NONE', ( #247, #27, #15, #303 ) ) ;
#26 = CARTESIAN_POINT ( 'NONE',  ( 0.0000000000000000000, 0.0000000000000000000, 2.484999999999999432 ) ) ;
#27 = ORIENTED_EDGE ( 'NONE', *, *, #191, .T. ) ;
#28 = DIRECTION ( 'NONE',  ( 0.7071067811865385799, 8.659560562354823157E-17, -0.7071067811865563435 ) ) ;
#29 = EDGE_CURVE ( 'NONE', #140, #319, #231, .T. ) ;
#30 = PRESENTATION_STYLE_ASSIGNMENT (( #94 ) ) ;
#31 = DIRECTION ( 'NONE',  ( -1.224646799147353207E-16, -0.0000000000000000000, -1.000000000000000000 ) ) ;
#32 = CIRCLE ( 'NONE', #76, 0.1873124999999999929 ) ;
#33 = LINE ( 'NONE', #192, #129 ) ;
#34 = CARTESIAN_POINT ( 'NONE',  ( -0.1724999999999995981, 0.0000000000000000000, 2.500000000000000000 ) ) ;
#35 = DIRECTION ( 'NONE',  ( 1.000000000000000000, 0.0000000000000000000, 0.0000000000000000000 ) ) ;
#36 = FILL_AREA_STYLE ('',( #165 ) ) ;
#37 =( GEOMETRIC_REPRESENTATION_CONTEXT ( 3 ) GLOBAL_UNCERTAINTY_ASSIGNED_CONTEXT ( ( #262 ) ) GLOBAL_UNIT_ASSIGNED_CONTEXT ( ( #117, #248, #323 ) ) REPRESENTATION_CONTEXT ( 'NONE', 'WORKASPACE' ) );
#38 = DIRECTION ( 'NONE',  ( -1.224646799147353207E-16, -0.0000000000000000000, -1.000000000000000000 ) ) ;
#39 = CARTESIAN_POINT ( 'NONE',  ( -0.1873124999999999374, 0.0000000000000000000, 0.1873125000000000207 ) ) ;
#40 = EDGE_LOOP ( 'NONE', ( #294, #246, #69, #321 ) ) ;
#41 = AXIS2_PLACEMENT_3D ( 'NONE', #55, #38, #240 ) ;
#42 = DIRECTION ( 'NONE',  ( 0.0000000000000000000, 0.0000000000000000000, -1.000000000000000000 ) ) ;
#43 = ORIENTED_EDGE ( 'NONE', *, *, #104, .T. ) ;
#44 = LINE ( 'NONE', #318, #108 ) ;
#45 = EDGE_LOOP ( 'NONE', ( #182, #43, #21 ) ) ;
#46 = CARTESIAN_POINT ( 'NONE',  ( -0.1873124999999999096, 2.295064642027087123E-17, 0.8750000000000000000 ) ) ;
#47 = EDGE_CURVE ( 'NONE', #255, #299, #225, .T. ) ;
#48 = AXIS2_PLACEMENT_3D ( 'NONE', #189, #215, #35 ) ;
#49 = EDGE_LOOP ( 'NONE', ( #22, #310, #60, #195 ) ) ;
#50 = DIRECTION ( 'NONE',  ( 1.000000000000000000, 0.0000000000000000000, 0.0000000000000000000 ) ) ;
#51 = DIRECTION ( 'NONE',  ( 0.0000000000000000000, 0.0000000000000000000, -1.000000000000000000 ) ) ;
#52 = CARTESIAN_POINT ( 'NONE',  ( 0.1873125000000000207, 2.293916535652885596E-17, 0.1873124999999999374 ) ) ;
#53 = EDGE_CURVE ( 'NONE', #244, #105, #298, .T. ) ;
#54 = ORIENTED_EDGE ( 'NONE', *, *, #210, .T. ) ;
#55 = CARTESIAN_POINT ( 'NONE',  ( 1.071565949253934025E-16, 0.0000000000000000000, 0.8750000000000000000 ) ) ;
#56 = ADVANCED_FACE ( 'NONE', ( #152 ), #283, .T. ) ;
#57 =( LENGTH_UNIT ( ) NAMED_UNIT ( * ) SI_UNIT ( $, .METRE. ) );
#58 = CARTESIAN_POINT ( 'NONE',  ( 0.0000000000000000000, 0.0000000000000000000, 2.484999999999999432 ) ) ;
#59 = DIRECTION ( 'NONE',  ( -0.0000000000000000000, -0.0000000000000000000, -1.000000000000000000 ) ) ;
#60 = ORIENTED_EDGE ( 'NONE', *, *, #29, .F. ) ;
#61 = ADVANCED_FACE ( 'NONE', ( #304 ), #102, .T. ) ;
#62 = EDGE_LOOP ( 'NONE', ( #270, #301, #199 ) ) ;
#63 = CIRCLE ( 'NONE', #297, 0.1724999999999995981 ) ;
#64 = DIRECTION ( 'NONE',  ( -0.0000000000000000000, -0.0000000000000000000, -1.000000000000000000 ) ) ;
#65 = ORIENTED_EDGE ( 'NONE', *, *, #185, .T. ) ;
#66 = CARTESIAN_POINT ( 'NONE',  ( -0.1874999999999999167, 0.0000000000000000000, 0.8760633653411783461 ) ) ;
#67 = ORIENTED_EDGE ( 'NONE', *, *, #10, .T. ) ;
#68 =( LENGTH_UNIT ( ) NAMED_UNIT ( * ) SI_UNIT ( $, .METRE. ) );
#69 = ORIENTED_EDGE ( 'NONE', *, *, #293, .T. ) ;
#70 = AXIS2_PLACEMENT_3D ( 'NONE', #100, #282, #24 ) ;
#71 = ORIENTED_EDGE ( 'NONE', *, *, #300, .T. ) ;
#72 = APPLICATION_PROTOCOL_DEFINITION ( 'draft international standard', 'automotive_design', 1998, #307 ) ;
#73 = ORIENTED_EDGE ( 'NONE', *, *, #317, .F. ) ;
#74 = FILL_AREA_STYLE ('',( #173 ) ) ;
#75 = DIRECTION ( 'NONE',  ( 0.0000000000000000000, 0.0000000000000000000, -1.000000000000000000 ) ) ;
#76 = AXIS2_PLACEMENT_3D ( 'NONE', #132, #187, #131 ) ;
#77 = LINE ( 'NONE', #126, #272 ) ;
#78 = DIRECTION ( 'NONE',  ( 0.0000000000000000000, -1.000000000000000000, 0.0000000000000000000 ) ) ;
#79 = CARTESIAN_POINT ( 'NONE',  ( 1.072868196215332272E-16, 0.0000000000000000000, 0.8760633653411783461 ) ) ;
#80 = CIRCLE ( 'NONE', #48, 0.1724999999999995981 ) ;
#81 = LINE ( 'NONE', #11, #103 ) ;
#82 = CARTESIAN_POINT ( 'NONE',  ( 1.071565949253934025E-16, 0.0000000000000000000, 0.8750000000000000000 ) ) ;
#83 = FACE_OUTER_BOUND ( 'NONE', #98, .T. ) ;
#84 = CLOSED_SHELL ( 'NONE', ( #233, #151, #123, #61, #56, #118, #268, #236, #88, #23, #134 ) ) ;
#85 = DIRECTION ( 'NONE',  ( 0.0000000000000000000, 0.0000000000000000000, 1.000000000000000000 ) ) ;
#86 = AXIS2_PLACEMENT_3D ( 'NONE', #138, #312, #168 ) ;
#87 = DIRECTION ( 'NONE',  ( 1.000000000000000000, 0.0000000000000000000, -0.0000000000000000000 ) ) ;
#88 = ADVANCED_FACE ( 'NONE', ( #154 ), #242, .T. ) ;
#89 = CARTESIAN_POINT ( 'NONE',  ( 0.0000000000000000000, 0.0000000000000000000, 2.500000000000000000 ) ) ;
#90 = FACE_OUTER_BOUND ( 'NONE', #230, .T. ) ;
#91 = VECTOR ( 'NONE', #31, 39.37007874015748143 ) ;
#92 = DIRECTION ( 'NONE',  ( 1.000000000000000000, 0.0000000000000000000, 0.0000000000000000000 ) ) ;
#93 = ORIENTED_EDGE ( 'NONE', *, *, #317, .T. ) ;
#94 = SURFACE_STYLE_USAGE ( .BOTH. , #256 ) ;
#95 = ORIENTED_EDGE ( 'NONE', *, *, #29, .T. ) ;
#96 = AXIS2_PLACEMENT_3D ( 'NONE', #208, #51, #150 ) ;
#97 = COLOUR_RGB ( '',0.7921568627450980005, 0.8196078431372548767, 0.9333333333333333481 ) ;
#98 = EDGE_LOOP ( 'NONE', ( #171, #116, #93, #146 ) ) ;
#99 = CARTESIAN_POINT ( 'NONE',  ( 1.071565949253934025E-16, 0.0000000000000000000, 0.8750000000000000000 ) ) ;
#100 = CARTESIAN_POINT ( 'NONE',  ( 0.0000000000000000000, 0.0000000000000000000, 0.0000000000000000000 ) ) ;
#101 = FACE_OUTER_BOUND ( 'NONE', #25, .T. ) ;
#102 = CONICAL_SURFACE ( 'NONE', #96, 0.1724999999999995981, 0.7853981633974357335 ) ;
#103 = VECTOR ( 'NONE', #263, 39.37007874015748143 ) ;
#104 = EDGE_CURVE ( 'NONE', #223, #105, #6, .T. ) ;
#105 = VERTEX_POINT ( 'NONE', #52 ) ;
#106 = DIRECTION ( 'NONE',  ( 1.000000000000000000, 0.0000000000000000000, 0.0000000000000000000 ) ) ;
#107 = DIMENSIONAL_EXPONENTS ( 1.000000000000000000, 0.0000000000000000000, 0.0000000000000000000, 0.0000000000000000000, 0.0000000000000000000, 0.0000000000000000000, 0.0000000000000000000 ) ;
#108 = VECTOR ( 'NONE', #64, 39.37007874015748143 ) ;
#109 = DIRECTION ( 'NONE',  ( 0.0000000000000000000, 0.0000000000000000000, 1.000000000000000000 ) ) ;
#110 = PRESENTATION_STYLE_ASSIGNMENT (( #13 ) ) ;
#111 = LENGTH_MEASURE_WITH_UNIT ( LENGTH_MEASURE( 0.02539999999999999897 ), #57 );
#112 = MECHANICAL_DESIGN_GEOMETRIC_PRESENTATION_REPRESENTATION (  '', ( #143 ), #125 ) ;
#113 = PLANE ( 'NONE',  #281 ) ;
#114 = ORIENTED_EDGE ( 'NONE', *, *, #5, .F. ) ;
#115 =( LENGTH_UNIT ( ) NAMED_UNIT ( * ) SI_UNIT ( $, .METRE. ) );
#116 = ORIENTED_EDGE ( 'NONE', *, *, #47, .T. ) ;
#117 =( CONVERSION_BASED_UNIT ( 'INCH', #20 ) LENGTH_UNIT ( ) NAMED_UNIT ( #107 ) );
#118 = ADVANCED_FACE ( 'NONE', ( #101 ), #229, .T. ) ;
#119 = DIRECTION ( 'NONE',  ( 0.0000000000000000000, 1.000000000000000000, 0.0000000000000000000 ) ) ;
#120 = PRODUCT_CONTEXT ( 'NONE', #285, 'mechanical' ) ;
#121 = ORIENTED_EDGE ( 'NONE', *, *, #222, .F. ) ;
#122 = ORIENTED_EDGE ( 'NONE', *, *, #243, .T. ) ;
#123 = ADVANCED_FACE ( 'NONE', ( #83 ), #124, .T. ) ;
#124 = CONICAL_SURFACE ( 'NONE', #238, 0.1873125000000000207, 0.1745329251994338915 ) ;
#125 =( GEOMETRIC_REPRESENTATION_CONTEXT ( 3 ) GLOBAL_UNCERTAINTY_ASSIGNED_CONTEXT ( ( #284 ) ) GLOBAL_UNIT_ASSIGNED_CONTEXT ( ( #186, #320, #217 ) ) REPRESENTATION_CONTEXT ( 'NONE', 'WORKASPACE' ) );
#126 = CARTESIAN_POINT ( 'NONE',  ( 0.1724999999999995981, 2.112515728529179297E-17, 2.500000000000000000 ) ) ;
#127 = DIRECTION ( 'NONE',  ( -1.000000000000000000, 0.0000000000000000000, 0.0000000000000000000 ) ) ;
#128 = CARTESIAN_POINT ( 'NONE',  ( 2.293916535652885596E-17, 0.0000000000000000000, 0.1873124999999999929 ) ) ;
#129 = VECTOR ( 'NONE', #211, 39.37007874015748854 ) ;
#130 = CIRCLE ( 'NONE', #41, 0.1873125000000000207 ) ;
#131 = DIRECTION ( 'NONE',  ( -1.000000000000000000, 1.224646799147352961E-16, 0.0000000000000000000 ) ) ;
#132 = CARTESIAN_POINT ( 'NONE',  ( 2.293916535652885596E-17, 0.0000000000000000000, 0.1873124999999999929 ) ) ;
#133 = CARTESIAN_POINT ( 'NONE',  ( 0.0000000000000000000, 0.0000000000000000000, 2.500000000000000000 ) ) ;
#134 = ADVANCED_FACE ( 'NONE', ( #290 ), #161, .T. ) ;
#135 = UNCERTAINTY_MEASURE_WITH_UNIT (LENGTH_MEASURE( 1.000000000000000082E-05 ), #180, 'distance_accuracy_value', 'NONE');
#136 = CIRCLE ( 'NONE', #178, 0.1875000000000000278 ) ;
#137 = SURFACE_SIDE_STYLE ('',( #287 ) ) ;
#138 = CARTESIAN_POINT ( 'NONE',  ( 0.0000000000000000000, 0.0000000000000000000, 0.0000000000000000000 ) ) ;
#139 = FACE_OUTER_BOUND ( 'NONE', #62, .T. ) ;
#140 = VERTEX_POINT ( 'NONE', #260 ) ;
#141 = AXIS2_PLACEMENT_3D ( 'NONE', #309, #78, #75 ) ;
#142 = CARTESIAN_POINT ( 'NONE',  ( 2.293916535652885596E-17, 0.0000000000000000000, 0.1873124999999999929 ) ) ;
#143 = STYLED_ITEM ( 'NONE', ( #110 ), #227 ) ;
#144 = EDGE_LOOP ( 'NONE', ( #95, #122, #73, #221 ) ) ;
#145 = LINE ( 'NONE', #196, #313 ) ;
#146 = ORIENTED_EDGE ( 'NONE', *, *, #204, .F. ) ;
#147 = DIRECTION ( 'NONE',  ( -1.224646799147353207E-16, -0.0000000000000000000, -1.000000000000000000 ) ) ;
#148 = VECTOR ( 'NONE', #59, 39.37007874015748143 ) ;
#149 = LENGTH_MEASURE_WITH_UNIT ( LENGTH_MEASURE( 0.02539999999999999897 ), #68 );
#150 = DIRECTION ( 'NONE',  ( -1.000000000000000000, 0.0000000000000000000, 0.0000000000000000000 ) ) ;
#151 = ADVANCED_FACE ( 'NONE', ( #239 ), #311, .T. ) ;
#152 = FACE_OUTER_BOUND ( 'NONE', #144, .T. ) ;
#153 = PRODUCT ( 'Micro_BEM-375-04', 'Micro_BEM-375-04', '', ( #120 ) ) ;
#154 = FACE_OUTER_BOUND ( 'NONE', #3, .T. ) ;
#155 = AXIS2_PLACEMENT_3D ( 'NONE', #194, #170, #245 ) ;
#156 = VERTEX_POINT ( 'NONE', #34 ) ;
#157 = ORIENTED_EDGE ( 'NONE', *, *, #222, .T. ) ;
#158 = DIRECTION ( 'NONE',  ( 0.0000000000000000000, 0.0000000000000000000, -1.000000000000000000 ) ) ;
#159 = AXIS2_PLACEMENT_3D ( 'NONE', #58, #158, #163 ) ;
#160 = DIMENSIONAL_EXPONENTS ( 1.000000000000000000, 0.0000000000000000000, 0.0000000000000000000, 0.0000000000000000000, 0.0000000000000000000, 0.0000000000000000000, 0.0000000000000000000 ) ;
#161 = SPHERICAL_SURFACE ( 'NONE', #266, 0.1873124999999999929 ) ;
#162 = EDGE_CURVE ( 'NONE', #156, #140, #33, .T. ) ;
#163 = DIRECTION ( 'NONE',  ( 1.000000000000000000, 0.0000000000000000000, 0.0000000000000000000 ) ) ;
#164 = DIMENSIONAL_EXPONENTS ( 1.000000000000000000, 0.0000000000000000000, 0.0000000000000000000, 0.0000000000000000000, 0.0000000000000000000, 0.0000000000000000000, 0.0000000000000000000 ) ;
#165 = FILL_AREA_STYLE_COLOUR ( '', #97 ) ;
#166 = PRODUCT_DEFINITION_CONTEXT ( 'detailed design', #307, 'design' ) ;
#167 = AXIS2_PLACEMENT_3D ( 'NONE', #251, #7, #127 ) ;
#168 = DIRECTION ( 'NONE',  ( -1.000000000000000000, 0.0000000000000000000, 1.224646799147352961E-16 ) ) ;
#169 = DIRECTION ( 'NONE',  ( -1.000000000000000000, 0.0000000000000000000, 1.823055050827002517E-16 ) ) ;
#170 = DIRECTION ( 'NONE',  ( -1.224646799147353207E-16, -0.0000000000000000000, -1.000000000000000000 ) ) ;
#171 = ORIENTED_EDGE ( 'NONE', *, *, #300, .F. ) ;
#172 = AXIS2_PLACEMENT_3D ( 'NONE', #1, #252, #181 ) ;
#173 = FILL_AREA_STYLE_COLOUR ( '', #216 ) ;
#174 = CIRCLE ( 'NONE', #155, 0.1873125000000000207 ) ;
#175 = VERTEX_POINT ( 'NONE', #237 ) ;
#176 = CARTESIAN_POINT ( 'NONE',  ( 0.1875000000000000278, 2.296212748401287726E-17, 2.484999999999999432 ) ) ;
#177 = EDGE_LOOP ( 'NONE', ( #114, #121, #201, #241 ) ) ;
#178 = AXIS2_PLACEMENT_3D ( 'NONE', #18, #219, #92 ) ;
#179 = EDGE_LOOP ( 'NONE', ( #71, #67, #200, #203 ) ) ;
#180 =( CONVERSION_BASED_UNIT ( 'INCH', #149 ) LENGTH_UNIT ( ) NAMED_UNIT ( #160 ) );
#181 = DIRECTION ( 'NONE',  ( -1.000000000000000000, 0.0000000000000000000, 1.224646799147352961E-16 ) ) ;
#182 = ORIENTED_EDGE ( 'NONE', *, *, #202, .F. ) ;
#183 = AXIS2_PLACEMENT_3D ( 'NONE', #79, #315, #261 ) ;
#184 = ORIENTED_EDGE ( 'NONE', *, *, #47, .F. ) ;
#185 = EDGE_CURVE ( 'NONE', #19, #299, #12, .T. ) ;
#186 =( CONVERSION_BASED_UNIT ( 'INCH', #111 ) LENGTH_UNIT ( ) NAMED_UNIT ( #164 ) );
#187 = DIRECTION ( 'NONE',  ( 1.224646799147353207E-16, 1.000000000000000000, -0.0000000000000000000 ) ) ;
#188 = EDGE_CURVE ( 'NONE', #175, #255, #130, .T. ) ;
#189 = CARTESIAN_POINT ( 'NONE',  ( 0.0000000000000000000, 0.0000000000000000000, 2.500000000000000000 ) ) ;
#190 = CARTESIAN_POINT ( 'NONE',  ( -0.1875000000000000278, 0.0000000000000000000, 2.500000000000000000 ) ) ;
#191 = EDGE_CURVE ( 'NONE', #319, #140, #253, .T. ) ;
#192 = CARTESIAN_POINT ( 'NONE',  ( -0.1724999999999995981, 0.0000000000000000000, 2.500000000000000000 ) ) ;
#193 = DIRECTION ( 'NONE',  ( 1.224646799147353207E-16, 0.0000000000000000000, 1.000000000000000000 ) ) ;
#194 = CARTESIAN_POINT ( 'NONE',  ( 1.071565949253934025E-16, 0.0000000000000000000, 0.8750000000000000000 ) ) ;
#195 = ORIENTED_EDGE ( 'NONE', *, *, #162, .F. ) ;
#196 = CARTESIAN_POINT ( 'NONE',  ( -0.1873124999999999929, 0.0000000000000000000, 2.293916535652885596E-17 ) ) ;
#197 = ORIENTED_EDGE ( 'NONE', *, *, #204, .T. ) ;
#198 = MECHANICAL_DESIGN_GEOMETRIC_PRESENTATION_REPRESENTATION (  '', ( #220 ), #291 ) ;
#199 = ORIENTED_EDGE ( 'NONE', *, *, #264, .F. ) ;
#200 = ORIENTED_EDGE ( 'NONE', *, *, #264, .T. ) ;
#201 = ORIENTED_EDGE ( 'NONE', *, *, #162, .T. ) ;
#202 = EDGE_CURVE ( 'NONE', #223, #244, #32, .T. ) ;
#203 = ORIENTED_EDGE ( 'NONE', *, *, #293, .F. ) ;
#204 = EDGE_CURVE ( 'NONE', #175, #19, #81, .T. ) ;
#205 = DIRECTION ( 'NONE',  ( -1.000000000000000000, 0.0000000000000000000, 1.823055050827002517E-16 ) ) ;
#206 = DIRECTION ( 'NONE',  ( 1.224646799147353207E-16, 0.0000000000000000000, 1.000000000000000000 ) ) ;
#207 = CARTESIAN_POINT ( 'NONE',  ( 0.1873124999999999929, 2.293916535652885596E-17, -2.293916535652885596E-17 ) ) ;
#208 = CARTESIAN_POINT ( 'NONE',  ( 0.0000000000000000000, 0.0000000000000000000, 2.500000000000000000 ) ) ;
#209 = DIRECTION ( 'NONE',  ( 1.000000000000000000, 0.0000000000000000000, 0.0000000000000000000 ) ) ;
#210 = EDGE_CURVE ( 'NONE', #218, #156, #80, .T. ) ;
#211 = DIRECTION ( 'NONE',  ( -0.7071067811865385799, 0.0000000000000000000, -0.7071067811865563435 ) ) ;
#212 = CONICAL_SURFACE ( 'NONE', #267, 0.1724999999999995981, 0.7853981633974357335 ) ;
#213 = LINE ( 'NONE', #190, #148 ) ;
#214 = PRODUCT_RELATED_PRODUCT_CATEGORY ( 'part', '', ( #153 ) ) ;
#215 = DIRECTION ( 'NONE',  ( 0.0000000000000000000, 0.0000000000000000000, 1.000000000000000000 ) ) ;
#216 = COLOUR_RGB ( '',0.7921568627450980005, 0.8196078431372548767, 0.9333333333333333481 ) ;
#217 =( NAMED_UNIT ( * ) SI_UNIT ( $, .STERADIAN. ) SOLID_ANGLE_UNIT ( ) );
#218 = VERTEX_POINT ( 'NONE', #316 ) ;
#219 = DIRECTION ( 'NONE',  ( -1.224646799147353207E-16, -0.0000000000000000000, -1.000000000000000000 ) ) ;
#220 = STYLED_ITEM ( 'NONE', ( #30 ), #275 ) ;
#221 = ORIENTED_EDGE ( 'NONE', *, *, #224, .F. ) ;
#222 = EDGE_CURVE ( 'NONE', #156, #218, #63, .T. ) ;
#223 = VERTEX_POINT ( 'NONE', #8 ) ;
#224 = EDGE_CURVE ( 'NONE', #140, #299, #213, .T. ) ;
#225 = LINE ( 'NONE', #228, #279 ) ;
#226 = AXIS2_PLACEMENT_3D ( 'NONE', #26, #276, #50 ) ;
#227 = MANIFOLD_SOLID_BREP ( 'Fillet1', #84 ) ;
#228 = CARTESIAN_POINT ( 'NONE',  ( -0.1873124999999999096, 2.293916535652885904E-17, 0.8750000000000000000 ) ) ;
#229 = CYLINDRICAL_SURFACE ( 'NONE', #296, 0.1875000000000000278 ) ;
#230 = EDGE_LOOP ( 'NONE', ( #157, #54 ) ) ;
#231 = CIRCLE ( 'NONE', #226, 0.1875000000000000278 ) ;
#232 = AXIS2_PLACEMENT_3D ( 'NONE', #265, #119, #295 ) ;
#233 = ADVANCED_FACE ( 'NONE', ( #139 ), #17, .T. ) ;
#234 = DIRECTION ( 'NONE',  ( 1.000000000000000000, 0.0000000000000000000, 0.0000000000000000000 ) ) ;
#235 = DIRECTION ( 'NONE',  ( 0.0000000000000000000, 1.000000000000000000, 0.0000000000000000000 ) ) ;
#236 = ADVANCED_FACE ( 'NONE', ( #269 ), #212, .T. ) ;
#237 = CARTESIAN_POINT ( 'NONE',  ( 0.1873125000000001317, 0.0000000000000000000, 0.8750000000000000000 ) ) ;
#238 = AXIS2_PLACEMENT_3D ( 'NONE', #82, #9, #106 ) ;
#239 = FACE_OUTER_BOUND ( 'NONE', #179, .T. ) ;
#240 = DIRECTION ( 'NONE',  ( -1.000000000000000000, 0.0000000000000000000, 0.0000000000000000000 ) ) ;
#241 = ORIENTED_EDGE ( 'NONE', *, *, #191, .F. ) ;
#242 = CONICAL_SURFACE ( 'NONE', #288, 0.1873125000000000207, 0.1745329251994338915 ) ;
#243 = EDGE_CURVE ( 'NONE', #319, #19, #44, .T. ) ;
#244 = VERTEX_POINT ( 'NONE', #39 ) ;
#245 = DIRECTION ( 'NONE',  ( -1.000000000000000000, 0.0000000000000000000, 0.0000000000000000000 ) ) ;
#246 = ORIENTED_EDGE ( 'NONE', *, *, #188, .T. ) ;
#247 = ORIENTED_EDGE ( 'NONE', *, *, #243, .F. ) ;
#248 =( NAMED_UNIT ( * ) PLANE_ANGLE_UNIT ( ) SI_UNIT ( $, .RADIAN. ) );
#249 = SURFACE_STYLE_FILL_AREA ( #74 ) ;
#250 = ORIENTED_EDGE ( 'NONE', *, *, #188, .F. ) ;
#251 = CARTESIAN_POINT ( 'NONE',  ( 0.0000000000000000000, 0.0000000000000000000, 2.500000000000000000 ) ) ;
#252 = DIRECTION ( 'NONE',  ( -1.224646799147353207E-16, -0.0000000000000000000, -1.000000000000000000 ) ) ;
#253 = CIRCLE ( 'NONE', #159, 0.1875000000000000278 ) ;
#254 =( NAMED_UNIT ( * ) PLANE_ANGLE_UNIT ( ) SI_UNIT ( $, .RADIAN. ) );
#255 = VERTEX_POINT ( 'NONE', #46 ) ;
#256 = SURFACE_SIDE_STYLE ('',( #249 ) ) ;
#257 = LINE ( 'NONE', #207, #91 ) ;
#258 = CARTESIAN_POINT ( 'NONE',  ( 0.0000000000000000000, 0.0000000000000000000, 2.500000000000000000 ) ) ;
#259 = PRODUCT_DEFINITION_FORMATION_WITH_SPECIFIED_SOURCE ( 'ANY', '', #153, .NOT_KNOWN. ) ;
#260 = CARTESIAN_POINT ( 'NONE',  ( -0.1875000000000000278, 0.0000000000000000000, 2.484999999999999432 ) ) ;
#261 = DIRECTION ( 'NONE',  ( 1.000000000000000000, 0.0000000000000000000, 0.0000000000000000000 ) ) ;
#262 = UNCERTAINTY_MEASURE_WITH_UNIT (LENGTH_MEASURE( 1.000000000000000082E-05 ), #117, 'distance_accuracy_value', 'NONE');
#263 = DIRECTION ( 'NONE',  ( 0.1736481776669313859, 0.0000000000000000000, 0.9848077530122077983 ) ) ;
#264 = EDGE_CURVE ( 'NONE', #105, #244, #302, .T. ) ;
#265 = CARTESIAN_POINT ( 'NONE',  ( 2.293916535652885596E-17, 0.0000000000000000000, 0.1873124999999999929 ) ) ;
#266 = AXIS2_PLACEMENT_3D ( 'NONE', #314, #235, #209 ) ;
#267 = AXIS2_PLACEMENT_3D ( 'NONE', #271, #42, #292 ) ;
#268 = ADVANCED_FACE ( 'NONE', ( #90 ), #113, .T. ) ;
#269 = FACE_OUTER_BOUND ( 'NONE', #177, .T. ) ;
#270 = ORIENTED_EDGE ( 'NONE', *, *, #104, .F. ) ;
#271 = CARTESIAN_POINT ( 'NONE',  ( 0.0000000000000000000, 0.0000000000000000000, 2.500000000000000000 ) ) ;
#272 = VECTOR ( 'NONE', #28, 39.37007874015748854 ) ;
#273 = AXIS2_PLACEMENT_3D ( 'NONE', #142, #193, #169 ) ;
#274 = DIRECTION ( 'NONE',  ( 1.224646799147353207E-16, 0.0000000000000000000, 1.000000000000000000 ) ) ;
#275 = ADVANCED_BREP_SHAPE_REPRESENTATION ( 'Micro_BEM-375-04', ( #227, #70 ), #37 ) ;
#276 = DIRECTION ( 'NONE',  ( 0.0000000000000000000, 0.0000000000000000000, -1.000000000000000000 ) ) ;
#277 = FACE_OUTER_BOUND ( 'NONE', #40, .T. ) ;
#278 = PRODUCT_DEFINITION_SHAPE ( 'NONE', 'NONE',  #2 ) ;
#279 = VECTOR ( 'NONE', #4, 39.37007874015747433 ) ;
#280 = CARTESIAN_POINT ( 'NONE',  ( 0.1875000000000000833, 2.296212748401288650E-17, 0.8760633653411783461 ) ) ;
#281 = AXIS2_PLACEMENT_3D ( 'NONE', #89, #85, #87 ) ;
#282 = DIRECTION ( 'NONE',  ( 0.0000000000000000000, 0.0000000000000000000, 1.000000000000000000 ) ) ;
#283 = CYLINDRICAL_SURFACE ( 'NONE', #167, 0.1875000000000000278 ) ;
#284 = UNCERTAINTY_MEASURE_WITH_UNIT (LENGTH_MEASURE( 1.000000000000000082E-05 ), #186, 'distance_accuracy_value', 'NONE');
#285 = APPLICATION_CONTEXT ( 'automotive_design' ) ;
#286 = DIRECTION ( 'NONE',  ( -1.000000000000000000, 0.0000000000000000000, 0.0000000000000000000 ) ) ;
#287 = SURFACE_STYLE_FILL_AREA ( #36 ) ;
#288 = AXIS2_PLACEMENT_3D ( 'NONE', #99, #206, #306 ) ;
#289 = DIRECTION ( 'NONE',  ( -0.0000000000000000000, -0.0000000000000000000, -1.000000000000000000 ) ) ;
#290 = FACE_OUTER_BOUND ( 'NONE', #45, .T. ) ;
#291 =( GEOMETRIC_REPRESENTATION_CONTEXT ( 3 ) GLOBAL_UNCERTAINTY_ASSIGNED_CONTEXT ( ( #135 ) ) GLOBAL_UNIT_ASSIGNED_CONTEXT ( ( #180, #254, #305 ) ) REPRESENTATION_CONTEXT ( 'NONE', 'WORKASPACE' ) );
#292 = DIRECTION ( 'NONE',  ( -1.000000000000000000, 0.0000000000000000000, 0.0000000000000000000 ) ) ;
#293 = EDGE_CURVE ( 'NONE', #255, #244, #145, .T. ) ;
#294 = ORIENTED_EDGE ( 'NONE', *, *, #10, .F. ) ;
#295 = DIRECTION ( 'NONE',  ( 1.000000000000000000, 0.0000000000000000000, 0.0000000000000000000 ) ) ;
#296 = AXIS2_PLACEMENT_3D ( 'NONE', #258, #289, #286 ) ;
#297 = AXIS2_PLACEMENT_3D ( 'NONE', #133, #109, #234 ) ;
#298 = CIRCLE ( 'NONE', #16, 0.1873124999999999929 ) ;
#299 = VERTEX_POINT ( 'NONE', #66 ) ;
#300 = EDGE_CURVE ( 'NONE', #255, #175, #174, .T. ) ;
#301 = ORIENTED_EDGE ( 'NONE', *, *, #202, .T. ) ;
#302 = CIRCLE ( 'NONE', #273, 0.1873124999999999929 ) ;
#303 = ORIENTED_EDGE ( 'NONE', *, *, #185, .F. ) ;
#304 = FACE_OUTER_BOUND ( 'NONE', #49, .T. ) ;
#305 =( NAMED_UNIT ( * ) SI_UNIT ( $, .STERADIAN. ) SOLID_ANGLE_UNIT ( ) );
#306 = DIRECTION ( 'NONE',  ( 1.000000000000000000, 0.0000000000000000000, 0.0000000000000000000 ) ) ;
#307 = APPLICATION_CONTEXT ( 'automotive_design' ) ;
#308 = SHAPE_DEFINITION_REPRESENTATION ( #278, #275 ) ;
#309 = CARTESIAN_POINT ( 'NONE',  ( 2.293916535652885596E-17, 0.0000000000000000000, 0.1873124999999999929 ) ) ;
#310 = ORIENTED_EDGE ( 'NONE', *, *, #5, .T. ) ;
#311 = CYLINDRICAL_SURFACE ( 'NONE', #86, 0.1873124999999999929 ) ;
#312 = DIRECTION ( 'NONE',  ( -1.224646799147353207E-16, -0.0000000000000000000, -1.000000000000000000 ) ) ;
#313 = VECTOR ( 'NONE', #147, 39.37007874015748143 ) ;
#314 = CARTESIAN_POINT ( 'NONE',  ( 2.293916535652885596E-17, 0.0000000000000000000, 0.1873124999999999929 ) ) ;
#315 = DIRECTION ( 'NONE',  ( -1.224646799147353207E-16, -0.0000000000000000000, -1.000000000000000000 ) ) ;
#316 = CARTESIAN_POINT ( 'NONE',  ( 0.1724999999999995981, 2.204364238465233357E-17, 2.500000000000000000 ) ) ;
#317 = EDGE_CURVE ( 'NONE', #299, #19, #136, .T. ) ;
#318 = CARTESIAN_POINT ( 'NONE',  ( 0.1875000000000000278, 2.296212748401287726E-17, 2.500000000000000000 ) ) ;
#319 = VERTEX_POINT ( 'NONE', #176 ) ;
#320 =( NAMED_UNIT ( * ) PLANE_ANGLE_UNIT ( ) SI_UNIT ( $, .RADIAN. ) );
#321 = ORIENTED_EDGE ( 'NONE', *, *, #53, .T. ) ;
#322 = PRESENTATION_LAYER_ASSIGNMENT (  '', '', ( #220 ) ) ;
#323 =( NAMED_UNIT ( * ) SI_UNIT ( $, .STERADIAN. ) SOLID_ANGLE_UNIT ( ) );
#324 = CYLINDRICAL_SURFACE ( 'NONE', #172, 0.1873124999999999929 ) ;
#325 = PRESENTATION_LAYER_ASSIGNMENT (  '', '', ( #143 ) ) ;
ENDSEC;
END-ISO-10303-21;
