ISO-10303-21;
HEADER;
FILE_DESCRIPTION (( 'STEP AP214' ),
    '1' );
FILE_NAME ('59669.STEP',
    '2023-07-24T15:21:52',
    ( '' ),
    ( '' ),
    'SwSTEP 2.0',
    'SolidWorks 2023',
    '' );
FILE_SCHEMA (( 'AUTOMOTIVE_DESIGN' ));
ENDSEC;

DATA;
#1 = ORIENTED_EDGE ( 'NONE', *, *, #297, .F. ) ;
#2 = EDGE_CURVE ( 'NONE', #361, #255, #293, .T. ) ;
#3 = SURFACE_STYLE_USAGE ( .BOTH. , #105 ) ;
#4 = PRODUCT_DEFINITION ( 'UNKNOWN', '', #39, #66 ) ;
#5 = DIRECTION ( 'NONE',  ( -0.000000000000000000, -1.000000000000000000, -0.000000000000000000 ) ) ;
#6 = FILL_AREA_STYLE ('',( #241 ) ) ;
#7 = SURFACE_SIDE_STYLE ('',( #351 ) ) ;
#8 = STYLED_ITEM ( 'NONE', ( #298 ), #206 ) ;
#9 =( NAMED_UNIT ( * ) PLANE_ANGLE_UNIT ( ) SI_UNIT ( $, .RADIAN. ) );
#10 = UNCERTAINTY_MEASURE_WITH_UNIT (LENGTH_MEASURE( 1.000000000000000082E-05 ), #163, 'distance_accuracy_value', 'NONE');
#11 = AXIS2_PLACEMENT_3D ( 'NONE', #139, #135, #112 ) ;
#12 = VERTEX_POINT ( 'NONE', #261 ) ;
#13 = DIRECTION ( 'NONE',  ( 0.000000000000000000, 0.000000000000000000, -1.000000000000000000 ) ) ;
#14 = CIRCLE ( 'NONE', #299, 12.50000000000000000 ) ;
#15 = ORIENTED_EDGE ( 'NONE', *, *, #152, .T. ) ;
#16 = FACE_OUTER_BOUND ( 'NONE', #26, .T. ) ;
#17 = FILL_AREA_STYLE_COLOUR ( '', #251 ) ;
#18 = ADVANCED_FACE ( 'NONE', ( #30 ), #306, .T. ) ;
#19 = CARTESIAN_POINT ( 'NONE',  ( 1.530808498934191521E-15, 50.00000000000000000, 12.50000000000000000 ) ) ;
#20 = AXIS2_PLACEMENT_3D ( 'NONE', #185, #305, #252 ) ;
#21 = DIRECTION ( 'NONE',  ( -1.217753221838294133E-16, 1.000000000000000000, -0.000000000000000000 ) ) ;
#22 =( NAMED_UNIT ( * ) PLANE_ANGLE_UNIT ( ) SI_UNIT ( $, .RADIAN. ) );
#23 = PRESENTATION_STYLE_ASSIGNMENT (( #129 ) ) ;
#24 = PRESENTATION_STYLE_ASSIGNMENT (( #344 ) ) ;
#25 =( LENGTH_UNIT ( ) NAMED_UNIT ( * ) SI_UNIT ( .MILLI., .METRE. ) );
#26 = EDGE_LOOP ( 'NONE', ( #319, #308 ) ) ;
#27 = FILL_AREA_STYLE ('',( #291 ) ) ;
#28 = CIRCLE ( 'NONE', #243, 12.50000000000000000 ) ;
#29 =( NAMED_UNIT ( * ) SI_UNIT ( $, .STERADIAN. ) SOLID_ANGLE_UNIT ( ) );
#30 = FACE_OUTER_BOUND ( 'NONE', #190, .T. ) ;
#31 = EDGE_CURVE ( 'NONE', #253, #12, #357, .T. ) ;
#32 = LINE ( 'NONE', #347, #78 ) ;
#33 = CARTESIAN_POINT ( 'NONE',  ( 12.50000000000000000, 50.00000000000000000, 1.530808498934192113E-15 ) ) ;
#34 = ORIENTED_EDGE ( 'NONE', *, *, #215, .F. ) ;
#35 = SURFACE_STYLE_FILL_AREA ( #27 ) ;
#36 = DIRECTION ( 'NONE',  ( 0.000000000000000000, 0.000000000000000000, -1.000000000000000000 ) ) ;
#37 = APPLICATION_CONTEXT ( 'automotive_design' ) ;
#38 = PLANE ( 'NONE',  #266 ) ;
#39 = PRODUCT_DEFINITION_FORMATION_WITH_SPECIFIED_SOURCE ( 'ANY', '', #67, .NOT_KNOWN. ) ;
#40 = AXIS2_PLACEMENT_3D ( 'NONE', #232, #68, #279 ) ;
#41 = EDGE_CURVE ( 'NONE', #138, #341, #170, .T. ) ;
#42 = UNCERTAINTY_MEASURE_WITH_UNIT (LENGTH_MEASURE( 1.000000000000000082E-05 ), #289, 'distance_accuracy_value', 'NONE');
#43 = PRESENTATION_LAYER_ASSIGNMENT (  '', '', ( #237 ) ) ;
#44 = DIRECTION ( 'NONE',  ( 0.000000000000000000, 0.000000000000000000, 1.000000000000000000 ) ) ;
#45 =( GEOMETRIC_REPRESENTATION_CONTEXT ( 3 ) GLOBAL_UNCERTAINTY_ASSIGNED_CONTEXT ( ( #116 ) ) GLOBAL_UNIT_ASSIGNED_CONTEXT ( ( #80, #236, #233 ) ) REPRESENTATION_CONTEXT ( 'NONE', 'WORKASPACE' ) );
#46 = CYLINDRICAL_SURFACE ( 'NONE', #157, 12.49999999999999822 ) ;
#47 = DIRECTION ( 'NONE',  ( 0.000000000000000000, -1.000000000000000000, -0.000000000000000000 ) ) ;
#48 =( GEOMETRIC_REPRESENTATION_CONTEXT ( 3 ) GLOBAL_UNCERTAINTY_ASSIGNED_CONTEXT ( ( #246 ) ) GLOBAL_UNIT_ASSIGNED_CONTEXT ( ( #211, #61, #271 ) ) REPRESENTATION_CONTEXT ( 'NONE', 'WORKASPACE' ) );
#49 = EDGE_CURVE ( 'NONE', #168, #165, #28, .T. ) ;
#50 = EDGE_LOOP ( 'NONE', ( #1, #201, #280, #313 ) ) ;
#51 = DIRECTION ( 'NONE',  ( 0.000000000000000000, 0.000000000000000000, -1.000000000000000000 ) ) ;
#52 = CARTESIAN_POINT ( 'NONE',  ( 12.49999999999999467, 124.9999999999999858, 1.530808498934191324E-15 ) ) ;
#53 = CARTESIAN_POINT ( 'NONE',  ( -3.061616997868379493E-15, 124.9999999999999858, 0.000000000000000000 ) ) ;
#54 = ORIENTED_EDGE ( 'NONE', *, *, #317, .F. ) ;
#55 =( GEOMETRIC_REPRESENTATION_CONTEXT ( 3 ) GLOBAL_UNCERTAINTY_ASSIGNED_CONTEXT ( ( #119 ) ) GLOBAL_UNIT_ASSIGNED_CONTEXT ( ( #220, #9, #189 ) ) REPRESENTATION_CONTEXT ( 'NONE', 'WORKASPACE' ) );
#56 = EDGE_CURVE ( 'NONE', #165, #168, #58, .T. ) ;
#57 =( NAMED_UNIT ( * ) SI_UNIT ( $, .STERADIAN. ) SOLID_ANGLE_UNIT ( ) );
#58 = CIRCLE ( 'NONE', #209, 12.50000000000000000 ) ;
#59 = SURFACE_SIDE_STYLE ('',( #321 ) ) ;
#60 = SURFACE_STYLE_USAGE ( .BOTH. , #87 ) ;
#61 =( NAMED_UNIT ( * ) PLANE_ANGLE_UNIT ( ) SI_UNIT ( $, .RADIAN. ) );
#62 = STYLED_ITEM ( 'NONE', ( #109 ), #202 ) ;
#63 = UNCERTAINTY_MEASURE_WITH_UNIT (LENGTH_MEASURE( 1.000000000000000082E-05 ), #25, 'distance_accuracy_value', 'NONE');
#64 = MECHANICAL_DESIGN_GEOMETRIC_PRESENTATION_REPRESENTATION (  '', ( #8 ), #84 ) ;
#65 = EDGE_CURVE ( 'NONE', #12, #253, #324, .T. ) ;
#66 = PRODUCT_DEFINITION_CONTEXT ( 'detailed design', #37, 'design' ) ;
#67 = PRODUCT ( '59669', '59669', '', ( #307 ) ) ;
#68 = DIRECTION ( 'NONE',  ( -1.217753221838294133E-16, 1.000000000000000000, -0.000000000000000000 ) ) ;
#69 = DIRECTION ( 'NONE',  ( -1.000000000000000000, 0.000000000000000000, 0.000000000000000000 ) ) ;
#70 = CARTESIAN_POINT ( 'NONE',  ( 12.50000000000000000, 124.9999999999999858, 0.000000000000000000 ) ) ;
#71 = APPLICATION_CONTEXT ( 'automotive_design' ) ;
#72 = CARTESIAN_POINT ( 'NONE',  ( 1.469576158976823947E-15, 0.000000000000000000, 11.50000000000000000 ) ) ;
#73 = ORIENTED_EDGE ( 'NONE', *, *, #110, .T. ) ;
#74 = DIRECTION ( 'NONE',  ( 0.000000000000000000, 0.000000000000000000, -1.000000000000000000 ) ) ;
#75 = PLANE ( 'NONE',  #240 ) ;
#76 = SURFACE_STYLE_FILL_AREA ( #167 ) ;
#77 = VERTEX_POINT ( 'NONE', #362 ) ;
#78 = VECTOR ( 'NONE', #262, 1000.000000000000000 ) ;
#79 = SURFACE_SIDE_STYLE ('',( #343 ) ) ;
#80 =( LENGTH_UNIT ( ) NAMED_UNIT ( * ) SI_UNIT ( .MILLI., .METRE. ) );
#81 = CARTESIAN_POINT ( 'NONE',  ( 0.000000000000000000, 0.000000000000000000, -12.50000000000000000 ) ) ;
#82 = PRESENTATION_STYLE_ASSIGNMENT (( #200 ) ) ;
#83 = ORIENTED_EDGE ( 'NONE', *, *, #86, .F. ) ;
#84 =( GEOMETRIC_REPRESENTATION_CONTEXT ( 3 ) GLOBAL_UNCERTAINTY_ASSIGNED_CONTEXT ( ( #303 ) ) GLOBAL_UNIT_ASSIGNED_CONTEXT ( ( #212, #349, #207 ) ) REPRESENTATION_CONTEXT ( 'NONE', 'WORKASPACE' ) );
#85 = ORIENTED_EDGE ( 'NONE', *, *, #88, .T. ) ;
#86 = EDGE_CURVE ( 'NONE', #255, #361, #366, .T. ) ;
#87 = SURFACE_SIDE_STYLE ('',( #348 ) ) ;
#88 = EDGE_CURVE ( 'NONE', #107, #77, #304, .T. ) ;
#89 = STYLED_ITEM ( 'NONE', ( #23 ), #310 ) ;
#90 = COLOUR_RGB ( '',1.000000000000000000, 0.000000000000000000, 0.000000000000000000 ) ;
#91 = CARTESIAN_POINT ( 'NONE',  ( 0.000000000000000000, 1.000000000000000000, 0.000000000000000000 ) ) ;
#92 = AXIS2_PLACEMENT_3D ( 'NONE', #187, #44, #118 ) ;
#93 = CARTESIAN_POINT ( 'NONE',  ( -3.061616997868379493E-15, 124.9999999999999858, 0.000000000000000000 ) ) ;
#94 = DIRECTION ( 'NONE',  ( -0.000000000000000000, -1.000000000000000000, -0.000000000000000000 ) ) ;
#95 = EDGE_LOOP ( 'NONE', ( #34, #130 ) ) ;
#96 = COLOUR_RGB ( '',1.000000000000000000, 0.000000000000000000, 0.000000000000000000 ) ;
#97 = ORIENTED_EDGE ( 'NONE', *, *, #2, .F. ) ;
#98 =( LENGTH_UNIT ( ) NAMED_UNIT ( * ) SI_UNIT ( .MILLI., .METRE. ) );
#99 = DIRECTION ( 'NONE',  ( -0.000000000000000000, -1.000000000000000000, -0.000000000000000000 ) ) ;
#100 = AXIS2_PLACEMENT_3D ( 'NONE', #93, #277, #69 ) ;
#101 = CARTESIAN_POINT ( 'NONE',  ( 0.000000000000000000, 0.000000000000000000, -11.50000000000000000 ) ) ;
#102 = CARTESIAN_POINT ( 'NONE',  ( 0.000000000000000000, 1.000000000000000000, -11.50000000000000000 ) ) ;
#103 = STYLED_ITEM ( 'NONE', ( #24 ), #18 ) ;
#104 = FILL_AREA_STYLE_COLOUR ( '', #275 ) ;
#105 = SURFACE_SIDE_STYLE ('',( #210 ) ) ;
#106 = CYLINDRICAL_SURFACE ( 'NONE', #146, 12.50000000000000000 ) ;
#107 = VERTEX_POINT ( 'NONE', #19 ) ;
#108 = COLOUR_RGB ( '',1.000000000000000000, 0.000000000000000000, 0.000000000000000000 ) ;
#109 = PRESENTATION_STYLE_ASSIGNMENT (( #3 ) ) ;
#110 = EDGE_CURVE ( 'NONE', #168, #341, #182, .T. ) ;
#111 = FILL_AREA_STYLE_COLOUR ( '', #134 ) ;
#112 = DIRECTION ( 'NONE',  ( 0.000000000000000000, 0.000000000000000000, -1.000000000000000000 ) ) ;
#113 = FACE_OUTER_BOUND ( 'NONE', #250, .T. ) ;
#114 = CARTESIAN_POINT ( 'NONE',  ( 1.530808498934191521E-15, 0.000000000000000000, 12.50000000000000000 ) ) ;
#115 = AXIS2_PLACEMENT_3D ( 'NONE', #161, #292, #238 ) ;
#116 = UNCERTAINTY_MEASURE_WITH_UNIT (LENGTH_MEASURE( 1.000000000000000082E-05 ), #80, 'distance_accuracy_value', 'NONE');
#117 = PRESENTATION_LAYER_ASSIGNMENT (  '', '', ( #89 ) ) ;
#118 = DIRECTION ( 'NONE',  ( 1.000000000000000000, 0.000000000000000000, 0.000000000000000000 ) ) ;
#119 = UNCERTAINTY_MEASURE_WITH_UNIT (LENGTH_MEASURE( 1.000000000000000082E-05 ), #220, 'distance_accuracy_value', 'NONE');
#120 = CIRCLE ( 'NONE', #11, 11.50000000000000000 ) ;
#121 = DIRECTION ( 'NONE',  ( -1.000000000000000000, 0.000000000000000000, 0.000000000000000000 ) ) ;
#122 = ORIENTED_EDGE ( 'NONE', *, *, #260, .F. ) ;
#123 = DIRECTION ( 'NONE',  ( -1.000000000000000000, 0.000000000000000000, 0.000000000000000000 ) ) ;
#124 = ADVANCED_FACE ( 'NONE', ( #281 ), #46, .T. ) ;
#125 = CARTESIAN_POINT ( 'NONE',  ( 0.000000000000000000, 1.000000000000000000, 0.000000000000000000 ) ) ;
#126 = SURFACE_SIDE_STYLE ('',( #76 ) ) ;
#127 = AXIS2_PLACEMENT_3D ( 'NONE', #332, #224, #13 ) ;
#128 = DIRECTION ( 'NONE',  ( -1.217753221838294133E-16, 1.000000000000000000, -0.000000000000000000 ) ) ;
#129 = SURFACE_STYLE_USAGE ( .BOTH. , #126 ) ;
#130 = ORIENTED_EDGE ( 'NONE', *, *, #88, .F. ) ;
#131 = DIRECTION ( 'NONE',  ( -0.000000000000000000, -1.000000000000000000, -0.000000000000000000 ) ) ;
#132 = ADVANCED_FACE ( 'NONE', ( #16 ), #75, .F. ) ;
#133 =( NAMED_UNIT ( * ) SI_UNIT ( $, .STERADIAN. ) SOLID_ANGLE_UNIT ( ) );
#134 = COLOUR_RGB ( '',1.000000000000000000, 0.000000000000000000, 0.000000000000000000 ) ;
#135 = DIRECTION ( 'NONE',  ( -0.000000000000000000, -1.000000000000000000, -0.000000000000000000 ) ) ;
#136 = ORIENTED_EDGE ( 'NONE', *, *, #152, .F. ) ;
#137 = AXIS2_PLACEMENT_3D ( 'NONE', #91, #94, #74 ) ;
#138 = VERTEX_POINT ( 'NONE', #101 ) ;
#139 = CARTESIAN_POINT ( 'NONE',  ( 0.000000000000000000, 0.000000000000000000, 0.000000000000000000 ) ) ;
#140 = ORIENTED_EDGE ( 'NONE', *, *, #49, .F. ) ;
#141 = MECHANICAL_DESIGN_GEOMETRIC_PRESENTATION_REPRESENTATION (  '', ( #237 ), #339 ) ;
#142 = CARTESIAN_POINT ( 'NONE',  ( 12.50000000000000000, 124.9999999999999858, 1.530808498934191719E-15 ) ) ;
#143 = PRESENTATION_LAYER_ASSIGNMENT (  '', '', ( #360 ) ) ;
#144 = PRESENTATION_STYLE_ASSIGNMENT (( #60 ) ) ;
#145 = ADVANCED_FACE ( 'NONE', ( #228 ), #256, .F. ) ;
#146 = AXIS2_PLACEMENT_3D ( 'NONE', #300, #295, #36 ) ;
#147 = AXIS2_PLACEMENT_3D ( 'NONE', #336, #222, #121 ) ;
#148 = ADVANCED_FACE ( 'NONE', ( #342 ), #314, .T. ) ;
#149 = EDGE_CURVE ( 'NONE', #361, #12, #32, .T. ) ;
#150 = PRESENTATION_LAYER_ASSIGNMENT (  '', '', ( #103 ) ) ;
#151 = CARTESIAN_POINT ( 'NONE',  ( 0.000000000000000000, 0.000000000000000000, 0.000000000000000000 ) ) ;
#152 = EDGE_CURVE ( 'NONE', #341, #138, #120, .T. ) ;
#153 = ORIENTED_EDGE ( 'NONE', *, *, #297, .T. ) ;
#154 = DIRECTION ( 'NONE',  ( 0.000000000000000000, 0.000000000000000000, -1.000000000000000000 ) ) ;
#155 = DIRECTION ( 'NONE',  ( -0.000000000000000000, -1.000000000000000000, -0.000000000000000000 ) ) ;
#156 = ORIENTED_EDGE ( 'NONE', *, *, #149, .F. ) ;
#157 = AXIS2_PLACEMENT_3D ( 'NONE', #53, #128, #364 ) ;
#158 = EDGE_CURVE ( 'NONE', #77, #165, #370, .T. ) ;
#159 = FILL_AREA_STYLE_COLOUR ( '', #90 ) ;
#160 = CARTESIAN_POINT ( 'NONE',  ( 0.000000000000000000, 0.000000000000000000, 0.000000000000000000 ) ) ;
#161 = CARTESIAN_POINT ( 'NONE',  ( 6.071532165918824830E-15, 50.00000000000000000, 0.000000000000000000 ) ) ;
#162 = DIRECTION ( 'NONE',  ( 1.000000000000000000, 1.217753221838294133E-16, 0.000000000000000000 ) ) ;
#163 =( LENGTH_UNIT ( ) NAMED_UNIT ( * ) SI_UNIT ( .MILLI., .METRE. ) );
#164 = COLOUR_RGB ( '',0.7921568627450980005, 0.8196078431372548767, 0.9333333333333333481 ) ;
#165 = VERTEX_POINT ( 'NONE', #235 ) ;
#166 = FACE_OUTER_BOUND ( 'NONE', #338, .T. ) ;
#167 = FILL_AREA_STYLE ('',( #17 ) ) ;
#168 = VERTEX_POINT ( 'NONE', #171 ) ;
#169 =( GEOMETRIC_REPRESENTATION_CONTEXT ( 3 ) GLOBAL_UNCERTAINTY_ASSIGNED_CONTEXT ( ( #63 ) ) GLOBAL_UNIT_ASSIGNED_CONTEXT ( ( #25, #350, #352 ) ) REPRESENTATION_CONTEXT ( 'NONE', 'WORKASPACE' ) );
#170 = CIRCLE ( 'NONE', #186, 11.50000000000000000 ) ;
#171 = CARTESIAN_POINT ( 'NONE',  ( 1.530808498934191521E-15, 1.000000000000000000, 12.50000000000000000 ) ) ;
#172 = FACE_OUTER_BOUND ( 'NONE', #323, .T. ) ;
#173 = ORIENTED_EDGE ( 'NONE', *, *, #260, .T. ) ;
#174 = SURFACE_STYLE_USAGE ( .BOTH. , #265 ) ;
#175 = CYLINDRICAL_SURFACE ( 'NONE', #180, 12.50000000000000000 ) ;
#176 = MECHANICAL_DESIGN_GEOMETRIC_PRESENTATION_REPRESENTATION (  '', ( #183 ), #274 ) ;
#177 = DIRECTION ( 'NONE',  ( -0.000000000000000000, -1.000000000000000000, -0.000000000000000000 ) ) ;
#178 = CLOSED_SHELL ( 'NONE', ( #356, #145, #124, #132 ) ) ;
#179 = VECTOR ( 'NONE', #268, 1000.000000000000000 ) ;
#180 = AXIS2_PLACEMENT_3D ( 'NONE', #216, #177, #326 ) ;
#181 = ADVANCED_BREP_SHAPE_REPRESENTATION ( '59669', ( #202, #328, #92 ), #55 ) ;
#182 = CIRCLE ( 'NONE', #20, 1.000000000000000888 ) ;
#183 = STYLED_ITEM ( 'NONE', ( #82 ), #328 ) ;
#184 = SHAPE_DEFINITION_REPRESENTATION ( #331, #181 ) ;
#185 = CARTESIAN_POINT ( 'NONE',  ( 1.408343819019456176E-15, 1.000000000000000000, 11.50000000000000000 ) ) ;
#186 = AXIS2_PLACEMENT_3D ( 'NONE', #151, #131, #51 ) ;
#187 = CARTESIAN_POINT ( 'NONE',  ( 0.000000000000000000, 0.000000000000000000, 0.000000000000000000 ) ) ;
#188 = CARTESIAN_POINT ( 'NONE',  ( 6.071532165918824830E-15, 50.00000000000000000, 0.000000000000000000 ) ) ;
#189 =( NAMED_UNIT ( * ) SI_UNIT ( $, .STERADIAN. ) SOLID_ANGLE_UNIT ( ) );
#190 = EDGE_LOOP ( 'NONE', ( #316, #194, #264, #136 ) ) ;
#191 = SURFACE_STYLE_FILL_AREA ( #199 ) ;
#192 = CIRCLE ( 'NONE', #214, 1.000000000000000888 ) ;
#193 = CARTESIAN_POINT ( 'NONE',  ( 0.000000000000000000, 1.000000000000000000, 0.000000000000000000 ) ) ;
#194 = ORIENTED_EDGE ( 'NONE', *, *, #49, .T. ) ;
#195 = DIRECTION ( 'NONE',  ( -1.000000000000000000, -1.217753221838294133E-16, 0.000000000000000000 ) ) ;
#196 = DIRECTION ( 'NONE',  ( 0.000000000000000000, 0.000000000000000000, -1.000000000000000000 ) ) ;
#197 = ORIENTED_EDGE ( 'NONE', *, *, #41, .F. ) ;
#198 = MECHANICAL_DESIGN_GEOMETRIC_PRESENTATION_REPRESENTATION (  '', ( #360 ), #248 ) ;
#199 = FILL_AREA_STYLE ('',( #159 ) ) ;
#200 = SURFACE_STYLE_USAGE ( .BOTH. , #79 ) ;
#201 = ORIENTED_EDGE ( 'NONE', *, *, #86, .T. ) ;
#202 = MANIFOLD_SOLID_BREP ( 'Revolve - Cutting Edge', #247 ) ;
#203 =( NAMED_UNIT ( * ) PLANE_ANGLE_UNIT ( ) SI_UNIT ( $, .RADIAN. ) );
#204 = VECTOR ( 'NONE', #21, 1000.000000000000000 ) ;
#205 = EDGE_LOOP ( 'NONE', ( #97, #83 ) ) ;
#206 = ADVANCED_FACE ( 'NONE', ( #325 ), #175, .T. ) ;
#207 =( NAMED_UNIT ( * ) SI_UNIT ( $, .STERADIAN. ) SOLID_ANGLE_UNIT ( ) );
#208 = FILL_AREA_STYLE ('',( #104 ) ) ;
#209 = AXIS2_PLACEMENT_3D ( 'NONE', #125, #223, #154 ) ;
#210 = SURFACE_STYLE_FILL_AREA ( #6 ) ;
#211 =( LENGTH_UNIT ( ) NAMED_UNIT ( * ) SI_UNIT ( .MILLI., .METRE. ) );
#212 =( LENGTH_UNIT ( ) NAMED_UNIT ( * ) SI_UNIT ( .MILLI., .METRE. ) );
#213 = CARTESIAN_POINT ( 'NONE',  ( 0.000000000000000000, 50.00000000000000000, 0.000000000000000000 ) ) ;
#214 = AXIS2_PLACEMENT_3D ( 'NONE', #102, #340, #315 ) ;
#215 = EDGE_CURVE ( 'NONE', #77, #107, #14, .T. ) ;
#216 = CARTESIAN_POINT ( 'NONE',  ( 0.000000000000000000, 0.000000000000000000, 0.000000000000000000 ) ) ;
#217 = MECHANICAL_DESIGN_GEOMETRIC_PRESENTATION_REPRESENTATION (  '', ( #103 ), #45 ) ;
#218 = MECHANICAL_DESIGN_GEOMETRIC_PRESENTATION_REPRESENTATION (  '', ( #288 ), #48 ) ;
#219 = UNCERTAINTY_MEASURE_WITH_UNIT (LENGTH_MEASURE( 1.000000000000000082E-05 ), #98, 'distance_accuracy_value', 'NONE');
#220 =( LENGTH_UNIT ( ) NAMED_UNIT ( * ) SI_UNIT ( .MILLI., .METRE. ) );
#221 = PRESENTATION_LAYER_ASSIGNMENT (  '', '', ( #288 ) ) ;
#222 = DIRECTION ( 'NONE',  ( -1.217753221838294133E-16, 1.000000000000000000, -0.000000000000000000 ) ) ;
#223 = DIRECTION ( 'NONE',  ( -0.000000000000000000, -1.000000000000000000, -0.000000000000000000 ) ) ;
#224 = DIRECTION ( 'NONE',  ( -0.000000000000000000, -1.000000000000000000, -0.000000000000000000 ) ) ;
#225 = ADVANCED_FACE ( 'NONE', ( #172 ), #106, .T. ) ;
#226 =( NAMED_UNIT ( * ) PLANE_ANGLE_UNIT ( ) SI_UNIT ( $, .RADIAN. ) );
#227 = ORIENTED_EDGE ( 'NONE', *, *, #41, .T. ) ;
#228 = FACE_OUTER_BOUND ( 'NONE', #205, .T. ) ;
#229 = DIRECTION ( 'NONE',  ( 0.000000000000000000, 0.000000000000000000, -1.000000000000000000 ) ) ;
#230 = ORIENTED_EDGE ( 'NONE', *, *, #56, .T. ) ;
#231 = PRODUCT_RELATED_PRODUCT_CATEGORY ( 'part', '', ( #67 ) ) ;
#232 = CARTESIAN_POINT ( 'NONE',  ( 6.071532165918824830E-15, 50.00000000000000000, 0.000000000000000000 ) ) ;
#233 =( NAMED_UNIT ( * ) SI_UNIT ( $, .STERADIAN. ) SOLID_ANGLE_UNIT ( ) );
#234 = COLOUR_RGB ( '',0.7921568627450980005, 0.8196078431372548767, 0.9333333333333333481 ) ;
#235 = CARTESIAN_POINT ( 'NONE',  ( 0.000000000000000000, 1.000000000000000000, -12.50000000000000000 ) ) ;
#236 =( NAMED_UNIT ( * ) PLANE_ANGLE_UNIT ( ) SI_UNIT ( $, .RADIAN. ) );
#237 = STYLED_ITEM ( 'NONE', ( #144 ), #272 ) ;
#238 = DIRECTION ( 'NONE',  ( -1.000000000000000000, 0.000000000000000000, 0.000000000000000000 ) ) ;
#239 = FILL_AREA_STYLE ('',( #242 ) ) ;
#240 = AXIS2_PLACEMENT_3D ( 'NONE', #70, #285, #162 ) ;
#241 = FILL_AREA_STYLE_COLOUR ( '', #234 ) ;
#242 = FILL_AREA_STYLE_COLOUR ( '', #108 ) ;
#243 = AXIS2_PLACEMENT_3D ( 'NONE', #257, #155, #283 ) ;
#244 = APPLICATION_PROTOCOL_DEFINITION ( 'draft international standard', 'automotive_design', 1998, #37 ) ;
#245 = TOROIDAL_SURFACE ( 'NONE', #329, 11.50000000000000000, 1.000000000000000444 ) ;
#246 = UNCERTAINTY_MEASURE_WITH_UNIT (LENGTH_MEASURE( 1.000000000000000082E-05 ), #211, 'distance_accuracy_value', 'NONE');
#247 = CLOSED_SHELL ( 'NONE', ( #206, #310, #272, #18, #225, #148 ) ) ;
#248 =( GEOMETRIC_REPRESENTATION_CONTEXT ( 3 ) GLOBAL_UNCERTAINTY_ASSIGNED_CONTEXT ( ( #219 ) ) GLOBAL_UNIT_ASSIGNED_CONTEXT ( ( #98, #22, #57 ) ) REPRESENTATION_CONTEXT ( 'NONE', 'WORKASPACE' ) );
#249 = DIRECTION ( 'NONE',  ( -1.217753221838294133E-16, 1.000000000000000000, -0.000000000000000000 ) ) ;
#250 = EDGE_LOOP ( 'NONE', ( #227, #15 ) ) ;
#251 = COLOUR_RGB ( '',1.000000000000000000, 0.000000000000000000, 0.000000000000000000 ) ;
#252 = DIRECTION ( 'NONE',  ( -1.224646799147353454E-16, 0.000000000000000000, -1.000000000000000000 ) ) ;
#253 = VERTEX_POINT ( 'NONE', #142 ) ;
#254 = SURFACE_STYLE_USAGE ( .BOTH. , #312 ) ;
#255 = VERTEX_POINT ( 'NONE', #33 ) ;
#256 = PLANE ( 'NONE',  #270 ) ;
#257 = CARTESIAN_POINT ( 'NONE',  ( 0.000000000000000000, 1.000000000000000000, 0.000000000000000000 ) ) ;
#258 = CYLINDRICAL_SURFACE ( 'NONE', #100, 12.49999999999999822 ) ;
#259 = DIRECTION ( 'NONE',  ( 0.000000000000000000, 1.000000000000000000, 0.000000000000000000 ) ) ;
#260 = EDGE_CURVE ( 'NONE', #107, #168, #267, .T. ) ;
#261 = CARTESIAN_POINT ( 'NONE',  ( -12.50000000000000711, 124.9999999999999858, 0.000000000000000000 ) ) ;
#262 = DIRECTION ( 'NONE',  ( -1.217753221838294133E-16, 1.000000000000000000, -0.000000000000000000 ) ) ;
#263 =( LENGTH_UNIT ( ) NAMED_UNIT ( * ) SI_UNIT ( .MILLI., .METRE. ) );
#264 = ORIENTED_EDGE ( 'NONE', *, *, #317, .T. ) ;
#265 = SURFACE_SIDE_STYLE ('',( #35 ) ) ;
#266 = AXIS2_PLACEMENT_3D ( 'NONE', #160, #47, #196 ) ;
#267 = LINE ( 'NONE', #114, #311 ) ;
#268 = DIRECTION ( 'NONE',  ( -0.000000000000000000, -1.000000000000000000, -0.000000000000000000 ) ) ;
#269 = PRESENTATION_LAYER_ASSIGNMENT (  '', '', ( #62 ) ) ;
#270 = AXIS2_PLACEMENT_3D ( 'NONE', #188, #309, #195 ) ;
#271 =( NAMED_UNIT ( * ) SI_UNIT ( $, .STERADIAN. ) SOLID_ANGLE_UNIT ( ) );
#272 = ADVANCED_FACE ( 'NONE', ( #113 ), #38, .T. ) ;
#273 = AXIS2_PLACEMENT_3D ( 'NONE', #318, #249, #123 ) ;
#274 =( GEOMETRIC_REPRESENTATION_CONTEXT ( 3 ) GLOBAL_UNCERTAINTY_ASSIGNED_CONTEXT ( ( #42 ) ) GLOBAL_UNIT_ASSIGNED_CONTEXT ( ( #289, #203, #29 ) ) REPRESENTATION_CONTEXT ( 'NONE', 'WORKASPACE' ) );
#275 = COLOUR_RGB ( '',1.000000000000000000, 0.000000000000000000, 0.000000000000000000 ) ;
#276 = AXIS2_PLACEMENT_3D ( 'NONE', #294, #259, #322 ) ;
#277 = DIRECTION ( 'NONE',  ( -1.217753221838294133E-16, 1.000000000000000000, -0.000000000000000000 ) ) ;
#278 = ORIENTED_EDGE ( 'NONE', *, *, #65, .F. ) ;
#279 = DIRECTION ( 'NONE',  ( -1.000000000000000000, 0.000000000000000000, 0.000000000000000000 ) ) ;
#280 = ORIENTED_EDGE ( 'NONE', *, *, #149, .T. ) ;
#281 = FACE_OUTER_BOUND ( 'NONE', #50, .T. ) ;
#282 = ORIENTED_EDGE ( 'NONE', *, *, #215, .T. ) ;
#283 = DIRECTION ( 'NONE',  ( 0.000000000000000000, 0.000000000000000000, -1.000000000000000000 ) ) ;
#284 = LINE ( 'NONE', #52, #204 ) ;
#285 = DIRECTION ( 'NONE',  ( 1.217753221838294133E-16, -1.000000000000000000, 0.000000000000000000 ) ) ;
#286 =( NAMED_UNIT ( * ) SI_UNIT ( $, .STERADIAN. ) SOLID_ANGLE_UNIT ( ) );
#287 = ORIENTED_EDGE ( 'NONE', *, *, #2, .T. ) ;
#288 = STYLED_ITEM ( 'NONE', ( #327 ), #225 ) ;
#289 =( LENGTH_UNIT ( ) NAMED_UNIT ( * ) SI_UNIT ( .MILLI., .METRE. ) );
#290 = EDGE_LOOP ( 'NONE', ( #230, #73, #197, #54 ) ) ;
#291 = FILL_AREA_STYLE_COLOUR ( '', #96 ) ;
#292 = DIRECTION ( 'NONE',  ( -1.217753221838294133E-16, 1.000000000000000000, -0.000000000000000000 ) ) ;
#293 = CIRCLE ( 'NONE', #115, 12.49999999999999645 ) ;
#294 = CARTESIAN_POINT ( 'NONE',  ( 0.000000000000000000, 50.00000000000000000, 0.000000000000000000 ) ) ;
#295 = DIRECTION ( 'NONE',  ( -0.000000000000000000, -1.000000000000000000, -0.000000000000000000 ) ) ;
#296 = ORIENTED_EDGE ( 'NONE', *, *, #158, .F. ) ;
#297 = EDGE_CURVE ( 'NONE', #255, #253, #284, .T. ) ;
#298 = PRESENTATION_STYLE_ASSIGNMENT (( #174 ) ) ;
#299 = AXIS2_PLACEMENT_3D ( 'NONE', #213, #302, #301 ) ;
#300 = CARTESIAN_POINT ( 'NONE',  ( 0.000000000000000000, 0.000000000000000000, 0.000000000000000000 ) ) ;
#301 = DIRECTION ( 'NONE',  ( 0.000000000000000000, 0.000000000000000000, -1.000000000000000000 ) ) ;
#302 = DIRECTION ( 'NONE',  ( -0.000000000000000000, -1.000000000000000000, -0.000000000000000000 ) ) ;
#303 = UNCERTAINTY_MEASURE_WITH_UNIT (LENGTH_MEASURE( 1.000000000000000082E-05 ), #212, 'distance_accuracy_value', 'NONE');
#304 = CIRCLE ( 'NONE', #127, 12.50000000000000000 ) ;
#305 = DIRECTION ( 'NONE',  ( 1.000000000000000000, 0.000000000000000000, -1.224646799147353207E-16 ) ) ;
#306 = TOROIDAL_SURFACE ( 'NONE', #137, 11.50000000000000000, 1.000000000000000444 ) ;
#307 = PRODUCT_CONTEXT ( 'NONE', #71, 'mechanical' ) ;
#308 = ORIENTED_EDGE ( 'NONE', *, *, #31, .T. ) ;
#309 = DIRECTION ( 'NONE',  ( -1.217753221838294133E-16, 1.000000000000000000, 0.000000000000000000 ) ) ;
#310 = ADVANCED_FACE ( 'NONE', ( #367 ), #245, .T. ) ;
#311 = VECTOR ( 'NONE', #5, 1000.000000000000000 ) ;
#312 = SURFACE_SIDE_STYLE ('',( #191 ) ) ;
#313 = ORIENTED_EDGE ( 'NONE', *, *, #31, .F. ) ;
#314 = PLANE ( 'NONE',  #276 ) ;
#315 = DIRECTION ( 'NONE',  ( 0.000000000000000000, 0.000000000000000000, 1.000000000000000000 ) ) ;
#316 = ORIENTED_EDGE ( 'NONE', *, *, #110, .F. ) ;
#317 = EDGE_CURVE ( 'NONE', #165, #138, #192, .T. ) ;
#318 = CARTESIAN_POINT ( 'NONE',  ( -3.061616997868379493E-15, 124.9999999999999858, 0.000000000000000000 ) ) ;
#319 = ORIENTED_EDGE ( 'NONE', *, *, #65, .T. ) ;
#320 = FILL_AREA_STYLE ('',( #345 ) ) ;
#321 = SURFACE_STYLE_FILL_AREA ( #208 ) ;
#322 = DIRECTION ( 'NONE',  ( 0.000000000000000000, -0.000000000000000000, 1.000000000000000000 ) ) ;
#323 = EDGE_LOOP ( 'NONE', ( #122, #85, #346, #140 ) ) ;
#324 = CIRCLE ( 'NONE', #147, 12.50000000000000355 ) ;
#325 = FACE_OUTER_BOUND ( 'NONE', #330, .T. ) ;
#326 = DIRECTION ( 'NONE',  ( 0.000000000000000000, 0.000000000000000000, -1.000000000000000000 ) ) ;
#327 = PRESENTATION_STYLE_ASSIGNMENT (( #355 ) ) ;
#328 = MANIFOLD_SOLID_BREP ( 'Revolve - Tool Body (Straight Shanked)', #178 ) ;
#329 = AXIS2_PLACEMENT_3D ( 'NONE', #193, #99, #229 ) ;
#330 = EDGE_LOOP ( 'NONE', ( #282, #173, #337, #296 ) ) ;
#331 = PRODUCT_DEFINITION_SHAPE ( 'NONE', 'NONE',  #4 ) ;
#332 = CARTESIAN_POINT ( 'NONE',  ( 0.000000000000000000, 50.00000000000000000, 0.000000000000000000 ) ) ;
#333 = CARTESIAN_POINT ( 'NONE',  ( -12.49999999999999112, 50.00000000000000000, 0.000000000000000000 ) ) ;
#334 = PRESENTATION_LAYER_ASSIGNMENT (  '', '', ( #8 ) ) ;
#335 = MECHANICAL_DESIGN_GEOMETRIC_PRESENTATION_REPRESENTATION (  '', ( #62 ), #169 ) ;
#336 = CARTESIAN_POINT ( 'NONE',  ( -3.061616997868379493E-15, 124.9999999999999858, 0.000000000000000000 ) ) ;
#337 = ORIENTED_EDGE ( 'NONE', *, *, #56, .F. ) ;
#338 = EDGE_LOOP ( 'NONE', ( #287, #153, #278, #156 ) ) ;
#339 =( GEOMETRIC_REPRESENTATION_CONTEXT ( 3 ) GLOBAL_UNCERTAINTY_ASSIGNED_CONTEXT ( ( #359 ) ) GLOBAL_UNIT_ASSIGNED_CONTEXT ( ( #263, #369, #286 ) ) REPRESENTATION_CONTEXT ( 'NONE', 'WORKASPACE' ) );
#340 = DIRECTION ( 'NONE',  ( -1.000000000000000000, 0.000000000000000000, 0.000000000000000000 ) ) ;
#341 = VERTEX_POINT ( 'NONE', #72 ) ;
#342 = FACE_OUTER_BOUND ( 'NONE', #95, .T. ) ;
#343 = SURFACE_STYLE_FILL_AREA ( #320 ) ;
#344 = SURFACE_STYLE_USAGE ( .BOTH. , #59 ) ;
#345 = FILL_AREA_STYLE_COLOUR ( '', #164 ) ;
#346 = ORIENTED_EDGE ( 'NONE', *, *, #158, .T. ) ;
#347 = CARTESIAN_POINT ( 'NONE',  ( -12.50000000000000178, 124.9999999999999858, 0.000000000000000000 ) ) ;
#348 = SURFACE_STYLE_FILL_AREA ( #353 ) ;
#349 =( NAMED_UNIT ( * ) PLANE_ANGLE_UNIT ( ) SI_UNIT ( $, .RADIAN. ) );
#350 =( NAMED_UNIT ( * ) PLANE_ANGLE_UNIT ( ) SI_UNIT ( $, .RADIAN. ) );
#351 = SURFACE_STYLE_FILL_AREA ( #239 ) ;
#352 =( NAMED_UNIT ( * ) SI_UNIT ( $, .STERADIAN. ) SOLID_ANGLE_UNIT ( ) );
#353 = FILL_AREA_STYLE ('',( #111 ) ) ;
#354 = PRESENTATION_LAYER_ASSIGNMENT (  '', '', ( #183 ) ) ;
#355 = SURFACE_STYLE_USAGE ( .BOTH. , #7 ) ;
#356 = ADVANCED_FACE ( 'NONE', ( #166 ), #258, .T. ) ;
#357 = CIRCLE ( 'NONE', #273, 12.50000000000000355 ) ;
#358 =( GEOMETRIC_REPRESENTATION_CONTEXT ( 3 ) GLOBAL_UNCERTAINTY_ASSIGNED_CONTEXT ( ( #10 ) ) GLOBAL_UNIT_ASSIGNED_CONTEXT ( ( #163, #226, #133 ) ) REPRESENTATION_CONTEXT ( 'NONE', 'WORKASPACE' ) );
#359 = UNCERTAINTY_MEASURE_WITH_UNIT (LENGTH_MEASURE( 1.000000000000000082E-05 ), #263, 'distance_accuracy_value', 'NONE');
#360 = STYLED_ITEM ( 'NONE', ( #368 ), #148 ) ;
#361 = VERTEX_POINT ( 'NONE', #333 ) ;
#362 = CARTESIAN_POINT ( 'NONE',  ( 0.000000000000000000, 50.00000000000000000, -12.50000000000000000 ) ) ;
#363 = MECHANICAL_DESIGN_GEOMETRIC_PRESENTATION_REPRESENTATION (  '', ( #89 ), #358 ) ;
#364 = DIRECTION ( 'NONE',  ( -1.000000000000000000, 0.000000000000000000, 0.000000000000000000 ) ) ;
#365 = APPLICATION_PROTOCOL_DEFINITION ( 'draft international standard', 'automotive_design', 1998, #71 ) ;
#366 = CIRCLE ( 'NONE', #40, 12.49999999999999645 ) ;
#367 = FACE_OUTER_BOUND ( 'NONE', #290, .T. ) ;
#368 = PRESENTATION_STYLE_ASSIGNMENT (( #254 ) ) ;
#369 =( NAMED_UNIT ( * ) PLANE_ANGLE_UNIT ( ) SI_UNIT ( $, .RADIAN. ) );
#370 = LINE ( 'NONE', #81, #179 ) ;
ENDSEC;
END-ISO-10303-21;
