ISO-10303-21;
HEADER;
FILE_DESCRIPTION (( 'STEP AP214' ),
    '1' );
FILE_NAME ('83438.STEP',
    '2023-06-23T10:19:17',
    ( '' ),
    ( '' ),
    'SwSTEP 2.0',
    'SolidWorks 2023',
    '' );
FILE_SCHEMA (( 'AUTOMOTIVE_DESIGN' ));
ENDSEC;

DATA;
#1 = PLANE ( 'NONE',  #124 ) ;
#2 = STYLED_ITEM ( 'NONE', ( #180 ), #90 ) ;
#3 = EDGE_CURVE ( 'NONE', #40, #306, #111, .T. ) ;
#4 = SURFACE_SIDE_STYLE ('',( #5 ) ) ;
#5 = SURFACE_STYLE_FILL_AREA ( #51 ) ;
#6 = CYLINDRICAL_SURFACE ( 'NONE', #41, 0.2500000000000001110 ) ;
#7 = FACE_OUTER_BOUND ( 'NONE', #19, .T. ) ;
#8 = CARTESIAN_POINT ( 'NONE',  ( -2.449293598294707400E-16, 6.000000000000000888, 0.000000000000000000 ) ) ;
#9 = EDGE_CURVE ( 'NONE', #33, #18, #153, .T. ) ;
#10 = MECHANICAL_DESIGN_GEOMETRIC_PRESENTATION_REPRESENTATION (  '', ( #2 ), #49 ) ;
#11 = FILL_AREA_STYLE ('',( #137 ) ) ;
#12 = PRESENTATION_LAYER_ASSIGNMENT (  '', '', ( #233 ) ) ;
#13 = ORIENTED_EDGE ( 'NONE', *, *, #106, .T. ) ;
#14 = CARTESIAN_POINT ( 'NONE',  ( -0.2500000000000003886, 6.000000000000000888, 0.000000000000000000 ) ) ;
#15 = FILL_AREA_STYLE ('',( #74 ) ) ;
#16 = PRESENTATION_LAYER_ASSIGNMENT (  '', '', ( #299 ) ) ;
#17 = SURFACE_STYLE_USAGE ( .BOTH. , #103 ) ;
#18 = VERTEX_POINT ( 'NONE', #222 ) ;
#19 = EDGE_LOOP ( 'NONE', ( #198, #37, #132, #215 ) ) ;
#20 = CARTESIAN_POINT ( 'NONE',  ( 3.061616997868383018E-17, 0.000000000000000000, 0.2500000000000000000 ) ) ;
#21 = EDGE_CURVE ( 'NONE', #98, #18, #135, .T. ) ;
#22 = CIRCLE ( 'NONE', #59, 0.2500000000000002220 ) ;
#23 = DIRECTION ( 'NONE',  ( -1.000000000000000000, 0.000000000000000000, 0.000000000000000000 ) ) ;
#24 = ADVANCED_FACE ( 'NONE', ( #65 ), #75, .T. ) ;
#25 = CARTESIAN_POINT ( 'NONE',  ( 0.000000000000000000, 0.000000000000000000, 0.000000000000000000 ) ) ;
#26 = COLOUR_RGB ( '',1.000000000000000000, 0.000000000000000000, 0.000000000000000000 ) ;
#27 = CARTESIAN_POINT ( 'NONE',  ( 3.061616997868383018E-17, 0.000000000000000000, 0.2500000000000000000 ) ) ;
#28 =( GEOMETRIC_REPRESENTATION_CONTEXT ( 3 ) GLOBAL_UNCERTAINTY_ASSIGNED_CONTEXT ( ( #202 ) ) GLOBAL_UNIT_ASSIGNED_CONTEXT ( ( #96, #166, #262 ) ) REPRESENTATION_CONTEXT ( 'NONE', 'WORKASPACE' ) );
#29 = FACE_OUTER_BOUND ( 'NONE', #248, .T. ) ;
#30 = EDGE_CURVE ( 'NONE', #306, #40, #291, .T. ) ;
#31 = DIRECTION ( 'NONE',  ( -1.000000000000000000, 0.000000000000000000, 0.000000000000000000 ) ) ;
#32 = LINE ( 'NONE', #27, #46 ) ;
#33 = VERTEX_POINT ( 'NONE', #269 ) ;
#34 = PRODUCT_DEFINITION_FORMATION_WITH_SPECIFIED_SOURCE ( 'ANY', '', #217, .NOT_KNOWN. ) ;
#35 = DIRECTION ( 'NONE',  ( -1.000000000000000000, 0.000000000000000000, 0.000000000000000000 ) ) ;
#36 = DIRECTION ( 'NONE',  ( -0.000000000000000000, -1.000000000000000000, -0.000000000000000000 ) ) ;
#37 = ORIENTED_EDGE ( 'NONE', *, *, #141, .T. ) ;
#38 =( CONVERSION_BASED_UNIT ( 'INCH', #164 ) LENGTH_UNIT ( ) NAMED_UNIT ( #307 ) );
#39 = PRESENTATION_LAYER_ASSIGNMENT (  '', '', ( #138 ) ) ;
#40 = VERTEX_POINT ( 'NONE', #131 ) ;
#41 = AXIS2_PLACEMENT_3D ( 'NONE', #50, #287, #23 ) ;
#42 = DIRECTION ( 'NONE',  ( -0.000000000000000000, -1.000000000000000000, -0.000000000000000000 ) ) ;
#43 = MANIFOLD_SOLID_BREP ( 'Revolve - Cutting Edge', #91 ) ;
#44 = PRODUCT_RELATED_PRODUCT_CATEGORY ( 'part', '', ( #217 ) ) ;
#45 = PRESENTATION_LAYER_ASSIGNMENT (  '', '', ( #102 ) ) ;
#46 = VECTOR ( 'NONE', #214, 39.37007874015748143 ) ;
#47 =( LENGTH_UNIT ( ) NAMED_UNIT ( * ) SI_UNIT ( $, .METRE. ) );
#48 = PRODUCT_CONTEXT ( 'NONE', #68, 'mechanical' ) ;
#49 =( GEOMETRIC_REPRESENTATION_CONTEXT ( 3 ) GLOBAL_UNCERTAINTY_ASSIGNED_CONTEXT ( ( #268 ) ) GLOBAL_UNIT_ASSIGNED_CONTEXT ( ( #247, #139, #165 ) ) REPRESENTATION_CONTEXT ( 'NONE', 'WORKASPACE' ) );
#50 = CARTESIAN_POINT ( 'NONE',  ( -2.449293598294707400E-16, 6.000000000000000888, 0.000000000000000000 ) ) ;
#51 = FILL_AREA_STYLE ('',( #285 ) ) ;
#52 = MANIFOLD_SOLID_BREP ( 'Revolve - Tool Body (Straight Shanked)', #237 ) ;
#53 = DIRECTION ( 'NONE',  ( -0.000000000000000000, -1.000000000000000000, -0.000000000000000000 ) ) ;
#54 = DIRECTION ( 'NONE',  ( 0.000000000000000000, 0.000000000000000000, -1.000000000000000000 ) ) ;
#55 = EDGE_CURVE ( 'NONE', #146, #33, #264, .T. ) ;
#56 = DIRECTION ( 'NONE',  ( 1.000000000000000000, 1.031281515071455676E-16, 0.000000000000000000 ) ) ;
#57 = ORIENTED_EDGE ( 'NONE', *, *, #116, .T. ) ;
#58 =( CONVERSION_BASED_UNIT ( 'INCH', #109 ) LENGTH_UNIT ( ) NAMED_UNIT ( #178 ) );
#59 = AXIS2_PLACEMENT_3D ( 'NONE', #286, #258, #288 ) ;
#60 = DIRECTION ( 'NONE',  ( 0.000000000000000000, 0.000000000000000000, -1.000000000000000000 ) ) ;
#61 = PRODUCT_DEFINITION ( 'UNKNOWN', '', #34, #114 ) ;
#63 = EDGE_LOOP ( 'NONE', ( #296, #128 ) ) ;
#62 = LENGTH_MEASURE_WITH_UNIT ( LENGTH_MEASURE( 0.02539999999999999897 ), #99 );
#64 = AXIS2_PLACEMENT_3D ( 'NONE', #82, #155, #105 ) ;
#65 = FACE_OUTER_BOUND ( 'NONE', #86, .T. ) ;
#66 = PRESENTATION_LAYER_ASSIGNMENT (  '', '', ( #277 ) ) ;
#67 = FILL_AREA_STYLE_COLOUR ( '', #270 ) ;
#68 = APPLICATION_CONTEXT ( 'automotive_design' ) ;
#69 = LINE ( 'NONE', #263, #97 ) ;
#70 = CARTESIAN_POINT ( 'NONE',  ( 0.000000000000000000, 3.625000000000000444, 0.000000000000000000 ) ) ;
#71 =( GEOMETRIC_REPRESENTATION_CONTEXT ( 3 ) GLOBAL_UNCERTAINTY_ASSIGNED_CONTEXT ( ( #104 ) ) GLOBAL_UNIT_ASSIGNED_CONTEXT ( ( #78, #301, #150 ) ) REPRESENTATION_CONTEXT ( 'NONE', 'WORKASPACE' ) );
#72 = LENGTH_MEASURE_WITH_UNIT ( LENGTH_MEASURE( 0.02539999999999999897 ), #76 );
#73 = PLANE ( 'NONE',  #289 ) ;
#74 = FILL_AREA_STYLE_COLOUR ( '', #232 ) ;
#75 = PLANE ( 'NONE',  #64 ) ;
#76 =( LENGTH_UNIT ( ) NAMED_UNIT ( * ) SI_UNIT ( $, .METRE. ) );
#77 = ORIENTED_EDGE ( 'NONE', *, *, #21, .T. ) ;
#78 =( CONVERSION_BASED_UNIT ( 'INCH', #192 ) LENGTH_UNIT ( ) NAMED_UNIT ( #218 ) );
#79 = COLOUR_RGB ( '',0.7921568627450980005, 0.8196078431372548767, 0.9333333333333333481 ) ;
#80 = EDGE_LOOP ( 'NONE', ( #271, #84, #194, #130 ) ) ;
#81 = AXIS2_PLACEMENT_3D ( 'NONE', #8, #266, #120 ) ;
#82 = CARTESIAN_POINT ( 'NONE',  ( 0.000000000000000000, 3.625000000000000444, 0.000000000000000000 ) ) ;
#83 = ADVANCED_FACE ( 'NONE', ( #231 ), #184, .F. ) ;
#84 = ORIENTED_EDGE ( 'NONE', *, *, #30, .T. ) ;
#85 = CARTESIAN_POINT ( 'NONE',  ( 0.000000000000000000, 0.000000000000000000, 0.000000000000000000 ) ) ;
#86 = EDGE_LOOP ( 'NONE', ( #241, #143 ) ) ;
#87 = AXIS2_PLACEMENT_3D ( 'NONE', #85, #252, #245 ) ;
#88 = DIRECTION ( 'NONE',  ( 1.000000000000000000, 0.000000000000000000, 0.000000000000000000 ) ) ;
#89 = CARTESIAN_POINT ( 'NONE',  ( 0.2500000000000000000, 6.000000000000000888, 3.061616997868385483E-17 ) ) ;
#90 = ADVANCED_FACE ( 'NONE', ( #133 ), #183, .T. ) ;
#91 = CLOSED_SHELL ( 'NONE', ( #163, #24, #90, #210 ) ) ;
#92 = DIRECTION ( 'NONE',  ( 0.000000000000000000, 0.000000000000000000, -1.000000000000000000 ) ) ;
#93 = CARTESIAN_POINT ( 'NONE',  ( 0.000000000000000000, 0.000000000000000000, 0.000000000000000000 ) ) ;
#94 = FACE_OUTER_BOUND ( 'NONE', #300, .T. ) ;
#95 = MECHANICAL_DESIGN_GEOMETRIC_PRESENTATION_REPRESENTATION (  '', ( #299 ), #71 ) ;
#96 =( CONVERSION_BASED_UNIT ( 'INCH', #72 ) LENGTH_UNIT ( ) NAMED_UNIT ( #126 ) );
#97 = VECTOR ( 'NONE', #187, 39.37007874015748143 ) ;
#98 = VERTEX_POINT ( 'NONE', #89 ) ;
#100 = EDGE_LOOP ( 'NONE', ( #191, #251 ) ) ;
#99 =( LENGTH_UNIT ( ) NAMED_UNIT ( * ) SI_UNIT ( $, .METRE. ) );
#101 = LENGTH_MEASURE_WITH_UNIT ( LENGTH_MEASURE( 0.02539999999999999897 ), #200 );
#102 = STYLED_ITEM ( 'NONE', ( #226 ), #24 ) ;
#103 = SURFACE_SIDE_STYLE ('',( #273 ) ) ;
#104 = UNCERTAINTY_MEASURE_WITH_UNIT (LENGTH_MEASURE( 1.000000000000000082E-05 ), #78, 'distance_accuracy_value', 'NONE');
#105 = DIRECTION ( 'NONE',  ( 0.000000000000000000, -0.000000000000000000, 1.000000000000000000 ) ) ;
#106 = EDGE_CURVE ( 'NONE', #18, #98, #22, .T. ) ;
#107 =( CONVERSION_BASED_UNIT ( 'INCH', #260 ) LENGTH_UNIT ( ) NAMED_UNIT ( #169 ) );
#108 = FILL_AREA_STYLE ('',( #172 ) ) ;
#109 = LENGTH_MEASURE_WITH_UNIT ( LENGTH_MEASURE( 0.02539999999999999897 ), #227 );
#110 = ORIENTED_EDGE ( 'NONE', *, *, #55, .T. ) ;
#111 = CIRCLE ( 'NONE', #276, 0.2500000000000000000 ) ;
#112 =( NAMED_UNIT ( * ) PLANE_ANGLE_UNIT ( ) SI_UNIT ( $, .RADIAN. ) );
#113 = DIRECTION ( 'NONE',  ( -1.031281515071455676E-16, 1.000000000000000000, 0.000000000000000000 ) ) ;
#114 = PRODUCT_DEFINITION_CONTEXT ( 'detailed design', #308, 'design' ) ;
#115 = VECTOR ( 'NONE', #149, 39.37007874015748143 ) ;
#116 = EDGE_CURVE ( 'NONE', #33, #146, #282, .T. ) ;
#117 = AXIS2_PLACEMENT_3D ( 'NONE', #159, #309, #88 ) ;
#118 = DIRECTION ( 'NONE',  ( -0.000000000000000000, -1.000000000000000000, -0.000000000000000000 ) ) ;
#119 = CIRCLE ( 'NONE', #87, 0.2500000000000000000 ) ;
#120 = DIRECTION ( 'NONE',  ( -1.000000000000000000, 0.000000000000000000, 0.000000000000000000 ) ) ;
#121 = MECHANICAL_DESIGN_GEOMETRIC_PRESENTATION_REPRESENTATION (  '', ( #102 ), #170 ) ;
#122 = ADVANCED_FACE ( 'NONE', ( #29 ), #140, .T. ) ;
#123 = CARTESIAN_POINT ( 'NONE',  ( 0.000000000000000000, 0.000000000000000000, -0.2500000000000000000 ) ) ;
#124 = AXIS2_PLACEMENT_3D ( 'NONE', #298, #156, #148 ) ;
#125 = VERTEX_POINT ( 'NONE', #123 ) ;
#126 = DIMENSIONAL_EXPONENTS ( 1.000000000000000000, 0.000000000000000000, 0.000000000000000000, 0.000000000000000000, 0.000000000000000000, 0.000000000000000000, 0.000000000000000000 ) ;
#127 = CARTESIAN_POINT ( 'NONE',  ( 3.061616997868383018E-17, 3.625000000000000444, 0.2500000000000000000 ) ) ;
#128 = ORIENTED_EDGE ( 'NONE', *, *, #55, .F. ) ;
#129 = AXIS2_PLACEMENT_3D ( 'NONE', #284, #113, #158 ) ;
#130 = ORIENTED_EDGE ( 'NONE', *, *, #188, .F. ) ;
#131 = CARTESIAN_POINT ( 'NONE',  ( 0.000000000000000000, 3.625000000000000444, -0.2500000000000000000 ) ) ;
#132 = ORIENTED_EDGE ( 'NONE', *, *, #219, .F. ) ;
#133 = FACE_OUTER_BOUND ( 'NONE', #80, .T. ) ;
#134 = DIRECTION ( 'NONE',  ( 0.000000000000000000, 0.000000000000000000, -1.000000000000000000 ) ) ;
#135 = CIRCLE ( 'NONE', #259, 0.2500000000000002220 ) ;
#136 = ADVANCED_FACE ( 'NONE', ( #94 ), #73, .F. ) ;
#137 = FILL_AREA_STYLE_COLOUR ( '', #190 ) ;
#138 = STYLED_ITEM ( 'NONE', ( #225 ), #43 ) ;
#139 =( NAMED_UNIT ( * ) PLANE_ANGLE_UNIT ( ) SI_UNIT ( $, .RADIAN. ) );
#140 = CYLINDRICAL_SURFACE ( 'NONE', #81, 0.2500000000000001110 ) ;
#141 = EDGE_CURVE ( 'NONE', #306, #220, #32, .T. ) ;
#142 = SURFACE_STYLE_USAGE ( .BOTH. , #267 ) ;
#143 = ORIENTED_EDGE ( 'NONE', *, *, #30, .F. ) ;
#144 = SURFACE_SIDE_STYLE ('',( #167 ) ) ;
#145 =( NAMED_UNIT ( * ) PLANE_ANGLE_UNIT ( ) SI_UNIT ( $, .RADIAN. ) );
#146 = VERTEX_POINT ( 'NONE', #236 ) ;
#147 = DIRECTION ( 'NONE',  ( 0.000000000000000000, 0.000000000000000000, -1.000000000000000000 ) ) ;
#148 = DIRECTION ( 'NONE',  ( 0.000000000000000000, 0.000000000000000000, -1.000000000000000000 ) ) ;
#149 = DIRECTION ( 'NONE',  ( -1.031281515071455676E-16, 1.000000000000000000, -0.000000000000000000 ) ) ;
#150 =( NAMED_UNIT ( * ) SI_UNIT ( $, .STERADIAN. ) SOLID_ANGLE_UNIT ( ) );
#151 = ORIENTED_EDGE ( 'NONE', *, *, #9, .F. ) ;
#152 = APPLICATION_PROTOCOL_DEFINITION ( 'draft international standard', 'automotive_design', 1998, #68 ) ;
#153 = LINE ( 'NONE', #14, #115 ) ;
#154 = VECTOR ( 'NONE', #189, 39.37007874015748143 ) ;
#155 = DIRECTION ( 'NONE',  ( 0.000000000000000000, 1.000000000000000000, 0.000000000000000000 ) ) ;
#156 = DIRECTION ( 'NONE',  ( 0.000000000000000000, -1.000000000000000000, -0.000000000000000000 ) ) ;
#157 = DIRECTION ( 'NONE',  ( -0.000000000000000000, -1.000000000000000000, -0.000000000000000000 ) ) ;
#158 = DIRECTION ( 'NONE',  ( -1.000000000000000000, -1.031281515071455676E-16, 0.000000000000000000 ) ) ;
#159 = CARTESIAN_POINT ( 'NONE',  ( 0.000000000000000000, 0.000000000000000000, 0.000000000000000000 ) ) ;
#160 = COLOUR_RGB ( '',1.000000000000000000, 0.000000000000000000, 0.000000000000000000 ) ;
#161 = EDGE_CURVE ( 'NONE', #146, #98, #207, .T. ) ;
#162 = CARTESIAN_POINT ( 'NONE',  ( 0.000000000000000000, 0.000000000000000000, 0.000000000000000000 ) ) ;
#163 = ADVANCED_FACE ( 'NONE', ( #7 ), #235, .T. ) ;
#164 = LENGTH_MEASURE_WITH_UNIT ( LENGTH_MEASURE( 0.02539999999999999897 ), #47 );
#165 =( NAMED_UNIT ( * ) SI_UNIT ( $, .STERADIAN. ) SOLID_ANGLE_UNIT ( ) );
#166 =( NAMED_UNIT ( * ) PLANE_ANGLE_UNIT ( ) SI_UNIT ( $, .RADIAN. ) );
#167 = SURFACE_STYLE_FILL_AREA ( #15 ) ;
#168 = ORIENTED_EDGE ( 'NONE', *, *, #161, .F. ) ;
#169 = DIMENSIONAL_EXPONENTS ( 1.000000000000000000, 0.000000000000000000, 0.000000000000000000, 0.000000000000000000, 0.000000000000000000, 0.000000000000000000, 0.000000000000000000 ) ;
#170 =( GEOMETRIC_REPRESENTATION_CONTEXT ( 3 ) GLOBAL_UNCERTAINTY_ASSIGNED_CONTEXT ( ( #297 ) ) GLOBAL_UNIT_ASSIGNED_CONTEXT ( ( #38, #244, #280 ) ) REPRESENTATION_CONTEXT ( 'NONE', 'WORKASPACE' ) );
#171 =( NAMED_UNIT ( * ) PLANE_ANGLE_UNIT ( ) SI_UNIT ( $, .RADIAN. ) );
#172 = FILL_AREA_STYLE_COLOUR ( '', #26 ) ;
#173 = ORIENTED_EDGE ( 'NONE', *, *, #161, .T. ) ;
#174 = CARTESIAN_POINT ( 'NONE',  ( 0.000000000000000000, 3.625000000000000444, 0.000000000000000000 ) ) ;
#175 = ORIENTED_EDGE ( 'NONE', *, *, #106, .F. ) ;
#176 = EDGE_LOOP ( 'NONE', ( #57, #173, #175, #151 ) ) ;
#177 = CIRCLE ( 'NONE', #261, 0.2500000000000000000 ) ;
#178 = DIMENSIONAL_EXPONENTS ( 1.000000000000000000, 0.000000000000000000, 0.000000000000000000, 0.000000000000000000, 0.000000000000000000, 0.000000000000000000, 0.000000000000000000 ) ;
#179 = ADVANCED_BREP_SHAPE_REPRESENTATION ( '83438', ( #43, #52, #117 ), #302 ) ;
#180 = PRESENTATION_STYLE_ASSIGNMENT (( #199 ) ) ;
#181 = DIMENSIONAL_EXPONENTS ( 1.000000000000000000, 0.000000000000000000, 0.000000000000000000, 0.000000000000000000, 0.000000000000000000, 0.000000000000000000, 0.000000000000000000 ) ;
#182 =( NAMED_UNIT ( * ) SI_UNIT ( $, .STERADIAN. ) SOLID_ANGLE_UNIT ( ) );
#183 = CYLINDRICAL_SURFACE ( 'NONE', #185, 0.2500000000000000000 ) ;
#184 = PLANE ( 'NONE',  #129 ) ;
#185 = AXIS2_PLACEMENT_3D ( 'NONE', #162, #157, #134 ) ;
#186 = SURFACE_STYLE_FILL_AREA ( #11 ) ;
#187 = DIRECTION ( 'NONE',  ( -0.000000000000000000, -1.000000000000000000, -0.000000000000000000 ) ) ;
#188 = EDGE_CURVE ( 'NONE', #220, #125, #177, .T. ) ;
#189 = DIRECTION ( 'NONE',  ( -1.031281515071455676E-16, 1.000000000000000000, -0.000000000000000000 ) ) ;
#190 = COLOUR_RGB ( '',1.000000000000000000, 0.000000000000000000, 0.000000000000000000 ) ;
#191 = ORIENTED_EDGE ( 'NONE', *, *, #219, .T. ) ;
#192 = LENGTH_MEASURE_WITH_UNIT ( LENGTH_MEASURE( 0.02539999999999999897 ), #304 );
#193 = CARTESIAN_POINT ( 'NONE',  ( 0.000000000000000000, 3.625000000000000444, 0.000000000000000000 ) ) ;
#194 = ORIENTED_EDGE ( 'NONE', *, *, #197, .T. ) ;
#195 = PRESENTATION_STYLE_ASSIGNMENT (( #242 ) ) ;
#196 =( NAMED_UNIT ( * ) SI_UNIT ( $, .STERADIAN. ) SOLID_ANGLE_UNIT ( ) );
#197 = EDGE_CURVE ( 'NONE', #40, #125, #69, .T. ) ;
#198 = ORIENTED_EDGE ( 'NONE', *, *, #3, .T. ) ;
#199 = SURFACE_STYLE_USAGE ( .BOTH. , #230 ) ;
#200 =( LENGTH_UNIT ( ) NAMED_UNIT ( * ) SI_UNIT ( $, .METRE. ) );
#201 = ADVANCED_FACE ( 'NONE', ( #290 ), #6, .T. ) ;
#202 = UNCERTAINTY_MEASURE_WITH_UNIT (LENGTH_MEASURE( 1.000000000000000082E-05 ), #96, 'distance_accuracy_value', 'NONE');
#203 = FILL_AREA_STYLE ('',( #67 ) ) ;
#204 =( GEOMETRIC_REPRESENTATION_CONTEXT ( 3 ) GLOBAL_UNCERTAINTY_ASSIGNED_CONTEXT ( ( #229 ) ) GLOBAL_UNIT_ASSIGNED_CONTEXT ( ( #58, #171, #221 ) ) REPRESENTATION_CONTEXT ( 'NONE', 'WORKASPACE' ) );
#205 =( LENGTH_UNIT ( ) NAMED_UNIT ( * ) SI_UNIT ( $, .METRE. ) );
#206 = FACE_OUTER_BOUND ( 'NONE', #100, .T. ) ;
#207 = LINE ( 'NONE', #295, #154 ) ;
#208 = AXIS2_PLACEMENT_3D ( 'NONE', #174, #36, #147 ) ;
#209 = AXIS2_PLACEMENT_3D ( 'NONE', #93, #53, #54 ) ;
#210 = ADVANCED_FACE ( 'NONE', ( #206 ), #1, .T. ) ;
#211 = PRESENTATION_STYLE_ASSIGNMENT (( #234 ) ) ;
#212 = CARTESIAN_POINT ( 'NONE',  ( 0.2500000000000000000, 6.000000000000000888, 0.000000000000000000 ) ) ;
#213 =( GEOMETRIC_REPRESENTATION_CONTEXT ( 3 ) GLOBAL_UNCERTAINTY_ASSIGNED_CONTEXT ( ( #253 ) ) GLOBAL_UNIT_ASSIGNED_CONTEXT ( ( #107, #145, #196 ) ) REPRESENTATION_CONTEXT ( 'NONE', 'WORKASPACE' ) );
#214 = DIRECTION ( 'NONE',  ( -0.000000000000000000, -1.000000000000000000, -0.000000000000000000 ) ) ;
#215 = ORIENTED_EDGE ( 'NONE', *, *, #197, .F. ) ;
#216 = SURFACE_STYLE_USAGE ( .BOTH. , #305 ) ;
#217 = PRODUCT ( '83438', '83438', '', ( #48 ) ) ;
#218 = DIMENSIONAL_EXPONENTS ( 1.000000000000000000, 0.000000000000000000, 0.000000000000000000, 0.000000000000000000, 0.000000000000000000, 0.000000000000000000, 0.000000000000000000 ) ;
#219 = EDGE_CURVE ( 'NONE', #125, #220, #119, .T. ) ;
#220 = VERTEX_POINT ( 'NONE', #20 ) ;
#221 =( NAMED_UNIT ( * ) SI_UNIT ( $, .STERADIAN. ) SOLID_ANGLE_UNIT ( ) );
#222 = CARTESIAN_POINT ( 'NONE',  ( -0.2500000000000004996, 6.000000000000000888, 0.000000000000000000 ) ) ;
#223 = AXIS2_PLACEMENT_3D ( 'NONE', #70, #293, #31 ) ;
#224 = CARTESIAN_POINT ( 'NONE',  ( 0.000000000000000000, 3.625000000000000444, 0.000000000000000000 ) ) ;
#225 = PRESENTATION_STYLE_ASSIGNMENT (( #216 ) ) ;
#226 = PRESENTATION_STYLE_ASSIGNMENT (( #17 ) ) ;
#227 =( LENGTH_UNIT ( ) NAMED_UNIT ( * ) SI_UNIT ( $, .METRE. ) );
#228 = MECHANICAL_DESIGN_GEOMETRIC_PRESENTATION_REPRESENTATION (  '', ( #138 ), #204 ) ;
#229 = UNCERTAINTY_MEASURE_WITH_UNIT (LENGTH_MEASURE( 1.000000000000000082E-05 ), #58, 'distance_accuracy_value', 'NONE');
#230 = SURFACE_SIDE_STYLE ('',( #281 ) ) ;
#231 = FACE_OUTER_BOUND ( 'NONE', #63, .T. ) ;
#232 = COLOUR_RGB ( '',0.7921568627450980005, 0.8196078431372548767, 0.9333333333333333481 ) ;
#233 = STYLED_ITEM ( 'NONE', ( #238 ), #163 ) ;
#234 = SURFACE_STYLE_USAGE ( .BOTH. , #4 ) ;
#235 = CYLINDRICAL_SURFACE ( 'NONE', #209, 0.2500000000000000000 ) ;
#236 = CARTESIAN_POINT ( 'NONE',  ( 0.2500000000000000000, 3.625000000000000444, 3.061616997868385483E-17 ) ) ;
#237 = CLOSED_SHELL ( 'NONE', ( #201, #83, #122, #136 ) ) ;
#238 = PRESENTATION_STYLE_ASSIGNMENT (( #142 ) ) ;
#239 = DIRECTION ( 'NONE',  ( 1.031281515071455676E-16, -1.000000000000000000, 0.000000000000000000 ) ) ;
#240 = AXIS2_PLACEMENT_3D ( 'NONE', #193, #294, #257 ) ;
#241 = ORIENTED_EDGE ( 'NONE', *, *, #3, .F. ) ;
#242 = SURFACE_STYLE_USAGE ( .BOTH. , #144 ) ;
#243 = DIRECTION ( 'NONE',  ( -1.031281515071455799E-16, 1.000000000000000000, -0.000000000000000000 ) ) ;
#244 =( NAMED_UNIT ( * ) PLANE_ANGLE_UNIT ( ) SI_UNIT ( $, .RADIAN. ) );
#245 = DIRECTION ( 'NONE',  ( 0.000000000000000000, 0.000000000000000000, -1.000000000000000000 ) ) ;
#246 = ORIENTED_EDGE ( 'NONE', *, *, #21, .F. ) ;
#248 = EDGE_LOOP ( 'NONE', ( #168, #110, #303, #246 ) ) ;
#247 =( CONVERSION_BASED_UNIT ( 'INCH', #62 ) LENGTH_UNIT ( ) NAMED_UNIT ( #255 ) );
#249 = PRESENTATION_LAYER_ASSIGNMENT (  '', '', ( #2 ) ) ;
#250 = FILL_AREA_STYLE_COLOUR ( '', #79 ) ;
#251 = ORIENTED_EDGE ( 'NONE', *, *, #188, .T. ) ;
#252 = DIRECTION ( 'NONE',  ( -0.000000000000000000, -1.000000000000000000, -0.000000000000000000 ) ) ;
#253 = UNCERTAINTY_MEASURE_WITH_UNIT (LENGTH_MEASURE( 1.000000000000000082E-05 ), #107, 'distance_accuracy_value', 'NONE');
#254 = PRODUCT_DEFINITION_SHAPE ( 'NONE', 'NONE',  #61 ) ;
#255 = DIMENSIONAL_EXPONENTS ( 1.000000000000000000, 0.000000000000000000, 0.000000000000000000, 0.000000000000000000, 0.000000000000000000, 0.000000000000000000, 0.000000000000000000 ) ;
#256 = SHAPE_DEFINITION_REPRESENTATION ( #254, #179 ) ;
#257 = DIRECTION ( 'NONE',  ( -1.000000000000000000, 0.000000000000000000, 0.000000000000000000 ) ) ;
#258 = DIRECTION ( 'NONE',  ( -1.031281515071455799E-16, 1.000000000000000000, -0.000000000000000000 ) ) ;
#259 = AXIS2_PLACEMENT_3D ( 'NONE', #275, #243, #35 ) ;
#260 = LENGTH_MEASURE_WITH_UNIT ( LENGTH_MEASURE( 0.02539999999999999897 ), #205 );
#261 = AXIS2_PLACEMENT_3D ( 'NONE', #25, #118, #92 ) ;
#262 =( NAMED_UNIT ( * ) SI_UNIT ( $, .STERADIAN. ) SOLID_ANGLE_UNIT ( ) );
#263 = CARTESIAN_POINT ( 'NONE',  ( 0.000000000000000000, 0.000000000000000000, -0.2500000000000000000 ) ) ;
#264 = CIRCLE ( 'NONE', #240, 0.2500000000000000000 ) ;
#265 = MECHANICAL_DESIGN_GEOMETRIC_PRESENTATION_REPRESENTATION (  '', ( #277 ), #213 ) ;
#266 = DIRECTION ( 'NONE',  ( -1.031281515071455799E-16, 1.000000000000000000, -0.000000000000000000 ) ) ;
#267 = SURFACE_SIDE_STYLE ('',( #186 ) ) ;
#268 = UNCERTAINTY_MEASURE_WITH_UNIT (LENGTH_MEASURE( 1.000000000000000082E-05 ), #247, 'distance_accuracy_value', 'NONE');
#269 = CARTESIAN_POINT ( 'NONE',  ( -0.2500000000000000000, 3.625000000000000444, 0.000000000000000000 ) ) ;
#270 = COLOUR_RGB ( '',1.000000000000000000, 0.000000000000000000, 0.000000000000000000 ) ;
#271 = ORIENTED_EDGE ( 'NONE', *, *, #141, .F. ) ;
#272 = SURFACE_STYLE_FILL_AREA ( #274 ) ;
#273 = SURFACE_STYLE_FILL_AREA ( #108 ) ;
#274 = FILL_AREA_STYLE ('',( #250 ) ) ;
#275 = CARTESIAN_POINT ( 'NONE',  ( -2.449293598294707400E-16, 6.000000000000000888, 0.000000000000000000 ) ) ;
#276 = AXIS2_PLACEMENT_3D ( 'NONE', #224, #42, #60 ) ;
#277 = STYLED_ITEM ( 'NONE', ( #211 ), #210 ) ;
#278 =( CONVERSION_BASED_UNIT ( 'INCH', #101 ) LENGTH_UNIT ( ) NAMED_UNIT ( #181 ) );
#279 = APPLICATION_PROTOCOL_DEFINITION ( 'draft international standard', 'automotive_design', 1998, #308 ) ;
#280 =( NAMED_UNIT ( * ) SI_UNIT ( $, .STERADIAN. ) SOLID_ANGLE_UNIT ( ) );
#281 = SURFACE_STYLE_FILL_AREA ( #203 ) ;
#282 = CIRCLE ( 'NONE', #223, 0.2500000000000000000 ) ;
#283 = UNCERTAINTY_MEASURE_WITH_UNIT (LENGTH_MEASURE( 1.000000000000000082E-05 ), #278, 'distance_accuracy_value', 'NONE');
#284 = CARTESIAN_POINT ( 'NONE',  ( 1.329426954160096669E-33, 3.625000000000000444, 0.000000000000000000 ) ) ;
#285 = FILL_AREA_STYLE_COLOUR ( '', #160 ) ;
#286 = CARTESIAN_POINT ( 'NONE',  ( -2.449293598294707400E-16, 6.000000000000000888, 0.000000000000000000 ) ) ;
#287 = DIRECTION ( 'NONE',  ( -1.031281515071455799E-16, 1.000000000000000000, -0.000000000000000000 ) ) ;
#288 = DIRECTION ( 'NONE',  ( -1.000000000000000000, 0.000000000000000000, 0.000000000000000000 ) ) ;
#289 = AXIS2_PLACEMENT_3D ( 'NONE', #212, #239, #56 ) ;
#290 = FACE_OUTER_BOUND ( 'NONE', #176, .T. ) ;
#291 = CIRCLE ( 'NONE', #208, 0.2500000000000000000 ) ;
#292 = MECHANICAL_DESIGN_GEOMETRIC_PRESENTATION_REPRESENTATION (  '', ( #233 ), #28 ) ;
#293 = DIRECTION ( 'NONE',  ( -1.031281515071455799E-16, 1.000000000000000000, -0.000000000000000000 ) ) ;
#294 = DIRECTION ( 'NONE',  ( -1.031281515071455799E-16, 1.000000000000000000, -0.000000000000000000 ) ) ;
#295 = CARTESIAN_POINT ( 'NONE',  ( 0.2499999999999998890, 6.000000000000000888, 3.061616997868384251E-17 ) ) ;
#296 = ORIENTED_EDGE ( 'NONE', *, *, #116, .F. ) ;
#297 = UNCERTAINTY_MEASURE_WITH_UNIT (LENGTH_MEASURE( 1.000000000000000082E-05 ), #38, 'distance_accuracy_value', 'NONE');
#298 = CARTESIAN_POINT ( 'NONE',  ( 0.000000000000000000, 0.000000000000000000, 0.000000000000000000 ) ) ;
#299 = STYLED_ITEM ( 'NONE', ( #195 ), #52 ) ;
#300 = EDGE_LOOP ( 'NONE', ( #13, #77 ) ) ;
#301 =( NAMED_UNIT ( * ) PLANE_ANGLE_UNIT ( ) SI_UNIT ( $, .RADIAN. ) );
#302 =( GEOMETRIC_REPRESENTATION_CONTEXT ( 3 ) GLOBAL_UNCERTAINTY_ASSIGNED_CONTEXT ( ( #283 ) ) GLOBAL_UNIT_ASSIGNED_CONTEXT ( ( #278, #112, #182 ) ) REPRESENTATION_CONTEXT ( 'NONE', 'WORKASPACE' ) );
#303 = ORIENTED_EDGE ( 'NONE', *, *, #9, .T. ) ;
#304 =( LENGTH_UNIT ( ) NAMED_UNIT ( * ) SI_UNIT ( $, .METRE. ) );
#305 = SURFACE_SIDE_STYLE ('',( #272 ) ) ;
#306 = VERTEX_POINT ( 'NONE', #127 ) ;
#307 = DIMENSIONAL_EXPONENTS ( 1.000000000000000000, 0.000000000000000000, 0.000000000000000000, 0.000000000000000000, 0.000000000000000000, 0.000000000000000000, 0.000000000000000000 ) ;
#308 = APPLICATION_CONTEXT ( 'automotive_design' ) ;
#309 = DIRECTION ( 'NONE',  ( 0.000000000000000000, 0.000000000000000000, 1.000000000000000000 ) ) ;
ENDSEC;
END-ISO-10303-21;
