ISO-10303-21;
HEADER;
FILE_DESCRIPTION (( 'STEP AP214' ),
    '1' );
FILE_NAME ('30332W.STEP',
    '2023-06-22T18:20:24',
    ( '' ),
    ( '' ),
    'SwSTEP 2.0',
    'SolidWorks 2023',
    '' );
FILE_SCHEMA (( 'AUTOMOTIVE_DESIGN' ));
ENDSEC;

DATA;
#1 = CARTESIAN_POINT ( 'NONE',  ( 0.1875000000000000278, 0.8749999999999997780, 2.296212748401288650E-17 ) ) ;
#2 =( GEOMETRIC_REPRESENTATION_CONTEXT ( 3 ) GLOBAL_UNCERTAINTY_ASSIGNED_CONTEXT ( ( #94 ) ) GLOBAL_UNIT_ASSIGNED_CONTEXT ( ( #125, #71, #122 ) ) REPRESENTATION_CONTEXT ( 'NONE', 'WORKASPACE' ) );
#3 = ADVANCED_FACE ( 'NONE', ( #66 ), #196, .F. ) ;
#4 = FILL_AREA_STYLE ('',( #223 ) ) ;
#5 = CLOSED_SHELL ( 'NONE', ( #286, #306, #284, #3 ) ) ;
#6 = EDGE_CURVE ( 'NONE', #144, #168, #64, .T. ) ;
#7 = EDGE_LOOP ( 'NONE', ( #268, #124 ) ) ;
#8 = CARTESIAN_POINT ( 'NONE',  ( -1.224646799147353700E-16, 3.000000000000000444, 0.000000000000000000 ) ) ;
#9 =( GEOMETRIC_REPRESENTATION_CONTEXT ( 3 ) GLOBAL_UNCERTAINTY_ASSIGNED_CONTEXT ( ( #220 ) ) GLOBAL_UNIT_ASSIGNED_CONTEXT ( ( #221, #73, #172 ) ) REPRESENTATION_CONTEXT ( 'NONE', 'WORKASPACE' ) );
#10 = DIRECTION ( 'NONE',  ( 1.000000000000000000, 5.763043760693429322E-17, 0.000000000000000000 ) ) ;
#11 = EDGE_LOOP ( 'NONE', ( #307, #234 ) ) ;
#12 = UNCERTAINTY_MEASURE_WITH_UNIT (LENGTH_MEASURE( 1.000000000000000082E-05 ), #135, 'distance_accuracy_value', 'NONE');
#13 = FILL_AREA_STYLE ('',( #210 ) ) ;
#14 = DIRECTION ( 'NONE',  ( 0.000000000000000000, 0.000000000000000000, 1.000000000000000000 ) ) ;
#15 = CIRCLE ( 'NONE', #56, 0.1875000000000000278 ) ;
#16 = DIRECTION ( 'NONE',  ( -5.763043760693429322E-17, 1.000000000000000000, -0.000000000000000000 ) ) ;
#17 = ADVANCED_FACE ( 'NONE', ( #88 ), #304, .T. ) ;
#18 = PRODUCT ( '30332W', '30332W', '', ( #237 ) ) ;
#19 = ORIENTED_EDGE ( 'NONE', *, *, #256, .T. ) ;
#20 = SHAPE_DEFINITION_REPRESENTATION ( #45, #54 ) ;
#21 = DIRECTION ( 'NONE',  ( -5.763043760693429322E-17, 1.000000000000000000, -0.000000000000000000 ) ) ;
#22 = PRESENTATION_LAYER_ASSIGNMENT (  '', '', ( #137 ) ) ;
#23 = COLOUR_RGB ( '',1.000000000000000000, 0.000000000000000000, 0.000000000000000000 ) ;
#24 = AXIS2_PLACEMENT_3D ( 'NONE', #258, #14, #145 ) ;
#25 = DIMENSIONAL_EXPONENTS ( 1.000000000000000000, 0.000000000000000000, 0.000000000000000000, 0.000000000000000000, 0.000000000000000000, 0.000000000000000000, 0.000000000000000000 ) ;
#26 =( LENGTH_UNIT ( ) NAMED_UNIT ( * ) SI_UNIT ( $, .METRE. ) );
#27 = DIMENSIONAL_EXPONENTS ( 1.000000000000000000, 0.000000000000000000, 0.000000000000000000, 0.000000000000000000, 0.000000000000000000, 0.000000000000000000, 0.000000000000000000 ) ;
#28 =( LENGTH_UNIT ( ) NAMED_UNIT ( * ) SI_UNIT ( $, .METRE. ) );
#29 = EDGE_CURVE ( 'NONE', #293, #294, #105, .T. ) ;
#30 = PLANE ( 'NONE',  #171 ) ;
#31 = ORIENTED_EDGE ( 'NONE', *, *, #62, .T. ) ;
#32 = PRESENTATION_STYLE_ASSIGNMENT (( #97 ) ) ;
#33 = VECTOR ( 'NONE', #159, 39.37007874015748143 ) ;
#34 =( NAMED_UNIT ( * ) SI_UNIT ( $, .STERADIAN. ) SOLID_ANGLE_UNIT ( ) );
#35 = DIRECTION ( 'NONE',  ( -5.763043760693429322E-17, 1.000000000000000000, -0.000000000000000000 ) ) ;
#36 = AXIS2_PLACEMENT_3D ( 'NONE', #249, #35, #269 ) ;
#37 = ORIENTED_EDGE ( 'NONE', *, *, #86, .F. ) ;
#38 = LENGTH_MEASURE_WITH_UNIT ( LENGTH_MEASURE( 0.02539999999999999897 ), #84 );
#39 =( NAMED_UNIT ( * ) SI_UNIT ( $, .STERADIAN. ) SOLID_ANGLE_UNIT ( ) );
#40 = EDGE_LOOP ( 'NONE', ( #107, #59 ) ) ;
#41 = EDGE_CURVE ( 'NONE', #79, #63, #93, .T. ) ;
#42 = CARTESIAN_POINT ( 'NONE',  ( 0.1875000000000000278, 3.000000000000000444, 2.296212748401288650E-17 ) ) ;
#43 = CIRCLE ( 'NONE', #191, 0.1875000000000000278 ) ;
#44 = CARTESIAN_POINT ( 'NONE',  ( 0.1875000000000000278, 3.000000000000000444, 0.000000000000000000 ) ) ;
#45 = PRODUCT_DEFINITION_SHAPE ( 'NONE', 'NONE',  #131 ) ;
#46 =( LENGTH_UNIT ( ) NAMED_UNIT ( * ) SI_UNIT ( $, .METRE. ) );
#47 = PRODUCT_DEFINITION_FORMATION_WITH_SPECIFIED_SOURCE ( 'ANY', '', #18, .NOT_KNOWN. ) ;
#48 = EDGE_CURVE ( 'NONE', #283, #63, #302, .T. ) ;
#49 = SURFACE_STYLE_USAGE ( .BOTH. , #239 ) ;
#50 =( NAMED_UNIT ( * ) PLANE_ANGLE_UNIT ( ) SI_UNIT ( $, .RADIAN. ) );
#51 = DIRECTION ( 'NONE',  ( -5.763043760693429322E-17, 1.000000000000000000, -0.000000000000000000 ) ) ;
#52 = COLOUR_RGB ( '',1.000000000000000000, 0.000000000000000000, 0.000000000000000000 ) ;
#53 = DIRECTION ( 'NONE',  ( -5.763043760693429322E-17, 1.000000000000000000, -0.000000000000000000 ) ) ;
#54 = ADVANCED_BREP_SHAPE_REPRESENTATION ( '30332W', ( #75, #185, #24 ), #2 ) ;
#55 = DIMENSIONAL_EXPONENTS ( 1.000000000000000000, 0.000000000000000000, 0.000000000000000000, 0.000000000000000000, 0.000000000000000000, 0.000000000000000000, 0.000000000000000000 ) ;
#56 = AXIS2_PLACEMENT_3D ( 'NONE', #103, #218, #177 ) ;
#57 =( GEOMETRIC_REPRESENTATION_CONTEXT ( 3 ) GLOBAL_UNCERTAINTY_ASSIGNED_CONTEXT ( ( #309 ) ) GLOBAL_UNIT_ASSIGNED_CONTEXT ( ( #150, #50, #104 ) ) REPRESENTATION_CONTEXT ( 'NONE', 'WORKASPACE' ) );
#58 = CARTESIAN_POINT ( 'NONE',  ( 2.296212748401287726E-17, 0.000000000000000000, 0.1875000000000000278 ) ) ;
#59 = ORIENTED_EDGE ( 'NONE', *, *, #6, .F. ) ;
#60 = PLANE ( 'NONE',  #253 ) ;
#61 = CARTESIAN_POINT ( 'NONE',  ( 0.000000000000000000, 0.8750000000000000000, 0.000000000000000000 ) ) ;
#62 = EDGE_CURVE ( 'NONE', #79, #205, #15, .T. ) ;
#63 = VERTEX_POINT ( 'NONE', #288 ) ;
#64 = CIRCLE ( 'NONE', #113, 0.1875000000000000278 ) ;
#65 = STYLED_ITEM ( 'NONE', ( #101 ), #185 ) ;
#66 = FACE_OUTER_BOUND ( 'NONE', #7, .T. ) ;
#67 = PLANE ( 'NONE',  #270 ) ;
#68 = DIRECTION ( 'NONE',  ( -0.000000000000000000, -1.000000000000000000, -0.000000000000000000 ) ) ;
#69 = AXIS2_PLACEMENT_3D ( 'NONE', #102, #76, #240 ) ;
#70 = EDGE_LOOP ( 'NONE', ( #243, #204, #141, #248 ) ) ;
#71 =( NAMED_UNIT ( * ) PLANE_ANGLE_UNIT ( ) SI_UNIT ( $, .RADIAN. ) );
#72 = UNCERTAINTY_MEASURE_WITH_UNIT (LENGTH_MEASURE( 1.000000000000000082E-05 ), #140, 'distance_accuracy_value', 'NONE');
#73 =( NAMED_UNIT ( * ) PLANE_ANGLE_UNIT ( ) SI_UNIT ( $, .RADIAN. ) );
#74 = SURFACE_SIDE_STYLE ('',( #146 ) ) ;
#75 = MANIFOLD_SOLID_BREP ( 'Revolve - Cutting Edge', #265 ) ;
#76 = DIRECTION ( 'NONE',  ( -0.000000000000000000, -1.000000000000000000, -0.000000000000000000 ) ) ;
#77 = MECHANICAL_DESIGN_GEOMETRIC_PRESENTATION_REPRESENTATION (  '', ( #189 ), #83 ) ;
#78 = SURFACE_STYLE_USAGE ( .BOTH. , #291 ) ;
#79 = VERTEX_POINT ( 'NONE', #123 ) ;
#80 = FACE_OUTER_BOUND ( 'NONE', #121, .T. ) ;
#81 = ADVANCED_FACE ( 'NONE', ( #166 ), #289, .T. ) ;
#82 = CARTESIAN_POINT ( 'NONE',  ( 2.296212748401287726E-17, 0.000000000000000000, 0.1875000000000000278 ) ) ;
#83 =( GEOMETRIC_REPRESENTATION_CONTEXT ( 3 ) GLOBAL_UNCERTAINTY_ASSIGNED_CONTEXT ( ( #72 ) ) GLOBAL_UNIT_ASSIGNED_CONTEXT ( ( #140, #272, #295 ) ) REPRESENTATION_CONTEXT ( 'NONE', 'WORKASPACE' ) );
#84 =( LENGTH_UNIT ( ) NAMED_UNIT ( * ) SI_UNIT ( $, .METRE. ) );
#85 = ORIENTED_EDGE ( 'NONE', *, *, #41, .F. ) ;
#86 = EDGE_CURVE ( 'NONE', #63, #283, #222, .T. ) ;
#87 =( LENGTH_UNIT ( ) NAMED_UNIT ( * ) SI_UNIT ( $, .METRE. ) );
#88 = FACE_OUTER_BOUND ( 'NONE', #156, .T. ) ;
#89 = SURFACE_SIDE_STYLE ('',( #297 ) ) ;
#90 = LENGTH_MEASURE_WITH_UNIT ( LENGTH_MEASURE( 0.02539999999999999897 ), #46 );
#91 =( GEOMETRIC_REPRESENTATION_CONTEXT ( 3 ) GLOBAL_UNCERTAINTY_ASSIGNED_CONTEXT ( ( #100 ) ) GLOBAL_UNIT_ASSIGNED_CONTEXT ( ( #112, #126, #250 ) ) REPRESENTATION_CONTEXT ( 'NONE', 'WORKASPACE' ) );
#92 = DIRECTION ( 'NONE',  ( -5.763043760693429322E-17, 1.000000000000000000, -0.000000000000000000 ) ) ;
#93 = LINE ( 'NONE', #281, #224 ) ;
#94 = UNCERTAINTY_MEASURE_WITH_UNIT (LENGTH_MEASURE( 1.000000000000000082E-05 ), #125, 'distance_accuracy_value', 'NONE');
#95 = FILL_AREA_STYLE ('',( #215 ) ) ;
#96 = ORIENTED_EDGE ( 'NONE', *, *, #231, .F. ) ;
#97 = SURFACE_STYLE_USAGE ( .BOTH. , #217 ) ;
#98 = PRESENTATION_LAYER_ASSIGNMENT (  '', '', ( #65 ) ) ;
#99 = APPLICATION_CONTEXT ( 'automotive_design' ) ;
#100 = UNCERTAINTY_MEASURE_WITH_UNIT (LENGTH_MEASURE( 1.000000000000000082E-05 ), #112, 'distance_accuracy_value', 'NONE');
#101 = PRESENTATION_STYLE_ASSIGNMENT (( #49 ) ) ;
#102 = CARTESIAN_POINT ( 'NONE',  ( 0.000000000000000000, 0.000000000000000000, 0.000000000000000000 ) ) ;
#103 = CARTESIAN_POINT ( 'NONE',  ( 0.000000000000000000, 0.8750000000000000000, 0.000000000000000000 ) ) ;
#104 =( NAMED_UNIT ( * ) SI_UNIT ( $, .STERADIAN. ) SOLID_ANGLE_UNIT ( ) );
#105 = CIRCLE ( 'NONE', #147, 0.1875000000000001388 ) ;
#106 = PRESENTATION_LAYER_ASSIGNMENT (  '', '', ( #282 ) ) ;
#107 = ORIENTED_EDGE ( 'NONE', *, *, #301, .F. ) ;
#108 = LINE ( 'NONE', #58, #33 ) ;
#109 = FILL_AREA_STYLE ('',( #111 ) ) ;
#110 = ORIENTED_EDGE ( 'NONE', *, *, #214, .F. ) ;
#111 = FILL_AREA_STYLE_COLOUR ( '', #52 ) ;
#112 =( CONVERSION_BASED_UNIT ( 'INCH', #90 ) LENGTH_UNIT ( ) NAMED_UNIT ( #182 ) );
#113 = AXIS2_PLACEMENT_3D ( 'NONE', #193, #92, #216 ) ;
#114 = MECHANICAL_DESIGN_GEOMETRIC_PRESENTATION_REPRESENTATION (  '', ( #65 ), #57 ) ;
#115 = DIRECTION ( 'NONE',  ( -5.763043760693429322E-17, 1.000000000000000000, -0.000000000000000000 ) ) ;
#116 = SURFACE_SIDE_STYLE ('',( #138 ) ) ;
#117 = DIRECTION ( 'NONE',  ( 0.000000000000000000, 0.000000000000000000, -1.000000000000000000 ) ) ;
#118 = LENGTH_MEASURE_WITH_UNIT ( LENGTH_MEASURE( 0.02539999999999999897 ), #163 );
#119 = COLOUR_RGB ( '',1.000000000000000000, 0.000000000000000000, 0.000000000000000000 ) ;
#120 = UNCERTAINTY_MEASURE_WITH_UNIT (LENGTH_MEASURE( 1.000000000000000082E-05 ), #299, 'distance_accuracy_value', 'NONE');
#121 = EDGE_LOOP ( 'NONE', ( #208, #96 ) ) ;
#122 =( NAMED_UNIT ( * ) SI_UNIT ( $, .STERADIAN. ) SOLID_ANGLE_UNIT ( ) );
#123 = CARTESIAN_POINT ( 'NONE',  ( 0.000000000000000000, 0.8750000000000000000, -0.1875000000000000278 ) ) ;
#124 = ORIENTED_EDGE ( 'NONE', *, *, #29, .T. ) ;
#125 =( CONVERSION_BASED_UNIT ( 'INCH', #165 ) LENGTH_UNIT ( ) NAMED_UNIT ( #25 ) );
#126 =( NAMED_UNIT ( * ) PLANE_ANGLE_UNIT ( ) SI_UNIT ( $, .RADIAN. ) );
#127 = CARTESIAN_POINT ( 'NONE',  ( 0.000000000000000000, 0.000000000000000000, 0.000000000000000000 ) ) ;
#128 = DIRECTION ( 'NONE',  ( -0.000000000000000000, -1.000000000000000000, -0.000000000000000000 ) ) ;
#129 = PRESENTATION_LAYER_ASSIGNMENT (  '', '', ( #189 ) ) ;
#130 = CARTESIAN_POINT ( 'NONE',  ( -0.1875000000000002220, 3.000000000000000444, 0.000000000000000000 ) ) ;
#131 = PRODUCT_DEFINITION ( 'UNKNOWN', '', #47, #285 ) ;
#132 = FILL_AREA_STYLE ('',( #200 ) ) ;
#133 = CARTESIAN_POINT ( 'NONE',  ( 0.000000000000000000, 0.000000000000000000, 0.000000000000000000 ) ) ;
#134 = APPLICATION_CONTEXT ( 'automotive_design' ) ;
#135 =( CONVERSION_BASED_UNIT ( 'INCH', #188 ) LENGTH_UNIT ( ) NAMED_UNIT ( #55 ) );
#136 = FACE_OUTER_BOUND ( 'NONE', #236, .T. ) ;
#137 = STYLED_ITEM ( 'NONE', ( #187 ), #17 ) ;
#138 = SURFACE_STYLE_FILL_AREA ( #13 ) ;
#139 = VECTOR ( 'NONE', #211, 39.37007874015748143 ) ;
#140 =( CONVERSION_BASED_UNIT ( 'INCH', #38 ) LENGTH_UNIT ( ) NAMED_UNIT ( #287 ) );
#141 = ORIENTED_EDGE ( 'NONE', *, *, #183, .T. ) ;
#142 = ORIENTED_EDGE ( 'NONE', *, *, #48, .F. ) ;
#143 =( LENGTH_UNIT ( ) NAMED_UNIT ( * ) SI_UNIT ( $, .METRE. ) );
#144 = VERTEX_POINT ( 'NONE', #1 ) ;
#145 = DIRECTION ( 'NONE',  ( 1.000000000000000000, 0.000000000000000000, 0.000000000000000000 ) ) ;
#146 = SURFACE_STYLE_FILL_AREA ( #263 ) ;
#147 = AXIS2_PLACEMENT_3D ( 'NONE', #235, #16, #305 ) ;
#148 = DIRECTION ( 'NONE',  ( -0.000000000000000000, -1.000000000000000000, -0.000000000000000000 ) ) ;
#149 = SURFACE_STYLE_FILL_AREA ( #4 ) ;
#150 =( CONVERSION_BASED_UNIT ( 'INCH', #175 ) LENGTH_UNIT ( ) NAMED_UNIT ( #27 ) );
#151 = COLOUR_RGB ( '',1.000000000000000000, 0.000000000000000000, 0.000000000000000000 ) ;
#152 = STYLED_ITEM ( 'NONE', ( #32 ), #81 ) ;
#153 = DIRECTION ( 'NONE',  ( -1.000000000000000000, 0.000000000000000000, 0.000000000000000000 ) ) ;
#154 = CARTESIAN_POINT ( 'NONE',  ( -0.1875000000000000278, 0.8749999999999997780, 0.000000000000000000 ) ) ;
#155 = AXIS2_PLACEMENT_3D ( 'NONE', #238, #21, #300 ) ;
#156 = EDGE_LOOP ( 'NONE', ( #31, #232, #37, #85 ) ) ;
#157 = DIRECTION ( 'NONE',  ( 0.000000000000000000, 0.000000000000000000, -1.000000000000000000 ) ) ;
#158 = DIRECTION ( 'NONE',  ( 0.000000000000000000, -0.000000000000000000, 1.000000000000000000 ) ) ;
#159 = DIRECTION ( 'NONE',  ( -0.000000000000000000, -1.000000000000000000, -0.000000000000000000 ) ) ;
#160 =( GEOMETRIC_REPRESENTATION_CONTEXT ( 3 ) GLOBAL_UNCERTAINTY_ASSIGNED_CONTEXT ( ( #120 ) ) GLOBAL_UNIT_ASSIGNED_CONTEXT ( ( #299, #190, #39 ) ) REPRESENTATION_CONTEXT ( 'NONE', 'WORKASPACE' ) );
#161 = EDGE_LOOP ( 'NONE', ( #167, #206, #180, #142 ) ) ;
#162 = COLOUR_RGB ( '',0.7921568627450980005, 0.8196078431372548767, 0.9333333333333333481 ) ;
#163 =( LENGTH_UNIT ( ) NAMED_UNIT ( * ) SI_UNIT ( $, .METRE. ) );
#164 = CARTESIAN_POINT ( 'NONE',  ( 0.000000000000000000, 0.000000000000000000, 0.000000000000000000 ) ) ;
#165 = LENGTH_MEASURE_WITH_UNIT ( LENGTH_MEASURE( 0.02539999999999999897 ), #143 );
#166 = FACE_OUTER_BOUND ( 'NONE', #161, .T. ) ;
#167 = ORIENTED_EDGE ( 'NONE', *, *, #271, .F. ) ;
#168 = VERTEX_POINT ( 'NONE', #154 ) ;
#169 = APPLICATION_PROTOCOL_DEFINITION ( 'draft international standard', 'automotive_design', 1998, #99 ) ;
#170 = AXIS2_PLACEMENT_3D ( 'NONE', #164, #254, #251 ) ;
#171 = AXIS2_PLACEMENT_3D ( 'NONE', #133, #181, #117 ) ;
#172 =( NAMED_UNIT ( * ) SI_UNIT ( $, .STERADIAN. ) SOLID_ANGLE_UNIT ( ) );
#173 = PRODUCT_RELATED_PRODUCT_CATEGORY ( 'part', '', ( #18 ) ) ;
#174 = FILL_AREA_STYLE_COLOUR ( '', #213 ) ;
#175 = LENGTH_MEASURE_WITH_UNIT ( LENGTH_MEASURE( 0.02539999999999999897 ), #28 );
#176 = LENGTH_MEASURE_WITH_UNIT ( LENGTH_MEASURE( 0.02539999999999999897 ), #26 );
#177 = DIRECTION ( 'NONE',  ( 0.000000000000000000, 0.000000000000000000, -1.000000000000000000 ) ) ;
#178 = DIMENSIONAL_EXPONENTS ( 1.000000000000000000, 0.000000000000000000, 0.000000000000000000, 0.000000000000000000, 0.000000000000000000, 0.000000000000000000, 0.000000000000000000 ) ;
#179 = PRESENTATION_STYLE_ASSIGNMENT (( #78 ) ) ;
#180 = ORIENTED_EDGE ( 'NONE', *, *, #41, .T. ) ;
#181 = DIRECTION ( 'NONE',  ( 0.000000000000000000, -1.000000000000000000, -0.000000000000000000 ) ) ;
#182 = DIMENSIONAL_EXPONENTS ( 1.000000000000000000, 0.000000000000000000, 0.000000000000000000, 0.000000000000000000, 0.000000000000000000, 0.000000000000000000, 0.000000000000000000 ) ;
#183 = EDGE_CURVE ( 'NONE', #168, #294, #264, .T. ) ;
#184 = CYLINDRICAL_SURFACE ( 'NONE', #36, 0.1875000000000000833 ) ;
#185 = MANIFOLD_SOLID_BREP ( 'Revolve - Tool Body (Straight Shanked)', #5 ) ;
#186 = LINE ( 'NONE', #228, #139 ) ;
#187 = PRESENTATION_STYLE_ASSIGNMENT (( #298 ) ) ;
#188 = LENGTH_MEASURE_WITH_UNIT ( LENGTH_MEASURE( 0.02539999999999999897 ), #87 );
#189 = STYLED_ITEM ( 'NONE', ( #227 ), #278 ) ;
#190 =( NAMED_UNIT ( * ) PLANE_ANGLE_UNIT ( ) SI_UNIT ( $, .RADIAN. ) );
#191 = AXIS2_PLACEMENT_3D ( 'NONE', #274, #233, #157 ) ;
#192 = DIRECTION ( 'NONE',  ( -1.000000000000000000, -5.763043760693429322E-17, 0.000000000000000000 ) ) ;
#193 = CARTESIAN_POINT ( 'NONE',  ( 1.516480271171051896E-32, 0.8749999999999997780, 0.000000000000000000 ) ) ;
#194 = DIRECTION ( 'NONE',  ( -5.763043760693429322E-17, 1.000000000000000000, 0.000000000000000000 ) ) ;
#195 = SURFACE_STYLE_FILL_AREA ( #95 ) ;
#196 = PLANE ( 'NONE',  #275 ) ;
#197 = MECHANICAL_DESIGN_GEOMETRIC_PRESENTATION_REPRESENTATION (  '', ( #282 ), #259 ) ;
#198 = DIRECTION ( 'NONE',  ( 0.000000000000000000, 0.000000000000000000, -1.000000000000000000 ) ) ;
#199 = CARTESIAN_POINT ( 'NONE',  ( -0.1875000000000002776, 3.000000000000000444, 0.000000000000000000 ) ) ;
#200 = FILL_AREA_STYLE_COLOUR ( '', #162 ) ;
#201 = DIRECTION ( 'NONE',  ( 0.000000000000000000, 0.000000000000000000, -1.000000000000000000 ) ) ;
#202 = CARTESIAN_POINT ( 'NONE',  ( 2.296212748401287726E-17, 0.8750000000000000000, 0.1875000000000000278 ) ) ;
#203 = AXIS2_PLACEMENT_3D ( 'NONE', #127, #128, #201 ) ;
#204 = ORIENTED_EDGE ( 'NONE', *, *, #6, .T. ) ;
#205 = VERTEX_POINT ( 'NONE', #202 ) ;
#206 = ORIENTED_EDGE ( 'NONE', *, *, #231, .T. ) ;
#207 = MECHANICAL_DESIGN_GEOMETRIC_PRESENTATION_REPRESENTATION (  '', ( #247 ), #91 ) ;
#208 = ORIENTED_EDGE ( 'NONE', *, *, #62, .F. ) ;
#209 = DIRECTION ( 'NONE',  ( -1.000000000000000000, 0.000000000000000000, 0.000000000000000000 ) ) ;
#210 = FILL_AREA_STYLE_COLOUR ( '', #151 ) ;
#211 = DIRECTION ( 'NONE',  ( -5.763043760693429322E-17, 1.000000000000000000, -0.000000000000000000 ) ) ;
#212 = AXIS2_PLACEMENT_3D ( 'NONE', #290, #148, #198 ) ;
#213 = COLOUR_RGB ( '',0.7921568627450980005, 0.8196078431372548767, 0.9333333333333333481 ) ;
#214 = EDGE_CURVE ( 'NONE', #294, #293, #219, .T. ) ;
#215 = FILL_AREA_STYLE_COLOUR ( '', #23 ) ;
#216 = DIRECTION ( 'NONE',  ( -1.000000000000000000, 0.000000000000000000, 0.000000000000000000 ) ) ;
#217 = SURFACE_SIDE_STYLE ('',( #195 ) ) ;
#218 = DIRECTION ( 'NONE',  ( -0.000000000000000000, -1.000000000000000000, -0.000000000000000000 ) ) ;
#219 = CIRCLE ( 'NONE', #266, 0.1875000000000001388 ) ;
#220 = UNCERTAINTY_MEASURE_WITH_UNIT (LENGTH_MEASURE( 1.000000000000000082E-05 ), #221, 'distance_accuracy_value', 'NONE');
#221 =( CONVERSION_BASED_UNIT ( 'INCH', #176 ) LENGTH_UNIT ( ) NAMED_UNIT ( #178 ) );
#222 = CIRCLE ( 'NONE', #203, 0.1875000000000000278 ) ;
#223 = FILL_AREA_STYLE_COLOUR ( '', #119 ) ;
#224 = VECTOR ( 'NONE', #68, 39.37007874015748143 ) ;
#225 = AXIS2_PLACEMENT_3D ( 'NONE', #8, #115, #209 ) ;
#226 = ADVANCED_FACE ( 'NONE', ( #242 ), #30, .T. ) ;
#227 = PRESENTATION_STYLE_ASSIGNMENT (( #244 ) ) ;
#228 = CARTESIAN_POINT ( 'NONE',  ( 0.1874999999999999445, 3.000000000000000444, 2.296212748401288342E-17 ) ) ;
#229 = CYLINDRICAL_SURFACE ( 'NONE', #225, 0.1875000000000000833 ) ;
#230 = MECHANICAL_DESIGN_GEOMETRIC_PRESENTATION_REPRESENTATION (  '', ( #152 ), #9 ) ;
#231 = EDGE_CURVE ( 'NONE', #205, #79, #43, .T. ) ;
#232 = ORIENTED_EDGE ( 'NONE', *, *, #271, .T. ) ;
#233 = DIRECTION ( 'NONE',  ( -0.000000000000000000, -1.000000000000000000, -0.000000000000000000 ) ) ;
#234 = ORIENTED_EDGE ( 'NONE', *, *, #48, .T. ) ;
#235 = CARTESIAN_POINT ( 'NONE',  ( -1.224646799147353700E-16, 3.000000000000000444, 0.000000000000000000 ) ) ;
#236 = EDGE_LOOP ( 'NONE', ( #279, #19, #110, #292 ) ) ;
#237 = PRODUCT_CONTEXT ( 'NONE', #99, 'mechanical' ) ;
#238 = CARTESIAN_POINT ( 'NONE',  ( 1.516480271171051896E-32, 0.8749999999999997780, 0.000000000000000000 ) ) ;
#239 = SURFACE_SIDE_STYLE ('',( #262 ) ) ;
#240 = DIRECTION ( 'NONE',  ( 0.000000000000000000, 0.000000000000000000, -1.000000000000000000 ) ) ;
#241 = VECTOR ( 'NONE', #51, 39.37007874015748143 ) ;
#242 = FACE_OUTER_BOUND ( 'NONE', #11, .T. ) ;
#243 = ORIENTED_EDGE ( 'NONE', *, *, #256, .F. ) ;
#244 = SURFACE_STYLE_USAGE ( .BOTH. , #89 ) ;
#245 = FACE_OUTER_BOUND ( 'NONE', #70, .T. ) ;
#246 = DIRECTION ( 'NONE',  ( 0.000000000000000000, 1.000000000000000000, 0.000000000000000000 ) ) ;
#247 = STYLED_ITEM ( 'NONE', ( #257 ), #75 ) ;
#248 = ORIENTED_EDGE ( 'NONE', *, *, #29, .F. ) ;
#249 = CARTESIAN_POINT ( 'NONE',  ( -1.224646799147353700E-16, 3.000000000000000444, 0.000000000000000000 ) ) ;
#250 =( NAMED_UNIT ( * ) SI_UNIT ( $, .STERADIAN. ) SOLID_ANGLE_UNIT ( ) );
#251 = DIRECTION ( 'NONE',  ( 0.000000000000000000, 0.000000000000000000, -1.000000000000000000 ) ) ;
#252 = APPLICATION_PROTOCOL_DEFINITION ( 'draft international standard', 'automotive_design', 1998, #134 ) ;
#253 = AXIS2_PLACEMENT_3D ( 'NONE', #61, #246, #158 ) ;
#254 = DIRECTION ( 'NONE',  ( -0.000000000000000000, -1.000000000000000000, -0.000000000000000000 ) ) ;
#255 = CARTESIAN_POINT ( 'NONE',  ( 3.113688130093824870E-34, 0.8750000000000000000, 0.000000000000000000 ) ) ;
#256 = EDGE_CURVE ( 'NONE', #144, #293, #186, .T. ) ;
#257 = PRESENTATION_STYLE_ASSIGNMENT (( #261 ) ) ;
#258 = CARTESIAN_POINT ( 'NONE',  ( 0.000000000000000000, 0.000000000000000000, 0.000000000000000000 ) ) ;
#259 =( GEOMETRIC_REPRESENTATION_CONTEXT ( 3 ) GLOBAL_UNCERTAINTY_ASSIGNED_CONTEXT ( ( #12 ) ) GLOBAL_UNIT_ASSIGNED_CONTEXT ( ( #135, #273, #34 ) ) REPRESENTATION_CONTEXT ( 'NONE', 'WORKASPACE' ) );
#260 = DIMENSIONAL_EXPONENTS ( 1.000000000000000000, 0.000000000000000000, 0.000000000000000000, 0.000000000000000000, 0.000000000000000000, 0.000000000000000000, 0.000000000000000000 ) ;
#261 = SURFACE_STYLE_USAGE ( .BOTH. , #74 ) ;
#262 = SURFACE_STYLE_FILL_AREA ( #132 ) ;
#263 = FILL_AREA_STYLE ('',( #174 ) ) ;
#264 = LINE ( 'NONE', #130, #241 ) ;
#265 = CLOSED_SHELL ( 'NONE', ( #17, #278, #81, #226 ) ) ;
#266 = AXIS2_PLACEMENT_3D ( 'NONE', #267, #53, #153 ) ;
#267 = CARTESIAN_POINT ( 'NONE',  ( -1.224646799147353700E-16, 3.000000000000000444, 0.000000000000000000 ) ) ;
#268 = ORIENTED_EDGE ( 'NONE', *, *, #214, .T. ) ;
#269 = DIRECTION ( 'NONE',  ( -1.000000000000000000, 0.000000000000000000, 0.000000000000000000 ) ) ;
#270 = AXIS2_PLACEMENT_3D ( 'NONE', #255, #194, #192 ) ;
#271 = EDGE_CURVE ( 'NONE', #205, #283, #108, .T. ) ;
#272 =( NAMED_UNIT ( * ) PLANE_ANGLE_UNIT ( ) SI_UNIT ( $, .RADIAN. ) );
#273 =( NAMED_UNIT ( * ) PLANE_ANGLE_UNIT ( ) SI_UNIT ( $, .RADIAN. ) );
#274 = CARTESIAN_POINT ( 'NONE',  ( 0.000000000000000000, 0.8750000000000000000, 0.000000000000000000 ) ) ;
#275 = AXIS2_PLACEMENT_3D ( 'NONE', #44, #277, #10 ) ;
#276 = PRESENTATION_LAYER_ASSIGNMENT (  '', '', ( #247 ) ) ;
#277 = DIRECTION ( 'NONE',  ( 5.763043760693429322E-17, -1.000000000000000000, 0.000000000000000000 ) ) ;
#278 = ADVANCED_FACE ( 'NONE', ( #80 ), #60, .T. ) ;
#279 = ORIENTED_EDGE ( 'NONE', *, *, #301, .T. ) ;
#280 = FACE_OUTER_BOUND ( 'NONE', #40, .T. ) ;
#281 = CARTESIAN_POINT ( 'NONE',  ( 0.000000000000000000, 0.000000000000000000, -0.1875000000000000278 ) ) ;
#282 = STYLED_ITEM ( 'NONE', ( #179 ), #226 ) ;
#283 = VERTEX_POINT ( 'NONE', #82 ) ;
#284 = ADVANCED_FACE ( 'NONE', ( #245 ), #184, .T. ) ;
#285 = PRODUCT_DEFINITION_CONTEXT ( 'detailed design', #134, 'design' ) ;
#286 = ADVANCED_FACE ( 'NONE', ( #136 ), #229, .T. ) ;
#287 = DIMENSIONAL_EXPONENTS ( 1.000000000000000000, 0.000000000000000000, 0.000000000000000000, 0.000000000000000000, 0.000000000000000000, 0.000000000000000000, 0.000000000000000000 ) ;
#288 = CARTESIAN_POINT ( 'NONE',  ( 0.000000000000000000, 0.000000000000000000, -0.1875000000000000278 ) ) ;
#289 = CYLINDRICAL_SURFACE ( 'NONE', #69, 0.1875000000000000278 ) ;
#290 = CARTESIAN_POINT ( 'NONE',  ( 0.000000000000000000, 0.000000000000000000, 0.000000000000000000 ) ) ;
#291 = SURFACE_SIDE_STYLE ('',( #149 ) ) ;
#292 = ORIENTED_EDGE ( 'NONE', *, *, #183, .F. ) ;
#293 = VERTEX_POINT ( 'NONE', #42 ) ;
#294 = VERTEX_POINT ( 'NONE', #199 ) ;
#295 =( NAMED_UNIT ( * ) SI_UNIT ( $, .STERADIAN. ) SOLID_ANGLE_UNIT ( ) );
#296 = PRESENTATION_LAYER_ASSIGNMENT (  '', '', ( #152 ) ) ;
#297 = SURFACE_STYLE_FILL_AREA ( #109 ) ;
#298 = SURFACE_STYLE_USAGE ( .BOTH. , #116 ) ;
#299 =( CONVERSION_BASED_UNIT ( 'INCH', #118 ) LENGTH_UNIT ( ) NAMED_UNIT ( #260 ) );
#300 = DIRECTION ( 'NONE',  ( -1.000000000000000000, 0.000000000000000000, 0.000000000000000000 ) ) ;
#301 = EDGE_CURVE ( 'NONE', #168, #144, #303, .T. ) ;
#302 = CIRCLE ( 'NONE', #212, 0.1875000000000000278 ) ;
#303 = CIRCLE ( 'NONE', #155, 0.1875000000000000278 ) ;
#304 = CYLINDRICAL_SURFACE ( 'NONE', #170, 0.1875000000000000278 ) ;
#305 = DIRECTION ( 'NONE',  ( -1.000000000000000000, 0.000000000000000000, 0.000000000000000000 ) ) ;
#306 = ADVANCED_FACE ( 'NONE', ( #280 ), #67, .F. ) ;
#307 = ORIENTED_EDGE ( 'NONE', *, *, #86, .T. ) ;
#308 = MECHANICAL_DESIGN_GEOMETRIC_PRESENTATION_REPRESENTATION (  '', ( #137 ), #160 ) ;
#309 = UNCERTAINTY_MEASURE_WITH_UNIT (LENGTH_MEASURE( 1.000000000000000082E-05 ), #150, 'distance_accuracy_value', 'NONE');
ENDSEC;
END-ISO-10303-21;
