ISO-10303-21;
HEADER;
FILE_DESCRIPTION (( 'STEP AP214' ),
    '1' );
FILE_NAME ('24467.STEP',
    '2023-06-22T17:14:32',
    ( '' ),
    ( '' ),
    'SwSTEP 2.0',
    'SolidWorks 2023',
    '' );
FILE_SCHEMA (( 'AUTOMOTIVE_DESIGN' ));
ENDSEC;

DATA;
#1 = CARTESIAN_POINT ( 'NONE',  ( 0.000000000000000000, 0.000000000000000000, -0.3750000000000000555 ) ) ;
#2 = PRESENTATION_LAYER_ASSIGNMENT (  '', '', ( #226 ) ) ;
#3 = AXIS2_PLACEMENT_3D ( 'NONE', #129, #245, #271 ) ;
#4 = SURFACE_SIDE_STYLE ('',( #176 ) ) ;
#5 = CARTESIAN_POINT ( 'NONE',  ( 1.224646799147352714E-16, 3.000000000000000444, 0.000000000000000000 ) ) ;
#6 = DIRECTION ( 'NONE',  ( 6.123233995736763571E-17, 1.000000000000000000, -0.000000000000000000 ) ) ;
#7 = VERTEX_POINT ( 'NONE', #63 ) ;
#8 = FACE_OUTER_BOUND ( 'NONE', #13, .T. ) ;
#9 = ADVANCED_FACE ( 'NONE', ( #119 ), #307, .T. ) ;
#10 = CARTESIAN_POINT ( 'NONE',  ( 4.592425496802575451E-17, 0.000000000000000000, 0.3750000000000000555 ) ) ;
#11 = DIRECTION ( 'NONE',  ( 6.123233995736763571E-17, 1.000000000000000000, -0.000000000000000000 ) ) ;
#12 = EDGE_LOOP ( 'NONE', ( #253, #286, #270, #133 ) ) ;
#13 = EDGE_LOOP ( 'NONE', ( #82, #91 ) ) ;
#14 = EDGE_CURVE ( 'NONE', #7, #213, #261, .T. ) ;
#15 = DIRECTION ( 'NONE',  ( 0.000000000000000000, 0.000000000000000000, -1.000000000000000000 ) ) ;
#16 = ORIENTED_EDGE ( 'NONE', *, *, #206, .F. ) ;
#17 = PRESENTATION_LAYER_ASSIGNMENT (  '', '', ( #123 ) ) ;
#18 = DIMENSIONAL_EXPONENTS ( 1.000000000000000000, 0.000000000000000000, 0.000000000000000000, 0.000000000000000000, 0.000000000000000000, 0.000000000000000000, 0.000000000000000000 ) ;
#19 = MECHANICAL_DESIGN_GEOMETRIC_PRESENTATION_REPRESENTATION (  '', ( #238 ), #276 ) ;
#20 = PLANE ( 'NONE',  #281 ) ;
#21 = LINE ( 'NONE', #67, #295 ) ;
#22 =( NAMED_UNIT ( * ) PLANE_ANGLE_UNIT ( ) SI_UNIT ( $, .RADIAN. ) );
#23 = PRESENTATION_LAYER_ASSIGNMENT (  '', '', ( #114 ) ) ;
#24 = AXIS2_PLACEMENT_3D ( 'NONE', #103, #228, #268 ) ;
#25 = CARTESIAN_POINT ( 'NONE',  ( 0.000000000000000000, 1.000000000000000000, 0.000000000000000000 ) ) ;
#26 = EDGE_CURVE ( 'NONE', #7, #300, #266, .T. ) ;
#27 = CARTESIAN_POINT ( 'NONE',  ( 0.000000000000000000, 0.000000000000000000, -0.3750000000000000555 ) ) ;
#28 = SURFACE_STYLE_USAGE ( .BOTH. , #134 ) ;
#29 = VERTEX_POINT ( 'NONE', #225 ) ;
#30 = FILL_AREA_STYLE ('',( #44 ) ) ;
#31 = COLOUR_RGB ( '',0.7921568627450980005, 0.8196078431372548767, 0.9333333333333333481 ) ;
#32 =( CONVERSION_BASED_UNIT ( 'INCH', #127 ) LENGTH_UNIT ( ) NAMED_UNIT ( #108 ) );
#33 = EDGE_CURVE ( 'NONE', #124, #188, #48, .T. ) ;
#34 = CARTESIAN_POINT ( 'NONE',  ( 0.3750000000000000555, 3.000000000000000444, 0.000000000000000000 ) ) ;
#35 = CARTESIAN_POINT ( 'NONE',  ( 7.030123981227453260E-34, 1.000000000000000000, 0.000000000000000000 ) ) ;
#36 = DIRECTION ( 'NONE',  ( 6.123233995736763571E-17, 1.000000000000000000, -0.000000000000000000 ) ) ;
#37 = AXIS2_PLACEMENT_3D ( 'NONE', #289, #175, #154 ) ;
#38 = CARTESIAN_POINT ( 'NONE',  ( 1.224646799147352714E-16, 3.000000000000000444, 0.000000000000000000 ) ) ;
#39 = ADVANCED_BREP_SHAPE_REPRESENTATION ( '24467', ( #184, #66, #105 ), #87 ) ;
#40 = PRESENTATION_LAYER_ASSIGNMENT (  '', '', ( #167 ) ) ;
#41 = AXIS2_PLACEMENT_3D ( 'NONE', #47, #209, #297 ) ;
#42 = DIRECTION ( 'NONE',  ( 6.123233995736763571E-17, 1.000000000000000000, -0.000000000000000000 ) ) ;
#43 =( LENGTH_UNIT ( ) NAMED_UNIT ( * ) SI_UNIT ( $, .METRE. ) );
#44 = FILL_AREA_STYLE_COLOUR ( '', #248 ) ;
#45 = SURFACE_STYLE_FILL_AREA ( #222 ) ;
#46 =( NAMED_UNIT ( * ) SI_UNIT ( $, .STERADIAN. ) SOLID_ANGLE_UNIT ( ) );
#47 = CARTESIAN_POINT ( 'NONE',  ( 0.000000000000000000, 1.000000000000000000, 0.000000000000000000 ) ) ;
#48 = CIRCLE ( 'NONE', #165, 0.3750000000000000555 ) ;
#49 = EDGE_CURVE ( 'NONE', #124, #29, #131, .T. ) ;
#50 = ORIENTED_EDGE ( 'NONE', *, *, #49, .F. ) ;
#51 =( LENGTH_UNIT ( ) NAMED_UNIT ( * ) SI_UNIT ( $, .METRE. ) );
#52 = ORIENTED_EDGE ( 'NONE', *, *, #55, .T. ) ;
#53 = SURFACE_SIDE_STYLE ('',( #179 ) ) ;
#54 = ORIENTED_EDGE ( 'NONE', *, *, #26, .F. ) ;
#55 = EDGE_CURVE ( 'NONE', #96, #300, #230, .T. ) ;
#56 = SURFACE_STYLE_FILL_AREA ( #204 ) ;
#57 = VECTOR ( 'NONE', #6, 39.37007874015748143 ) ;
#58 = CARTESIAN_POINT ( 'NONE',  ( 0.000000000000000000, 0.000000000000000000, 0.000000000000000000 ) ) ;
#59 = DIMENSIONAL_EXPONENTS ( 1.000000000000000000, 0.000000000000000000, 0.000000000000000000, 0.000000000000000000, 0.000000000000000000, 0.000000000000000000, 0.000000000000000000 ) ;
#60 = AXIS2_PLACEMENT_3D ( 'NONE', #207, #252, #235 ) ;
#61 = LENGTH_MEASURE_WITH_UNIT ( LENGTH_MEASURE( 0.02539999999999999897 ), #125 );
#62 = DIRECTION ( 'NONE',  ( 1.000000000000000000, 0.000000000000000000, 0.000000000000000000 ) ) ;
#63 = CARTESIAN_POINT ( 'NONE',  ( 0.000000000000000000, 1.000000000000000000, -0.3750000000000000555 ) ) ;
#64 = DIRECTION ( 'NONE',  ( 0.000000000000000000, 0.000000000000000000, -1.000000000000000000 ) ) ;
#65 = CARTESIAN_POINT ( 'NONE',  ( 1.224646799147352714E-16, 3.000000000000000444, 0.000000000000000000 ) ) ;
#66 = MANIFOLD_SOLID_BREP ( 'Revolve - Tool Body (Straight Shanked)', #193 ) ;
#67 = CARTESIAN_POINT ( 'NONE',  ( 4.592425496802575451E-17, 0.000000000000000000, 0.3750000000000000555 ) ) ;
#68 = COLOUR_RGB ( '',1.000000000000000000, 0.000000000000000000, 0.000000000000000000 ) ;
#69 =( GEOMETRIC_REPRESENTATION_CONTEXT ( 3 ) GLOBAL_UNCERTAINTY_ASSIGNED_CONTEXT ( ( #144 ) ) GLOBAL_UNIT_ASSIGNED_CONTEXT ( ( #32, #246, #46 ) ) REPRESENTATION_CONTEXT ( 'NONE', 'WORKASPACE' ) );
#70 = DIRECTION ( 'NONE',  ( -1.000000000000000000, 0.000000000000000000, 0.000000000000000000 ) ) ;
#71 = SURFACE_STYLE_USAGE ( .BOTH. , #294 ) ;
#72 = PRESENTATION_STYLE_ASSIGNMENT (( #100 ) ) ;
#73 = APPLICATION_CONTEXT ( 'automotive_design' ) ;
#74 = DIRECTION ( 'NONE',  ( 6.123233995736763571E-17, 1.000000000000000000, -0.000000000000000000 ) ) ;
#75 = CIRCLE ( 'NONE', #86, 0.3749999999999998890 ) ;
#76 =( NAMED_UNIT ( * ) SI_UNIT ( $, .STERADIAN. ) SOLID_ANGLE_UNIT ( ) );
#77 = FACE_OUTER_BOUND ( 'NONE', #218, .T. ) ;
#78 = FACE_OUTER_BOUND ( 'NONE', #303, .T. ) ;
#79 = DIMENSIONAL_EXPONENTS ( 1.000000000000000000, 0.000000000000000000, 0.000000000000000000, 0.000000000000000000, 0.000000000000000000, 0.000000000000000000, 0.000000000000000000 ) ;
#80 = EDGE_LOOP ( 'NONE', ( #97, #52 ) ) ;
#81 =( GEOMETRIC_REPRESENTATION_CONTEXT ( 3 ) GLOBAL_UNCERTAINTY_ASSIGNED_CONTEXT ( ( #195 ) ) GLOBAL_UNIT_ASSIGNED_CONTEXT ( ( #116, #22, #220 ) ) REPRESENTATION_CONTEXT ( 'NONE', 'WORKASPACE' ) );
#82 = ORIENTED_EDGE ( 'NONE', *, *, #251, .T. ) ;
#83 = ORIENTED_EDGE ( 'NONE', *, *, #199, .F. ) ;
#84 = ADVANCED_FACE ( 'NONE', ( #78 ), #135, .F. ) ;
#85 = PRODUCT_DEFINITION_CONTEXT ( 'detailed design', #73, 'design' ) ;
#86 = AXIS2_PLACEMENT_3D ( 'NONE', #38, #11, #229 ) ;
#87 =( GEOMETRIC_REPRESENTATION_CONTEXT ( 3 ) GLOBAL_UNCERTAINTY_ASSIGNED_CONTEXT ( ( #280 ) ) GLOBAL_UNIT_ASSIGNED_CONTEXT ( ( #283, #201, #267 ) ) REPRESENTATION_CONTEXT ( 'NONE', 'WORKASPACE' ) );
#88 = EDGE_CURVE ( 'NONE', #183, #29, #75, .T. ) ;
#89 = UNCERTAINTY_MEASURE_WITH_UNIT (LENGTH_MEASURE( 1.000000000000000082E-05 ), #219, 'distance_accuracy_value', 'NONE');
#90 =( CONVERSION_BASED_UNIT ( 'INCH', #61 ) LENGTH_UNIT ( ) NAMED_UNIT ( #208 ) );
#91 = ORIENTED_EDGE ( 'NONE', *, *, #88, .T. ) ;
#92 =( GEOMETRIC_REPRESENTATION_CONTEXT ( 3 ) GLOBAL_UNCERTAINTY_ASSIGNED_CONTEXT ( ( #136 ) ) GLOBAL_UNIT_ASSIGNED_CONTEXT ( ( #278, #168, #214 ) ) REPRESENTATION_CONTEXT ( 'NONE', 'WORKASPACE' ) );
#93 = SURFACE_STYLE_USAGE ( .BOTH. , #217 ) ;
#94 = AXIS2_PLACEMENT_3D ( 'NONE', #194, #42, #305 ) ;
#95 = CARTESIAN_POINT ( 'NONE',  ( 0.000000000000000000, 0.000000000000000000, 0.000000000000000000 ) ) ;
#96 = VERTEX_POINT ( 'NONE', #10 ) ;
#97 = ORIENTED_EDGE ( 'NONE', *, *, #206, .T. ) ;
#98 = CIRCLE ( 'NONE', #41, 0.3750000000000000555 ) ;
#99 = ADVANCED_FACE ( 'NONE', ( #141 ), #106, .T. ) ;
#100 = SURFACE_STYLE_USAGE ( .BOTH. , #4 ) ;
#101 = DIRECTION ( 'NONE',  ( -6.123233995736763571E-17, -1.000000000000000000, 0.000000000000000000 ) ) ;
#102 = ORIENTED_EDGE ( 'NONE', *, *, #33, .F. ) ;
#103 = CARTESIAN_POINT ( 'NONE',  ( -3.032960542342103792E-32, 1.000000000000000000, 0.000000000000000000 ) ) ;
#104 =( GEOMETRIC_REPRESENTATION_CONTEXT ( 3 ) GLOBAL_UNCERTAINTY_ASSIGNED_CONTEXT ( ( #185 ) ) GLOBAL_UNIT_ASSIGNED_CONTEXT ( ( #90, #258, #237 ) ) REPRESENTATION_CONTEXT ( 'NONE', 'WORKASPACE' ) );
#105 = AXIS2_PLACEMENT_3D ( 'NONE', #120, #290, #62 ) ;
#106 = CYLINDRICAL_SURFACE ( 'NONE', #202, 0.3750000000000000555 ) ;
#107 = FILL_AREA_STYLE ('',( #211 ) ) ;
#108 = DIMENSIONAL_EXPONENTS ( 1.000000000000000000, 0.000000000000000000, 0.000000000000000000, 0.000000000000000000, 0.000000000000000000, 0.000000000000000000, 0.000000000000000000 ) ;
#109 = AXIS2_PLACEMENT_3D ( 'NONE', #65, #173, #198 ) ;
#110 = UNCERTAINTY_MEASURE_WITH_UNIT (LENGTH_MEASURE( 1.000000000000000082E-05 ), #180, 'distance_accuracy_value', 'NONE');
#111 = FILL_AREA_STYLE_COLOUR ( '', #182 ) ;
#112 = LENGTH_MEASURE_WITH_UNIT ( LENGTH_MEASURE( 0.02539999999999999897 ), #143 );
#113 = ADVANCED_FACE ( 'NONE', ( #164 ), #255, .T. ) ;
#114 = STYLED_ITEM ( 'NONE', ( #150 ), #147 ) ;
#115 = FACE_OUTER_BOUND ( 'NONE', #250, .T. ) ;
#116 =( CONVERSION_BASED_UNIT ( 'INCH', #121 ) LENGTH_UNIT ( ) NAMED_UNIT ( #79 ) );
#117 = PRODUCT_CONTEXT ( 'NONE', #264, 'mechanical' ) ;
#118 = CARTESIAN_POINT ( 'NONE',  ( -0.3750000000000000555, 1.000000000000000000, 0.000000000000000000 ) ) ;
#119 = FACE_OUTER_BOUND ( 'NONE', #262, .T. ) ;
#120 = CARTESIAN_POINT ( 'NONE',  ( 0.000000000000000000, 0.000000000000000000, 0.000000000000000000 ) ) ;
#121 = LENGTH_MEASURE_WITH_UNIT ( LENGTH_MEASURE( 0.02539999999999999897 ), #260 );
#122 = EDGE_CURVE ( 'NONE', #213, #96, #21, .T. ) ;
#123 = STYLED_ITEM ( 'NONE', ( #72 ), #293 ) ;
#124 = VERTEX_POINT ( 'NONE', #118 ) ;
#125 =( LENGTH_UNIT ( ) NAMED_UNIT ( * ) SI_UNIT ( $, .METRE. ) );
#126 = DIRECTION ( 'NONE',  ( -0.000000000000000000, -1.000000000000000000, -0.000000000000000000 ) ) ;
#127 = LENGTH_MEASURE_WITH_UNIT ( LENGTH_MEASURE( 0.02539999999999999897 ), #51 );
#128 = ORIENTED_EDGE ( 'NONE', *, *, #88, .F. ) ;
#129 = CARTESIAN_POINT ( 'NONE',  ( 0.000000000000000000, 0.000000000000000000, 0.000000000000000000 ) ) ;
#130 = MECHANICAL_DESIGN_GEOMETRIC_PRESENTATION_REPRESENTATION (  '', ( #114 ), #104 ) ;
#131 = LINE ( 'NONE', #274, #57 ) ;
#132 = DIRECTION ( 'NONE',  ( -1.000000000000000000, 0.000000000000000000, 0.000000000000000000 ) ) ;
#133 = ORIENTED_EDGE ( 'NONE', *, *, #55, .F. ) ;
#134 = SURFACE_SIDE_STYLE ('',( #158 ) ) ;
#135 = PLANE ( 'NONE',  #196 ) ;
#136 = UNCERTAINTY_MEASURE_WITH_UNIT (LENGTH_MEASURE( 1.000000000000000082E-05 ), #278, 'distance_accuracy_value', 'NONE');
#137 = STYLED_ITEM ( 'NONE', ( #162 ), #99 ) ;
#138 = VECTOR ( 'NONE', #205, 39.37007874015748143 ) ;
#139 = FILL_AREA_STYLE_COLOUR ( '', #31 ) ;
#140 = ORIENTED_EDGE ( 'NONE', *, *, #232, .F. ) ;
#141 = FACE_OUTER_BOUND ( 'NONE', #12, .T. ) ;
#142 = DIRECTION ( 'NONE',  ( -0.000000000000000000, -1.000000000000000000, -0.000000000000000000 ) ) ;
#143 =( LENGTH_UNIT ( ) NAMED_UNIT ( * ) SI_UNIT ( $, .METRE. ) );
#144 = UNCERTAINTY_MEASURE_WITH_UNIT (LENGTH_MEASURE( 1.000000000000000082E-05 ), #32, 'distance_accuracy_value', 'NONE');
#145 = DIRECTION ( 'NONE',  ( 0.000000000000000000, -0.000000000000000000, 1.000000000000000000 ) ) ;
#146 = DIRECTION ( 'NONE',  ( 0.000000000000000000, -1.000000000000000000, -0.000000000000000000 ) ) ;
#147 = ADVANCED_FACE ( 'NONE', ( #284 ), #20, .T. ) ;
#148 = FILL_AREA_STYLE ('',( #111 ) ) ;
#149 = PRODUCT ( '24467', '24467', '', ( #117 ) ) ;
#150 = PRESENTATION_STYLE_ASSIGNMENT (( #93 ) ) ;
#151 =( NAMED_UNIT ( * ) PLANE_ANGLE_UNIT ( ) SI_UNIT ( $, .RADIAN. ) );
#152 = CARTESIAN_POINT ( 'NONE',  ( 0.3750000000000000555, 1.000000000000000000, 4.592425496802574219E-17 ) ) ;
#153 = ADVANCED_FACE ( 'NONE', ( #115 ), #216, .T. ) ;
#154 = DIRECTION ( 'NONE',  ( 0.000000000000000000, 0.000000000000000000, -1.000000000000000000 ) ) ;
#155 = FILL_AREA_STYLE_COLOUR ( '', #277 ) ;
#156 = PRESENTATION_STYLE_ASSIGNMENT (( #71 ) ) ;
#157 = PRODUCT_DEFINITION_SHAPE ( 'NONE', 'NONE',  #239 ) ;
#158 = SURFACE_STYLE_FILL_AREA ( #30 ) ;
#159 = MECHANICAL_DESIGN_GEOMETRIC_PRESENTATION_REPRESENTATION (  '', ( #167 ), #69 ) ;
#160 =( LENGTH_UNIT ( ) NAMED_UNIT ( * ) SI_UNIT ( $, .METRE. ) );
#161 = CARTESIAN_POINT ( 'NONE',  ( 4.592425496802575451E-17, 1.000000000000000000, 0.3750000000000000555 ) ) ;
#162 = PRESENTATION_STYLE_ASSIGNMENT (( #298 ) ) ;
#163 = CLOSED_SHELL ( 'NONE', ( #293, #113, #99, #147 ) ) ;
#164 = FACE_OUTER_BOUND ( 'NONE', #234, .T. ) ;
#165 = AXIS2_PLACEMENT_3D ( 'NONE', #177, #36, #132 ) ;
#166 = MECHANICAL_DESIGN_GEOMETRIC_PRESENTATION_REPRESENTATION (  '', ( #123 ), #231 ) ;
#167 = STYLED_ITEM ( 'NONE', ( #227 ), #184 ) ;
#168 =( NAMED_UNIT ( * ) PLANE_ANGLE_UNIT ( ) SI_UNIT ( $, .RADIAN. ) );
#169 = SURFACE_STYLE_USAGE ( .BOTH. , #288 ) ;
#170 = ORIENTED_EDGE ( 'NONE', *, *, #251, .F. ) ;
#171 = APPLICATION_PROTOCOL_DEFINITION ( 'draft international standard', 'automotive_design', 1998, #73 ) ;
#172 = CARTESIAN_POINT ( 'NONE',  ( 0.3750000000000000555, 3.000000000000000444, 4.592425496802574219E-17 ) ) ;
#173 = DIRECTION ( 'NONE',  ( 6.123233995736763571E-17, 1.000000000000000000, -0.000000000000000000 ) ) ;
#174 = FILL_AREA_STYLE_COLOUR ( '', #68 ) ;
#175 = DIRECTION ( 'NONE',  ( -0.000000000000000000, -1.000000000000000000, -0.000000000000000000 ) ) ;
#176 = SURFACE_STYLE_FILL_AREA ( #273 ) ;
#177 = CARTESIAN_POINT ( 'NONE',  ( -3.032960542342103792E-32, 1.000000000000000000, 0.000000000000000000 ) ) ;
#178 = PLANE ( 'NONE',  #306 ) ;
#179 = SURFACE_STYLE_FILL_AREA ( #107 ) ;
#180 =( CONVERSION_BASED_UNIT ( 'INCH', #233 ) LENGTH_UNIT ( ) NAMED_UNIT ( #59 ) );
#181 = DIRECTION ( 'NONE',  ( 1.000000000000000000, -6.123233995736763571E-17, 0.000000000000000000 ) ) ;
#182 = COLOUR_RGB ( '',1.000000000000000000, 0.000000000000000000, 0.000000000000000000 ) ;
#183 = VERTEX_POINT ( 'NONE', #172 ) ;
#184 = MANIFOLD_SOLID_BREP ( 'Revolve - Cutting Edge', #163 ) ;
#185 = UNCERTAINTY_MEASURE_WITH_UNIT (LENGTH_MEASURE( 1.000000000000000082E-05 ), #90, 'distance_accuracy_value', 'NONE');
#186 = CYLINDRICAL_SURFACE ( 'NONE', #190, 0.3750000000000000555 ) ;
#187 = DIRECTION ( 'NONE',  ( -1.000000000000000000, 6.123233995736763571E-17, 0.000000000000000000 ) ) ;
#188 = VERTEX_POINT ( 'NONE', #152 ) ;
#189 = PRODUCT_RELATED_PRODUCT_CATEGORY ( 'part', '', ( #149 ) ) ;
#190 = AXIS2_PLACEMENT_3D ( 'NONE', #95, #302, #64 ) ;
#191 = DIMENSIONAL_EXPONENTS ( 1.000000000000000000, 0.000000000000000000, 0.000000000000000000, 0.000000000000000000, 0.000000000000000000, 0.000000000000000000, 0.000000000000000000 ) ;
#192 = DIMENSIONAL_EXPONENTS ( 1.000000000000000000, 0.000000000000000000, 0.000000000000000000, 0.000000000000000000, 0.000000000000000000, 0.000000000000000000, 0.000000000000000000 ) ;
#193 = CLOSED_SHELL ( 'NONE', ( #9, #84, #153, #256 ) ) ;
#194 = CARTESIAN_POINT ( 'NONE',  ( 1.224646799147352714E-16, 3.000000000000000444, 0.000000000000000000 ) ) ;
#195 = UNCERTAINTY_MEASURE_WITH_UNIT (LENGTH_MEASURE( 1.000000000000000082E-05 ), #116, 'distance_accuracy_value', 'NONE');
#196 = AXIS2_PLACEMENT_3D ( 'NONE', #35, #212, #187 ) ;
#197 = DIRECTION ( 'NONE',  ( 0.000000000000000000, 1.000000000000000000, 0.000000000000000000 ) ) ;
#198 = DIRECTION ( 'NONE',  ( -1.000000000000000000, 0.000000000000000000, 0.000000000000000000 ) ) ;
#199 = EDGE_CURVE ( 'NONE', #188, #183, #263, .T. ) ;
#200 = ORIENTED_EDGE ( 'NONE', *, *, #259, .F. ) ;
#201 =( NAMED_UNIT ( * ) PLANE_ANGLE_UNIT ( ) SI_UNIT ( $, .RADIAN. ) );
#202 = AXIS2_PLACEMENT_3D ( 'NONE', #58, #142, #15 ) ;
#203 = ORIENTED_EDGE ( 'NONE', *, *, #14, .T. ) ;
#204 = FILL_AREA_STYLE ('',( #139 ) ) ;
#205 = DIRECTION ( 'NONE',  ( 6.123233995736763571E-17, 1.000000000000000000, -0.000000000000000000 ) ) ;
#206 = EDGE_CURVE ( 'NONE', #300, #96, #285, .T. ) ;
#207 = CARTESIAN_POINT ( 'NONE',  ( 0.000000000000000000, 0.000000000000000000, 0.000000000000000000 ) ) ;
#208 = DIMENSIONAL_EXPONENTS ( 1.000000000000000000, 0.000000000000000000, 0.000000000000000000, 0.000000000000000000, 0.000000000000000000, 0.000000000000000000, 0.000000000000000000 ) ;
#209 = DIRECTION ( 'NONE',  ( -0.000000000000000000, -1.000000000000000000, -0.000000000000000000 ) ) ;
#210 = CIRCLE ( 'NONE', #296, 0.3749999999999998890 ) ;
#211 = FILL_AREA_STYLE_COLOUR ( '', #247 ) ;
#212 = DIRECTION ( 'NONE',  ( 6.123233995736763571E-17, 1.000000000000000000, -0.000000000000000000 ) ) ;
#213 = VERTEX_POINT ( 'NONE', #161 ) ;
#214 =( NAMED_UNIT ( * ) SI_UNIT ( $, .STERADIAN. ) SOLID_ANGLE_UNIT ( ) );
#215 = MECHANICAL_DESIGN_GEOMETRIC_PRESENTATION_REPRESENTATION (  '', ( #226 ), #81 ) ;
#216 = CYLINDRICAL_SURFACE ( 'NONE', #94, 0.3749999999999999445 ) ;
#217 = SURFACE_SIDE_STYLE ('',( #45 ) ) ;
#218 = EDGE_LOOP ( 'NONE', ( #203, #279, #16, #54 ) ) ;
#219 =( CONVERSION_BASED_UNIT ( 'INCH', #309 ) LENGTH_UNIT ( ) NAMED_UNIT ( #192 ) );
#220 =( NAMED_UNIT ( * ) SI_UNIT ( $, .STERADIAN. ) SOLID_ANGLE_UNIT ( ) );
#221 = PRODUCT_DEFINITION_FORMATION_WITH_SPECIFIED_SOURCE ( 'ANY', '', #149, .NOT_KNOWN. ) ;
#222 = FILL_AREA_STYLE ('',( #174 ) ) ;
#223 = ORIENTED_EDGE ( 'NONE', *, *, #49, .T. ) ;
#224 =( LENGTH_UNIT ( ) NAMED_UNIT ( * ) SI_UNIT ( $, .METRE. ) );
#225 = CARTESIAN_POINT ( 'NONE',  ( -0.3749999999999997780, 3.000000000000000444, 0.000000000000000000 ) ) ;
#226 = STYLED_ITEM ( 'NONE', ( #308 ), #113 ) ;
#227 = PRESENTATION_STYLE_ASSIGNMENT (( #28 ) ) ;
#228 = DIRECTION ( 'NONE',  ( 6.123233995736763571E-17, 1.000000000000000000, -0.000000000000000000 ) ) ;
#229 = DIRECTION ( 'NONE',  ( -1.000000000000000000, 0.000000000000000000, 0.000000000000000000 ) ) ;
#230 = CIRCLE ( 'NONE', #60, 0.3750000000000000555 ) ;
#231 =( GEOMETRIC_REPRESENTATION_CONTEXT ( 3 ) GLOBAL_UNCERTAINTY_ASSIGNED_CONTEXT ( ( #89 ) ) GLOBAL_UNIT_ASSIGNED_CONTEXT ( ( #219, #151, #244 ) ) REPRESENTATION_CONTEXT ( 'NONE', 'WORKASPACE' ) );
#232 = EDGE_CURVE ( 'NONE', #188, #124, #301, .T. ) ;
#233 = LENGTH_MEASURE_WITH_UNIT ( LENGTH_MEASURE( 0.02539999999999999897 ), #160 );
#234 = EDGE_LOOP ( 'NONE', ( #275, #200 ) ) ;
#235 = DIRECTION ( 'NONE',  ( 0.000000000000000000, 0.000000000000000000, -1.000000000000000000 ) ) ;
#236 = MECHANICAL_DESIGN_GEOMETRIC_PRESENTATION_REPRESENTATION (  '', ( #137 ), #92 ) ;
#237 =( NAMED_UNIT ( * ) SI_UNIT ( $, .STERADIAN. ) SOLID_ANGLE_UNIT ( ) );
#238 = STYLED_ITEM ( 'NONE', ( #156 ), #66 ) ;
#239 = PRODUCT_DEFINITION ( 'UNKNOWN', '', #221, #85 ) ;
#240 = LENGTH_MEASURE_WITH_UNIT ( LENGTH_MEASURE( 0.02539999999999999897 ), #224 );
#241 = DIRECTION ( 'NONE',  ( 0.000000000000000000, 0.000000000000000000, -1.000000000000000000 ) ) ;
#242 = APPLICATION_PROTOCOL_DEFINITION ( 'draft international standard', 'automotive_design', 1998, #264 ) ;
#243 = PRESENTATION_LAYER_ASSIGNMENT (  '', '', ( #238 ) ) ;
#244 =( NAMED_UNIT ( * ) SI_UNIT ( $, .STERADIAN. ) SOLID_ANGLE_UNIT ( ) );
#245 = DIRECTION ( 'NONE',  ( -0.000000000000000000, -1.000000000000000000, -0.000000000000000000 ) ) ;
#246 =( NAMED_UNIT ( * ) PLANE_ANGLE_UNIT ( ) SI_UNIT ( $, .RADIAN. ) );
#247 = COLOUR_RGB ( '',1.000000000000000000, 0.000000000000000000, 0.000000000000000000 ) ;
#248 = COLOUR_RGB ( '',0.7921568627450980005, 0.8196078431372548767, 0.9333333333333333481 ) ;
#249 = CARTESIAN_POINT ( 'NONE',  ( 0.3750000000000001110, 3.000000000000000444, 4.592425496802573602E-17 ) ) ;
#250 = EDGE_LOOP ( 'NONE', ( #83, #299, #223, #128 ) ) ;
#251 = EDGE_CURVE ( 'NONE', #29, #183, #210, .T. ) ;
#252 = DIRECTION ( 'NONE',  ( -0.000000000000000000, -1.000000000000000000, -0.000000000000000000 ) ) ;
#253 = ORIENTED_EDGE ( 'NONE', *, *, #122, .F. ) ;
#254 = VECTOR ( 'NONE', #126, 39.37007874015748143 ) ;
#255 = PLANE ( 'NONE',  #257 ) ;
#256 = ADVANCED_FACE ( 'NONE', ( #8 ), #178, .F. ) ;
#257 = AXIS2_PLACEMENT_3D ( 'NONE', #25, #197, #145 ) ;
#258 =( NAMED_UNIT ( * ) PLANE_ANGLE_UNIT ( ) SI_UNIT ( $, .RADIAN. ) );
#259 = EDGE_CURVE ( 'NONE', #213, #7, #98, .T. ) ;
#260 =( LENGTH_UNIT ( ) NAMED_UNIT ( * ) SI_UNIT ( $, .METRE. ) );
#261 = CIRCLE ( 'NONE', #37, 0.3750000000000000555 ) ;
#262 = EDGE_LOOP ( 'NONE', ( #272, #292, #170, #50 ) ) ;
#263 = LINE ( 'NONE', #249, #138 ) ;
#264 = APPLICATION_CONTEXT ( 'automotive_design' ) ;
#265 = PRESENTATION_LAYER_ASSIGNMENT (  '', '', ( #137 ) ) ;
#266 = LINE ( 'NONE', #27, #254 ) ;
#267 =( NAMED_UNIT ( * ) SI_UNIT ( $, .STERADIAN. ) SOLID_ANGLE_UNIT ( ) );
#268 = DIRECTION ( 'NONE',  ( -1.000000000000000000, 0.000000000000000000, 0.000000000000000000 ) ) ;
#269 =( NAMED_UNIT ( * ) PLANE_ANGLE_UNIT ( ) SI_UNIT ( $, .RADIAN. ) );
#270 = ORIENTED_EDGE ( 'NONE', *, *, #26, .T. ) ;
#271 = DIRECTION ( 'NONE',  ( 0.000000000000000000, 0.000000000000000000, -1.000000000000000000 ) ) ;
#272 = ORIENTED_EDGE ( 'NONE', *, *, #33, .T. ) ;
#273 = FILL_AREA_STYLE ('',( #155 ) ) ;
#274 = CARTESIAN_POINT ( 'NONE',  ( -0.3749999999999998335, 3.000000000000000444, 0.000000000000000000 ) ) ;
#275 = ORIENTED_EDGE ( 'NONE', *, *, #14, .F. ) ;
#276 =( GEOMETRIC_REPRESENTATION_CONTEXT ( 3 ) GLOBAL_UNCERTAINTY_ASSIGNED_CONTEXT ( ( #110 ) ) GLOBAL_UNIT_ASSIGNED_CONTEXT ( ( #180, #269, #76 ) ) REPRESENTATION_CONTEXT ( 'NONE', 'WORKASPACE' ) );
#277 = COLOUR_RGB ( '',1.000000000000000000, 0.000000000000000000, 0.000000000000000000 ) ;
#278 =( CONVERSION_BASED_UNIT ( 'INCH', #112 ) LENGTH_UNIT ( ) NAMED_UNIT ( #18 ) );
#279 = ORIENTED_EDGE ( 'NONE', *, *, #122, .T. ) ;
#280 = UNCERTAINTY_MEASURE_WITH_UNIT (LENGTH_MEASURE( 1.000000000000000082E-05 ), #283, 'distance_accuracy_value', 'NONE');
#281 = AXIS2_PLACEMENT_3D ( 'NONE', #287, #146, #241 ) ;
#282 = DIRECTION ( 'NONE',  ( -0.000000000000000000, -1.000000000000000000, -0.000000000000000000 ) ) ;
#283 =( CONVERSION_BASED_UNIT ( 'INCH', #240 ) LENGTH_UNIT ( ) NAMED_UNIT ( #191 ) );
#284 = FACE_OUTER_BOUND ( 'NONE', #80, .T. ) ;
#285 = CIRCLE ( 'NONE', #3, 0.3750000000000000555 ) ;
#286 = ORIENTED_EDGE ( 'NONE', *, *, #259, .T. ) ;
#287 = CARTESIAN_POINT ( 'NONE',  ( 0.000000000000000000, 0.000000000000000000, 0.000000000000000000 ) ) ;
#288 = SURFACE_SIDE_STYLE ('',( #291 ) ) ;
#289 = CARTESIAN_POINT ( 'NONE',  ( 0.000000000000000000, 1.000000000000000000, 0.000000000000000000 ) ) ;
#290 = DIRECTION ( 'NONE',  ( 0.000000000000000000, 0.000000000000000000, 1.000000000000000000 ) ) ;
#291 = SURFACE_STYLE_FILL_AREA ( #148 ) ;
#292 = ORIENTED_EDGE ( 'NONE', *, *, #199, .T. ) ;
#293 = ADVANCED_FACE ( 'NONE', ( #77 ), #186, .T. ) ;
#294 = SURFACE_SIDE_STYLE ('',( #56 ) ) ;
#295 = VECTOR ( 'NONE', #282, 39.37007874015748143 ) ;
#296 = AXIS2_PLACEMENT_3D ( 'NONE', #5, #74, #70 ) ;
#297 = DIRECTION ( 'NONE',  ( 0.000000000000000000, 0.000000000000000000, -1.000000000000000000 ) ) ;
#298 = SURFACE_STYLE_USAGE ( .BOTH. , #53 ) ;
#299 = ORIENTED_EDGE ( 'NONE', *, *, #232, .T. ) ;
#300 = VERTEX_POINT ( 'NONE', #1 ) ;
#301 = CIRCLE ( 'NONE', #24, 0.3750000000000000555 ) ;
#302 = DIRECTION ( 'NONE',  ( -0.000000000000000000, -1.000000000000000000, -0.000000000000000000 ) ) ;
#303 = EDGE_LOOP ( 'NONE', ( #102, #140 ) ) ;
#304 = SHAPE_DEFINITION_REPRESENTATION ( #157, #39 ) ;
#305 = DIRECTION ( 'NONE',  ( -1.000000000000000000, 0.000000000000000000, 0.000000000000000000 ) ) ;
#306 = AXIS2_PLACEMENT_3D ( 'NONE', #34, #101, #181 ) ;
#307 = CYLINDRICAL_SURFACE ( 'NONE', #109, 0.3749999999999999445 ) ;
#308 = PRESENTATION_STYLE_ASSIGNMENT (( #169 ) ) ;
#309 = LENGTH_MEASURE_WITH_UNIT ( LENGTH_MEASURE( 0.02539999999999999897 ), #43 );
ENDSEC;
END-ISO-10303-21;
