ISO-10303-21;
HEADER;
FILE_DESCRIPTION (( 'STEP AP214' ),
    '1' );
FILE_NAME ('83850.STEP',
    '2023-07-05T16:19:15',
    ( '' ),
    ( '' ),
    'SwSTEP 2.0',
    'SolidWorks 2023',
    '' );
FILE_SCHEMA (( 'AUTOMOTIVE_DESIGN' ));
ENDSEC;

DATA;
#1 = PRESENTATION_LAYER_ASSIGNMENT (  '', '', ( #160 ) ) ;
#2 =( NAMED_UNIT ( * ) SI_UNIT ( $, .STERADIAN. ) SOLID_ANGLE_UNIT ( ) );
#3 = PRODUCT_CONTEXT ( 'NONE', #109, 'mechanical' ) ;
#4 = CIRCLE ( 'NONE', #156, 0.1250000000000000555 ) ;
#5 = VERTEX_POINT ( 'NONE', #103 ) ;
#6 = EDGE_LOOP ( 'NONE', ( #165, #257, #101 ) ) ;
#7 = EDGE_CURVE ( 'NONE', #119, #84, #76, .T. ) ;
#8 = DIRECTION ( 'NONE',  ( -1.000000000000000000, -1.365923996832134074E-16, 0.000000000000000000 ) ) ;
#9 = ORIENTED_EDGE ( 'NONE', *, *, #162, .F. ) ;
#10 = DIRECTION ( 'NONE',  ( 1.000000000000000000, 0.000000000000000000, 0.000000000000000000 ) ) ;
#11 =( GEOMETRIC_REPRESENTATION_CONTEXT ( 3 ) GLOBAL_UNCERTAINTY_ASSIGNED_CONTEXT ( ( #115 ) ) GLOBAL_UNIT_ASSIGNED_CONTEXT ( ( #94, #116, #2 ) ) REPRESENTATION_CONTEXT ( 'NONE', 'WORKASPACE' ) );
#12 = ORIENTED_EDGE ( 'NONE', *, *, #208, .T. ) ;
#13 = SURFACE_SIDE_STYLE ('',( #221 ) ) ;
#14 = MECHANICAL_DESIGN_GEOMETRIC_PRESENTATION_REPRESENTATION (  '', ( #172 ), #11 ) ;
#15 = SURFACE_SIDE_STYLE ('',( #169 ) ) ;
#16 = SURFACE_STYLE_USAGE ( .BOTH. , #15 ) ;
#17 = APPLICATION_CONTEXT ( 'automotive_design' ) ;
#18 = VECTOR ( 'NONE', #202, 39.37007874015748854 ) ;
#19 = PRODUCT_RELATED_PRODUCT_CATEGORY ( 'part', '', ( #23 ) ) ;
#20 = PRESENTATION_STYLE_ASSIGNMENT (( #80 ) ) ;
#21 = SURFACE_SIDE_STYLE ('',( #112 ) ) ;
#22 = MECHANICAL_DESIGN_GEOMETRIC_PRESENTATION_REPRESENTATION (  '', ( #201 ), #206 ) ;
#23 = PRODUCT ( '83850', '83850', '', ( #3 ) ) ;
#24 =( NAMED_UNIT ( * ) PLANE_ANGLE_UNIT ( ) SI_UNIT ( $, .RADIAN. ) );
#25 = UNCERTAINTY_MEASURE_WITH_UNIT (LENGTH_MEASURE( 1.000000000000000082E-05 ), #121, 'distance_accuracy_value', 'NONE');
#26 = DIRECTION ( 'NONE',  ( -1.000000000000000000, 0.000000000000000000, 0.000000000000000000 ) ) ;
#27 = FACE_OUTER_BOUND ( 'NONE', #142, .T. ) ;
#28 = ORIENTED_EDGE ( 'NONE', *, *, #264, .F. ) ;
#29 = CARTESIAN_POINT ( 'NONE',  ( 0.1249999999999998335, 2.500000000000000000, 1.530808498934190276E-17 ) ) ;
#30 = ORIENTED_EDGE ( 'NONE', *, *, #215, .T. ) ;
#31 = AXIS2_PLACEMENT_3D ( 'NONE', #224, #149, #106 ) ;
#32 = ORIENTED_EDGE ( 'NONE', *, *, #264, .T. ) ;
#33 =( CONVERSION_BASED_UNIT ( 'INCH', #129 ) LENGTH_UNIT ( ) NAMED_UNIT ( #141 ) );
#34 = DIRECTION ( 'NONE',  ( -1.000000000000000000, 0.000000000000000000, 0.000000000000000000 ) ) ;
#35 = CONICAL_SURFACE ( 'NONE', #99, 39.37007874015762354, 0.7853981633974500554 ) ;
#36 = LENGTH_MEASURE_WITH_UNIT ( LENGTH_MEASURE( 0.02539999999999999897 ), #38 );
#37 = UNCERTAINTY_MEASURE_WITH_UNIT (LENGTH_MEASURE( 1.000000000000000082E-05 ), #41, 'distance_accuracy_value', 'NONE');
#38 =( LENGTH_UNIT ( ) NAMED_UNIT ( * ) SI_UNIT ( $, .METRE. ) );
#39 = AXIS2_PLACEMENT_3D ( 'NONE', #253, #66, #26 ) ;
#40 = PRESENTATION_STYLE_ASSIGNMENT (( #59 ) ) ;
#41 =( CONVERSION_BASED_UNIT ( 'INCH', #191 ) LENGTH_UNIT ( ) NAMED_UNIT ( #249 ) );
#42 = ADVANCED_FACE ( 'NONE', ( #27 ), #190, .F. ) ;
#43 = CIRCLE ( 'NONE', #134, 0.1249999999999999861 ) ;
#44 = CARTESIAN_POINT ( 'NONE',  ( 2.304996744654222029E-16, 0.1249999999999996253, 0.000000000000000000 ) ) ;
#45 = APPLICATION_PROTOCOL_DEFINITION ( 'draft international standard', 'automotive_design', 1998, #17 ) ;
#46 = ORIENTED_EDGE ( 'NONE', *, *, #7, .F. ) ;
#47 = DIRECTION ( 'NONE',  ( 1.000000000000000000, 0.000000000000000000, 0.000000000000000000 ) ) ;
#48 = VERTEX_POINT ( 'NONE', #123 ) ;
#49 =( GEOMETRIC_REPRESENTATION_CONTEXT ( 3 ) GLOBAL_UNCERTAINTY_ASSIGNED_CONTEXT ( ( #60 ) ) GLOBAL_UNIT_ASSIGNED_CONTEXT ( ( #205, #24, #56 ) ) REPRESENTATION_CONTEXT ( 'NONE', 'WORKASPACE' ) );
#50 = FACE_OUTER_BOUND ( 'NONE', #210, .T. ) ;
#51 = PRODUCT_DEFINITION ( 'UNKNOWN', '', #110, #181 ) ;
#52 = DIRECTION ( 'NONE',  ( -1.228345323885430886E-16, 1.000000000000000000, -0.000000000000000000 ) ) ;
#53 = SURFACE_STYLE_USAGE ( .BOTH. , #13 ) ;
#54 = CLOSED_SHELL ( 'NONE', ( #193, #42, #95, #89 ) ) ;
#55 = DIRECTION ( 'NONE',  ( -1.000000000000000000, 0.000000000000000000, 0.000000000000000000 ) ) ;
#56 =( NAMED_UNIT ( * ) SI_UNIT ( $, .STERADIAN. ) SOLID_ANGLE_UNIT ( ) );
#57 = FACE_OUTER_BOUND ( 'NONE', #6, .T. ) ;
#58 = FILL_AREA_STYLE ('',( #139 ) ) ;
#59 = SURFACE_STYLE_USAGE ( .BOTH. , #21 ) ;
#60 = UNCERTAINTY_MEASURE_WITH_UNIT (LENGTH_MEASURE( 1.000000000000000082E-05 ), #205, 'distance_accuracy_value', 'NONE');
#61 = SURFACE_STYLE_USAGE ( .BOTH. , #78 ) ;
#62 = EDGE_CURVE ( 'NONE', #5, #214, #43, .T. ) ;
#63 = APPLICATION_PROTOCOL_DEFINITION ( 'draft international standard', 'automotive_design', 1998, #109 ) ;
#64 =( LENGTH_UNIT ( ) NAMED_UNIT ( * ) SI_UNIT ( $, .METRE. ) );
#65 = ORIENTED_EDGE ( 'NONE', *, *, #126, .F. ) ;
#66 = DIRECTION ( 'NONE',  ( -1.228345323885430886E-16, 1.000000000000000000, -0.000000000000000000 ) ) ;
#67 = COLOUR_RGB ( '',0.7921568627450980005, 0.8196078431372548767, 0.9333333333333333481 ) ;
#68 = CARTESIAN_POINT ( 'NONE',  ( 2.304996744654222029E-16, 0.1249999999999995559, 0.000000000000000000 ) ) ;
#69 =( NAMED_UNIT ( * ) SI_UNIT ( $, .STERADIAN. ) SOLID_ANGLE_UNIT ( ) );
#70 = CARTESIAN_POINT ( 'NONE',  ( -0.1249999999999999861, 0.1249999999999995559, 0.000000000000000000 ) ) ;
#71 = CYLINDRICAL_SURFACE ( 'NONE', #138, 0.1249999999999999029 ) ;
#72 = CARTESIAN_POINT ( 'NONE',  ( 0.1249999999999999861, 2.500000000000000000, 0.000000000000000000 ) ) ;
#73 = CARTESIAN_POINT ( 'NONE',  ( -0.1249999999999995143, 0.1249999999999996114, 0.000000000000000000 ) ) ;
#74 = EDGE_CURVE ( 'NONE', #214, #5, #218, .T. ) ;
#75 = CARTESIAN_POINT ( 'NONE',  ( -6.123233995736766036E-17, 2.500000000000000000, 0.000000000000000000 ) ) ;
#76 = CIRCLE ( 'NONE', #230, 0.1249999999999997641 ) ;
#77 = VECTOR ( 'NONE', #216, 39.37007874015748854 ) ;
#78 = SURFACE_SIDE_STYLE ('',( #177 ) ) ;
#79 = UNCERTAINTY_MEASURE_WITH_UNIT (LENGTH_MEASURE( 1.000000000000000082E-05 ), #197, 'distance_accuracy_value', 'NONE');
#80 = SURFACE_STYLE_USAGE ( .BOTH. , #250 ) ;
#81 = ADVANCED_FACE ( 'NONE', ( #125 ), #35, .T. ) ;
#82 = AXIS2_PLACEMENT_3D ( 'NONE', #98, #261, #8 ) ;
#83 = ORIENTED_EDGE ( 'NONE', *, *, #62, .T. ) ;
#84 = VERTEX_POINT ( 'NONE', #73 ) ;
#85 = ORIENTED_EDGE ( 'NONE', *, *, #62, .F. ) ;
#86 = ADVANCED_BREP_SHAPE_REPRESENTATION ( '83850', ( #176, #182, #259 ), #148 ) ;
#87 = EDGE_LOOP ( 'NONE', ( #102, #219 ) ) ;
#88 = FILL_AREA_STYLE ('',( #195 ) ) ;
#89 = ADVANCED_FACE ( 'NONE', ( #247 ), #248, .F. ) ;
#90 = PRESENTATION_LAYER_ASSIGNMENT (  '', '', ( #265 ) ) ;
#91 =( NAMED_UNIT ( * ) SI_UNIT ( $, .STERADIAN. ) SOLID_ANGLE_UNIT ( ) );
#92 =( NAMED_UNIT ( * ) PLANE_ANGLE_UNIT ( ) SI_UNIT ( $, .RADIAN. ) );
#93 = COLOUR_RGB ( '',1.000000000000000000, 0.000000000000000000, 0.000000000000000000 ) ;
#94 =( CONVERSION_BASED_UNIT ( 'INCH', #137 ) LENGTH_UNIT ( ) NAMED_UNIT ( #163 ) );
#95 = ADVANCED_FACE ( 'NONE', ( #50 ), #71, .T. ) ;
#96 = PRESENTATION_STYLE_ASSIGNMENT (( #61 ) ) ;
#97 = ADVANCED_FACE ( 'NONE', ( #150 ), #133, .T. ) ;
#98 = CARTESIAN_POINT ( 'NONE',  ( 2.304996744654222029E-16, 0.1249999999999996253, 0.000000000000000000 ) ) ;
#99 = AXIS2_PLACEMENT_3D ( 'NONE', #105, #263, #173 ) ;
#100 = DIRECTION ( 'NONE',  ( 1.000000000000000000, 0.000000000000000000, 0.000000000000000000 ) ) ;
#101 = ORIENTED_EDGE ( 'NONE', *, *, #74, .T. ) ;
#102 = ORIENTED_EDGE ( 'NONE', *, *, #162, .T. ) ;
#103 = CARTESIAN_POINT ( 'NONE',  ( 0.1249999999999999861, 0.1249999999999995559, 1.530808498934191509E-17 ) ) ;
#104 = DIRECTION ( 'NONE',  ( -1.228345323885430886E-16, 1.000000000000000000, -0.000000000000000000 ) ) ;
#105 = CARTESIAN_POINT ( 'NONE',  ( 4.957610585222029046E-16, 39.37007874015748143, 0.000000000000000000 ) ) ;
#106 = DIRECTION ( 'NONE',  ( -1.000000000000000000, 1.259233088646395293E-17, 0.000000000000000000 ) ) ;
#107 =( GEOMETRIC_REPRESENTATION_CONTEXT ( 3 ) GLOBAL_UNCERTAINTY_ASSIGNED_CONTEXT ( ( #157 ) ) GLOBAL_UNIT_ASSIGNED_CONTEXT ( ( #33, #222, #91 ) ) REPRESENTATION_CONTEXT ( 'NONE', 'WORKASPACE' ) );
#108 = CARTESIAN_POINT ( 'NONE',  ( -0.1250000000000001110, 2.500000000000000000, 0.000000000000000000 ) ) ;
#109 = APPLICATION_CONTEXT ( 'automotive_design' ) ;
#110 = PRODUCT_DEFINITION_FORMATION_WITH_SPECIFIED_SOURCE ( 'ANY', '', #23, .NOT_KNOWN. ) ;
#111 = CARTESIAN_POINT ( 'NONE',  ( 0.1249999999999999861, 2.500000000000000000, 1.530808498934191201E-17 ) ) ;
#112 = SURFACE_STYLE_FILL_AREA ( #252 ) ;
#113 = DIMENSIONAL_EXPONENTS ( 1.000000000000000000, 0.000000000000000000, 0.000000000000000000, 0.000000000000000000, 0.000000000000000000, 0.000000000000000000, 0.000000000000000000 ) ;
#114 = DIRECTION ( 'NONE',  ( 1.259233088646395447E-17, 1.000000000000000000, 0.000000000000000000 ) ) ;
#115 = UNCERTAINTY_MEASURE_WITH_UNIT (LENGTH_MEASURE( 1.000000000000000082E-05 ), #94, 'distance_accuracy_value', 'NONE');
#116 =( NAMED_UNIT ( * ) PLANE_ANGLE_UNIT ( ) SI_UNIT ( $, .RADIAN. ) );
#117 =( GEOMETRIC_REPRESENTATION_CONTEXT ( 3 ) GLOBAL_UNCERTAINTY_ASSIGNED_CONTEXT ( ( #79 ) ) GLOBAL_UNIT_ASSIGNED_CONTEXT ( ( #197, #92, #199 ) ) REPRESENTATION_CONTEXT ( 'NONE', 'WORKASPACE' ) );
#118 = LINE ( 'NONE', #258, #194 ) ;
#119 = VERTEX_POINT ( 'NONE', #196 ) ;
#120 = CIRCLE ( 'NONE', #226, 0.1250000000000000555 ) ;
#121 =( CONVERSION_BASED_UNIT ( 'INCH', #187 ) LENGTH_UNIT ( ) NAMED_UNIT ( #136 ) );
#122 = DIRECTION ( 'NONE',  ( -1.000000000000000000, -1.365923996832134074E-16, 0.000000000000000000 ) ) ;
#123 = CARTESIAN_POINT ( 'NONE',  ( 0.000000000000000000, 0.000000000000000000, 0.000000000000000000 ) ) ;
#124 = FACE_OUTER_BOUND ( 'NONE', #185, .T. ) ;
#125 = FACE_OUTER_BOUND ( 'NONE', #188, .T. ) ;
#126 = EDGE_CURVE ( 'NONE', #147, #127, #120, .T. ) ;
#127 = VERTEX_POINT ( 'NONE', #108 ) ;
#128 = PRESENTATION_STYLE_ASSIGNMENT (( #53 ) ) ;
#129 = LENGTH_MEASURE_WITH_UNIT ( LENGTH_MEASURE( 0.02539999999999999897 ), #131 );
#130 = STYLED_ITEM ( 'NONE', ( #128 ), #97 ) ;
#131 =( LENGTH_UNIT ( ) NAMED_UNIT ( * ) SI_UNIT ( $, .METRE. ) );
#132 = FILL_AREA_STYLE_COLOUR ( '', #93 ) ;
#133 = PLANE ( 'NONE',  #31 ) ;
#134 = AXIS2_PLACEMENT_3D ( 'NONE', #192, #255, #10 ) ;
#135 = CARTESIAN_POINT ( 'NONE',  ( -6.123233995736766036E-17, 2.500000000000000000, 0.000000000000000000 ) ) ;
#136 = DIMENSIONAL_EXPONENTS ( 1.000000000000000000, 0.000000000000000000, 0.000000000000000000, 0.000000000000000000, 0.000000000000000000, 0.000000000000000000, 0.000000000000000000 ) ;
#137 = LENGTH_MEASURE_WITH_UNIT ( LENGTH_MEASURE( 0.02539999999999999897 ), #184 );
#138 = AXIS2_PLACEMENT_3D ( 'NONE', #75, #200, #55 ) ;
#139 = FILL_AREA_STYLE_COLOUR ( '', #246 ) ;
#140 = DIRECTION ( 'NONE',  ( 0.000000000000000000, 0.000000000000000000, 1.000000000000000000 ) ) ;
#141 = DIMENSIONAL_EXPONENTS ( 1.000000000000000000, 0.000000000000000000, 0.000000000000000000, 0.000000000000000000, 0.000000000000000000, 0.000000000000000000, 0.000000000000000000 ) ;
#142 = EDGE_LOOP ( 'NONE', ( #28, #46 ) ) ;
#143 = ADVANCED_FACE ( 'NONE', ( #57 ), #254, .T. ) ;
#144 = ORIENTED_EDGE ( 'NONE', *, *, #220, .F. ) ;
#145 = MECHANICAL_DESIGN_GEOMETRIC_PRESENTATION_REPRESENTATION (  '', ( #160 ), #49 ) ;
#146 = DIRECTION ( 'NONE',  ( -1.228345323885430886E-16, 1.000000000000000000, 0.000000000000000000 ) ) ;
#147 = VERTEX_POINT ( 'NONE', #111 ) ;
#148 =( GEOMETRIC_REPRESENTATION_CONTEXT ( 3 ) GLOBAL_UNCERTAINTY_ASSIGNED_CONTEXT ( ( #37 ) ) GLOBAL_UNIT_ASSIGNED_CONTEXT ( ( #41, #236, #69 ) ) REPRESENTATION_CONTEXT ( 'NONE', 'WORKASPACE' ) );
#149 = DIRECTION ( 'NONE',  ( 1.259233088646395293E-17, 1.000000000000000000, 0.000000000000000000 ) ) ;
#150 = FACE_OUTER_BOUND ( 'NONE', #240, .T. ) ;
#151 = CLOSED_SHELL ( 'NONE', ( #81, #97, #143 ) ) ;
#152 = VECTOR ( 'NONE', #256, 39.37007874015748143 ) ;
#153 =( LENGTH_UNIT ( ) NAMED_UNIT ( * ) SI_UNIT ( $, .METRE. ) );
#154 = FILL_AREA_STYLE_COLOUR ( '', #186 ) ;
#155 = FILL_AREA_STYLE_COLOUR ( '', #67 ) ;
#156 = AXIS2_PLACEMENT_3D ( 'NONE', #135, #203, #227 ) ;
#157 = UNCERTAINTY_MEASURE_WITH_UNIT (LENGTH_MEASURE( 1.000000000000000082E-05 ), #33, 'distance_accuracy_value', 'NONE');
#158 = CYLINDRICAL_SURFACE ( 'NONE', #39, 0.1249999999999999029 ) ;
#159 = AXIS2_PLACEMENT_3D ( 'NONE', #167, #260, #47 ) ;
#160 = STYLED_ITEM ( 'NONE', ( #20 ), #176 ) ;
#161 = ORIENTED_EDGE ( 'NONE', *, *, #166, .T. ) ;
#162 = EDGE_CURVE ( 'NONE', #127, #147, #4, .T. ) ;
#163 = DIMENSIONAL_EXPONENTS ( 1.000000000000000000, 0.000000000000000000, 0.000000000000000000, 0.000000000000000000, 0.000000000000000000, 0.000000000000000000, 0.000000000000000000 ) ;
#164 = ORIENTED_EDGE ( 'NONE', *, *, #215, .F. ) ;
#165 = ORIENTED_EDGE ( 'NONE', *, *, #166, .F. ) ;
#166 = EDGE_CURVE ( 'NONE', #48, #5, #229, .T. ) ;
#167 = CARTESIAN_POINT ( 'NONE',  ( 1.574041360807988724E-18, 0.1249999999999995559, 0.000000000000000000 ) ) ;
#168 = CARTESIAN_POINT ( 'NONE',  ( 0.000000000000000000, 0.000000000000000000, 0.000000000000000000 ) ) ;
#169 = SURFACE_STYLE_FILL_AREA ( #88 ) ;
#170 = DIRECTION ( 'NONE',  ( 1.000000000000000000, 1.228345323885430886E-16, 0.000000000000000000 ) ) ;
#171 = AXIS2_PLACEMENT_3D ( 'NONE', #68, #146, #241 ) ;
#172 = STYLED_ITEM ( 'NONE', ( #96 ), #143 ) ;
#173 = DIRECTION ( 'NONE',  ( -1.000000000000000000, 0.000000000000000000, 0.000000000000000000 ) ) ;
#174 = PRESENTATION_STYLE_ASSIGNMENT (( #16 ) ) ;
#175 = AXIS2_PLACEMENT_3D ( 'NONE', #179, #114, #183 ) ;
#176 = MANIFOLD_SOLID_BREP ( 'Revolve - Cutting Edge', #151 ) ;
#177 = SURFACE_STYLE_FILL_AREA ( #58 ) ;
#178 = DIMENSIONAL_EXPONENTS ( 1.000000000000000000, 0.000000000000000000, 0.000000000000000000, 0.000000000000000000, 0.000000000000000000, 0.000000000000000000, 0.000000000000000000 ) ;
#179 = CARTESIAN_POINT ( 'NONE',  ( 4.957610585222029046E-16, 39.37007874015748143, 0.000000000000000000 ) ) ;
#180 = COLOUR_RGB ( '',1.000000000000000000, 0.000000000000000000, 0.000000000000000000 ) ;
#181 = PRODUCT_DEFINITION_CONTEXT ( 'detailed design', #17, 'design' ) ;
#182 = MANIFOLD_SOLID_BREP ( 'Revolve - Tool Body (Pointed)', #54 ) ;
#183 = DIRECTION ( 'NONE',  ( -1.000000000000000000, 0.000000000000000000, 0.000000000000000000 ) ) ;
#184 =( LENGTH_UNIT ( ) NAMED_UNIT ( * ) SI_UNIT ( $, .METRE. ) );
#185 = EDGE_LOOP ( 'NONE', ( #32, #12, #9, #164 ) ) ;
#186 = COLOUR_RGB ( '',0.7921568627450980005, 0.8196078431372548767, 0.9333333333333333481 ) ;
#187 = LENGTH_MEASURE_WITH_UNIT ( LENGTH_MEASURE( 0.02539999999999999897 ), #64 );
#188 = EDGE_LOOP ( 'NONE', ( #144, #161, #83 ) ) ;
#189 = CARTESIAN_POINT ( 'NONE',  ( 0.000000000000000000, 0.000000000000000000, 0.000000000000000000 ) ) ;
#190 = PLANE ( 'NONE',  #171 ) ;
#191 = LENGTH_MEASURE_WITH_UNIT ( LENGTH_MEASURE( 0.02539999999999999897 ), #211 );
#192 = CARTESIAN_POINT ( 'NONE',  ( 1.574041360807988724E-18, 0.1249999999999995559, 0.000000000000000000 ) ) ;
#193 = ADVANCED_FACE ( 'NONE', ( #124 ), #158, .T. ) ;
#194 = VECTOR ( 'NONE', #104, 39.37007874015748143 ) ;
#195 = FILL_AREA_STYLE_COLOUR ( '', #180 ) ;
#196 = CARTESIAN_POINT ( 'NONE',  ( 0.1249999999999999584, 0.1249999999999996392, 1.530808498934190893E-17 ) ) ;
#197 =( CONVERSION_BASED_UNIT ( 'INCH', #225 ) LENGTH_UNIT ( ) NAMED_UNIT ( #178 ) );
#198 = PRESENTATION_LAYER_ASSIGNMENT (  '', '', ( #130 ) ) ;
#199 =( NAMED_UNIT ( * ) SI_UNIT ( $, .STERADIAN. ) SOLID_ANGLE_UNIT ( ) );
#200 = DIRECTION ( 'NONE',  ( -1.228345323885430886E-16, 1.000000000000000000, -0.000000000000000000 ) ) ;
#201 = STYLED_ITEM ( 'NONE', ( #40 ), #182 ) ;
#202 = DIRECTION ( 'NONE',  ( 0.7071067811865486830, 0.7071067811865462405, 8.659560562354947649E-17 ) ) ;
#203 = DIRECTION ( 'NONE',  ( -1.228345323885430886E-16, 1.000000000000000000, -0.000000000000000000 ) ) ;
#204 = SURFACE_STYLE_FILL_AREA ( #207 ) ;
#205 =( CONVERSION_BASED_UNIT ( 'INCH', #36 ) LENGTH_UNIT ( ) NAMED_UNIT ( #113 ) );
#206 =( GEOMETRIC_REPRESENTATION_CONTEXT ( 3 ) GLOBAL_UNCERTAINTY_ASSIGNED_CONTEXT ( ( #25 ) ) GLOBAL_UNIT_ASSIGNED_CONTEXT ( ( #121, #209, #233 ) ) REPRESENTATION_CONTEXT ( 'NONE', 'WORKASPACE' ) );
#207 = FILL_AREA_STYLE ('',( #154 ) ) ;
#208 = EDGE_CURVE ( 'NONE', #119, #147, #234, .T. ) ;
#209 =( NAMED_UNIT ( * ) PLANE_ANGLE_UNIT ( ) SI_UNIT ( $, .RADIAN. ) );
#210 = EDGE_LOOP ( 'NONE', ( #237, #235, #30, #65 ) ) ;
#211 =( LENGTH_UNIT ( ) NAMED_UNIT ( * ) SI_UNIT ( $, .METRE. ) );
#212 = DIRECTION ( 'NONE',  ( -1.228345323885430886E-16, 1.000000000000000000, -0.000000000000000000 ) ) ;
#213 = SHAPE_DEFINITION_REPRESENTATION ( #232, #86 ) ;
#214 = VERTEX_POINT ( 'NONE', #70 ) ;
#215 = EDGE_CURVE ( 'NONE', #84, #127, #118, .T. ) ;
#216 = DIRECTION ( 'NONE',  ( -0.7071067811865486830, 0.7071067811865462405, 0.000000000000000000 ) ) ;
#217 = ORIENTED_EDGE ( 'NONE', *, *, #74, .F. ) ;
#218 = CIRCLE ( 'NONE', #159, 0.1249999999999999861 ) ;
#219 = ORIENTED_EDGE ( 'NONE', *, *, #126, .T. ) ;
#220 = EDGE_CURVE ( 'NONE', #48, #214, #239, .T. ) ;
#221 = SURFACE_STYLE_FILL_AREA ( #245 ) ;
#222 =( NAMED_UNIT ( * ) PLANE_ANGLE_UNIT ( ) SI_UNIT ( $, .RADIAN. ) );
#223 = PRESENTATION_LAYER_ASSIGNMENT (  '', '', ( #201 ) ) ;
#224 = CARTESIAN_POINT ( 'NONE',  ( 1.574041360807988724E-18, 0.1249999999999995559, 0.000000000000000000 ) ) ;
#225 = LENGTH_MEASURE_WITH_UNIT ( LENGTH_MEASURE( 0.02539999999999999897 ), #153 );
#226 = AXIS2_PLACEMENT_3D ( 'NONE', #244, #52, #34 ) ;
#227 = DIRECTION ( 'NONE',  ( -1.000000000000000000, 0.000000000000000000, 0.000000000000000000 ) ) ;
#228 = CARTESIAN_POINT ( 'NONE',  ( 0.000000000000000000, 0.000000000000000000, 0.000000000000000000 ) ) ;
#229 = LINE ( 'NONE', #228, #18 ) ;
#230 = AXIS2_PLACEMENT_3D ( 'NONE', #44, #212, #122 ) ;
#231 = AXIS2_PLACEMENT_3D ( 'NONE', #72, #262, #170 ) ;
#232 = PRODUCT_DEFINITION_SHAPE ( 'NONE', 'NONE',  #51 ) ;
#233 =( NAMED_UNIT ( * ) SI_UNIT ( $, .STERADIAN. ) SOLID_ANGLE_UNIT ( ) );
#234 = LINE ( 'NONE', #29, #152 ) ;
#235 = ORIENTED_EDGE ( 'NONE', *, *, #7, .T. ) ;
#236 =( NAMED_UNIT ( * ) PLANE_ANGLE_UNIT ( ) SI_UNIT ( $, .RADIAN. ) );
#237 = ORIENTED_EDGE ( 'NONE', *, *, #208, .F. ) ;
#238 = PRESENTATION_LAYER_ASSIGNMENT (  '', '', ( #172 ) ) ;
#239 = LINE ( 'NONE', #189, #77 ) ;
#240 = EDGE_LOOP ( 'NONE', ( #217, #85 ) ) ;
#241 = DIRECTION ( 'NONE',  ( -1.000000000000000000, -1.228345323885430886E-16, 0.000000000000000000 ) ) ;
#242 = CIRCLE ( 'NONE', #82, 0.1249999999999997641 ) ;
#243 = MECHANICAL_DESIGN_GEOMETRIC_PRESENTATION_REPRESENTATION (  '', ( #130 ), #107 ) ;
#244 = CARTESIAN_POINT ( 'NONE',  ( -6.123233995736766036E-17, 2.500000000000000000, 0.000000000000000000 ) ) ;
#245 = FILL_AREA_STYLE ('',( #132 ) ) ;
#246 = COLOUR_RGB ( '',1.000000000000000000, 0.000000000000000000, 0.000000000000000000 ) ;
#247 = FACE_OUTER_BOUND ( 'NONE', #87, .T. ) ;
#248 = PLANE ( 'NONE',  #231 ) ;
#249 = DIMENSIONAL_EXPONENTS ( 1.000000000000000000, 0.000000000000000000, 0.000000000000000000, 0.000000000000000000, 0.000000000000000000, 0.000000000000000000, 0.000000000000000000 ) ;
#250 = SURFACE_SIDE_STYLE ('',( #204 ) ) ;
#251 = MECHANICAL_DESIGN_GEOMETRIC_PRESENTATION_REPRESENTATION (  '', ( #265 ), #117 ) ;
#252 = FILL_AREA_STYLE ('',( #155 ) ) ;
#253 = CARTESIAN_POINT ( 'NONE',  ( -6.123233995736766036E-17, 2.500000000000000000, 0.000000000000000000 ) ) ;
#254 = CONICAL_SURFACE ( 'NONE', #175, 39.37007874015762354, 0.7853981633974500554 ) ;
#255 = DIRECTION ( 'NONE',  ( -1.259233088646395447E-17, -1.000000000000000000, -0.000000000000000000 ) ) ;
#256 = DIRECTION ( 'NONE',  ( -1.228345323885430886E-16, 1.000000000000000000, -0.000000000000000000 ) ) ;
#257 = ORIENTED_EDGE ( 'NONE', *, *, #220, .T. ) ;
#258 = CARTESIAN_POINT ( 'NONE',  ( -0.1249999999999999584, 2.500000000000000000, 0.000000000000000000 ) ) ;
#259 = AXIS2_PLACEMENT_3D ( 'NONE', #168, #140, #100 ) ;
#260 = DIRECTION ( 'NONE',  ( -1.259233088646395447E-17, -1.000000000000000000, -0.000000000000000000 ) ) ;
#261 = DIRECTION ( 'NONE',  ( -1.228345323885430886E-16, 1.000000000000000000, -0.000000000000000000 ) ) ;
#262 = DIRECTION ( 'NONE',  ( 1.228345323885430886E-16, -1.000000000000000000, 0.000000000000000000 ) ) ;
#263 = DIRECTION ( 'NONE',  ( 1.259233088646395447E-17, 1.000000000000000000, 0.000000000000000000 ) ) ;
#264 = EDGE_CURVE ( 'NONE', #84, #119, #242, .T. ) ;
#265 = STYLED_ITEM ( 'NONE', ( #174 ), #81 ) ;
ENDSEC;
END-ISO-10303-21;
