ISO-10303-21;
HEADER;
FILE_DESCRIPTION (( 'STEP AP214' ),
    '1' );
FILE_NAME ('30347.STEP',
    '2023-06-22T18:23:41',
    ( '' ),
    ( '' ),
    'SwSTEP 2.0',
    'SolidWorks 2023',
    '' );
FILE_SCHEMA (( 'AUTOMOTIVE_DESIGN' ));
ENDSEC;

DATA;
#1 = LENGTH_MEASURE_WITH_UNIT ( LENGTH_MEASURE( 0.02539999999999999897 ), #223 );
#2 = AXIS2_PLACEMENT_3D ( 'NONE', #54, #7, #194 ) ;
#3 = COLOUR_RGB ( '',1.000000000000000000, 0.000000000000000000, 0.000000000000000000 ) ;
#4 = CARTESIAN_POINT ( 'NONE',  ( 0.1875000000000000278, 3.000000000000000444, 2.296212748401288650E-17 ) ) ;
#5 = DIRECTION ( 'NONE',  ( 0.000000000000000000, -0.000000000000000000, 1.000000000000000000 ) ) ;
#6 = PRESENTATION_STYLE_ASSIGNMENT (( #80 ) ) ;
#7 = DIRECTION ( 'NONE',  ( -0.000000000000000000, -1.000000000000000000, -0.000000000000000000 ) ) ;
#8 = SURFACE_SIDE_STYLE ('',( #233 ) ) ;
#9 =( NAMED_UNIT ( * ) SI_UNIT ( $, .STERADIAN. ) SOLID_ANGLE_UNIT ( ) );
#10 = PRESENTATION_STYLE_ASSIGNMENT (( #36 ) ) ;
#11 =( CONVERSION_BASED_UNIT ( 'INCH', #297 ) LENGTH_UNIT ( ) NAMED_UNIT ( #178 ) );
#12 =( LENGTH_UNIT ( ) NAMED_UNIT ( * ) SI_UNIT ( $, .METRE. ) );
#13 = CYLINDRICAL_SURFACE ( 'NONE', #62, 0.1875000000000000833 ) ;
#14 = COLOUR_RGB ( '',0.7921568627450980005, 0.8196078431372548767, 0.9333333333333333481 ) ;
#15 = ORIENTED_EDGE ( 'NONE', *, *, #242, .F. ) ;
#16 = FACE_OUTER_BOUND ( 'NONE', #91, .T. ) ;
#17 = CIRCLE ( 'NONE', #121, 0.1875000000000000278 ) ;
#18 = ORIENTED_EDGE ( 'NONE', *, *, #155, .T. ) ;
#19 = ORIENTED_EDGE ( 'NONE', *, *, #108, .T. ) ;
#20 = ADVANCED_FACE ( 'NONE', ( #93 ), #188, .T. ) ;
#21 = ORIENTED_EDGE ( 'NONE', *, *, #271, .F. ) ;
#22 = STYLED_ITEM ( 'NONE', ( #137 ), #98 ) ;
#23 =( LENGTH_UNIT ( ) NAMED_UNIT ( * ) SI_UNIT ( $, .METRE. ) );
#24 = STYLED_ITEM ( 'NONE', ( #26 ), #20 ) ;
#25 = ADVANCED_FACE ( 'NONE', ( #83 ), #147, .F. ) ;
#26 = PRESENTATION_STYLE_ASSIGNMENT (( #221 ) ) ;
#27 = SURFACE_SIDE_STYLE ('',( #102 ) ) ;
#28 =( NAMED_UNIT ( * ) SI_UNIT ( $, .STERADIAN. ) SOLID_ANGLE_UNIT ( ) );
#29 = CARTESIAN_POINT ( 'NONE',  ( 0.000000000000000000, 1.250000000000000000, 0.000000000000000000 ) ) ;
#30 = LENGTH_MEASURE_WITH_UNIT ( LENGTH_MEASURE( 0.02539999999999999897 ), #149 );
#31 = PRESENTATION_STYLE_ASSIGNMENT (( #156 ) ) ;
#32 = PRODUCT_CONTEXT ( 'NONE', #123, 'mechanical' ) ;
#33 = SURFACE_SIDE_STYLE ('',( #236 ) ) ;
#34 = UNCERTAINTY_MEASURE_WITH_UNIT (LENGTH_MEASURE( 1.000000000000000082E-05 ), #166, 'distance_accuracy_value', 'NONE');
#35 = CARTESIAN_POINT ( 'NONE',  ( 0.000000000000000000, 0.000000000000000000, -0.1875000000000000278 ) ) ;
#36 = SURFACE_STYLE_USAGE ( .BOTH. , #33 ) ;
#37 = SURFACE_STYLE_USAGE ( .BOTH. , #8 ) ;
#38 = DIRECTION ( 'NONE',  ( 0.000000000000000000, 0.000000000000000000, 1.000000000000000000 ) ) ;
#39 = DIRECTION ( 'NONE',  ( -0.000000000000000000, -1.000000000000000000, -0.000000000000000000 ) ) ;
#40 = AXIS2_PLACEMENT_3D ( 'NONE', #158, #159, #113 ) ;
#41 = ORIENTED_EDGE ( 'NONE', *, *, #179, .F. ) ;
#42 = LENGTH_MEASURE_WITH_UNIT ( LENGTH_MEASURE( 0.02539999999999999897 ), #12 );
#43 = MECHANICAL_DESIGN_GEOMETRIC_PRESENTATION_REPRESENTATION (  '', ( #115 ), #222 ) ;
#44 = ORIENTED_EDGE ( 'NONE', *, *, #126, .T. ) ;
#45 =( LENGTH_UNIT ( ) NAMED_UNIT ( * ) SI_UNIT ( $, .METRE. ) );
#46 =( GEOMETRIC_REPRESENTATION_CONTEXT ( 3 ) GLOBAL_UNCERTAINTY_ASSIGNED_CONTEXT ( ( #134 ) ) GLOBAL_UNIT_ASSIGNED_CONTEXT ( ( #70, #216, #251 ) ) REPRESENTATION_CONTEXT ( 'NONE', 'WORKASPACE' ) );
#47 = VERTEX_POINT ( 'NONE', #4 ) ;
#48 = AXIS2_PLACEMENT_3D ( 'NONE', #183, #186, #111 ) ;
#49 = ORIENTED_EDGE ( 'NONE', *, *, #287, .F. ) ;
#50 = AXIS2_PLACEMENT_3D ( 'NONE', #170, #295, #253 ) ;
#51 = EDGE_CURVE ( 'NONE', #141, #192, #286, .T. ) ;
#52 =( GEOMETRIC_REPRESENTATION_CONTEXT ( 3 ) GLOBAL_UNCERTAINTY_ASSIGNED_CONTEXT ( ( #110 ) ) GLOBAL_UNIT_ASSIGNED_CONTEXT ( ( #160, #282, #9 ) ) REPRESENTATION_CONTEXT ( 'NONE', 'WORKASPACE' ) );
#53 = EDGE_CURVE ( 'NONE', #307, #267, #241, .T. ) ;
#54 = CARTESIAN_POINT ( 'NONE',  ( 0.000000000000000000, 0.000000000000000000, 0.000000000000000000 ) ) ;
#55 = MECHANICAL_DESIGN_GEOMETRIC_PRESENTATION_REPRESENTATION (  '', ( #196 ), #106 ) ;
#56 = LENGTH_MEASURE_WITH_UNIT ( LENGTH_MEASURE( 0.02539999999999999897 ), #23 );
#57 = SURFACE_STYLE_USAGE ( .BOTH. , #154 ) ;
#58 = SURFACE_STYLE_FILL_AREA ( #177 ) ;
#59 = APPLICATION_PROTOCOL_DEFINITION ( 'draft international standard', 'automotive_design', 1998, #123 ) ;
#60 = FILL_AREA_STYLE ('',( #237 ) ) ;
#61 = CARTESIAN_POINT ( 'NONE',  ( 0.1875000000000000278, 1.250000000000000000, 2.296212748401288650E-17 ) ) ;
#62 = AXIS2_PLACEMENT_3D ( 'NONE', #206, #90, #66 ) ;
#63 = PLANE ( 'NONE',  #48 ) ;
#64 = CLOSED_SHELL ( 'NONE', ( #234, #118, #20, #72 ) ) ;
#65 = AXIS2_PLACEMENT_3D ( 'NONE', #135, #203, #299 ) ;
#66 = DIRECTION ( 'NONE',  ( -1.000000000000000000, 0.000000000000000000, 0.000000000000000000 ) ) ;
#67 = EDGE_LOOP ( 'NONE', ( #215, #187 ) ) ;
#68 = STYLED_ITEM ( 'NONE', ( #10 ), #234 ) ;
#69 = FILL_AREA_STYLE ('',( #285 ) ) ;
#70 =( CONVERSION_BASED_UNIT ( 'INCH', #94 ) LENGTH_UNIT ( ) NAMED_UNIT ( #184 ) );
#71 = ORIENTED_EDGE ( 'NONE', *, *, #271, .T. ) ;
#72 = ADVANCED_FACE ( 'NONE', ( #226 ), #146, .T. ) ;
#73 = VECTOR ( 'NONE', #39, 39.37007874015748143 ) ;
#74 = PRESENTATION_LAYER_ASSIGNMENT (  '', '', ( #68 ) ) ;
#75 =( GEOMETRIC_REPRESENTATION_CONTEXT ( 3 ) GLOBAL_UNCERTAINTY_ASSIGNED_CONTEXT ( ( #197 ) ) GLOBAL_UNIT_ASSIGNED_CONTEXT ( ( #11, #114, #201 ) ) REPRESENTATION_CONTEXT ( 'NONE', 'WORKASPACE' ) );
#76 = AXIS2_PLACEMENT_3D ( 'NONE', #180, #205, #275 ) ;
#77 =( NAMED_UNIT ( * ) PLANE_ANGLE_UNIT ( ) SI_UNIT ( $, .RADIAN. ) );
#78 = SURFACE_STYLE_FILL_AREA ( #100 ) ;
#79 = LINE ( 'NONE', #296, #172 ) ;
#80 = SURFACE_STYLE_USAGE ( .BOTH. , #224 ) ;
#81 = CARTESIAN_POINT ( 'NONE',  ( -0.1875000000000002776, 3.000000000000000444, 0.000000000000000000 ) ) ;
#82 = PRODUCT_DEFINITION_SHAPE ( 'NONE', 'NONE',  #150 ) ;
#83 = FACE_OUTER_BOUND ( 'NONE', #306, .T. ) ;
#84 = DIRECTION ( 'NONE',  ( 0.000000000000000000, 0.000000000000000000, -1.000000000000000000 ) ) ;
#85 = FILL_AREA_STYLE_COLOUR ( '', #255 ) ;
#86 = CIRCLE ( 'NONE', #264, 0.1875000000000000278 ) ;
#87 = CYLINDRICAL_SURFACE ( 'NONE', #76, 0.1875000000000000833 ) ;
#88 = CARTESIAN_POINT ( 'NONE',  ( 0.000000000000000000, 0.000000000000000000, 0.000000000000000000 ) ) ;
#89 = CARTESIAN_POINT ( 'NONE',  ( 0.000000000000000000, 0.000000000000000000, -0.1875000000000000278 ) ) ;
#90 = DIRECTION ( 'NONE',  ( -6.997981709413449187E-17, 1.000000000000000000, -0.000000000000000000 ) ) ;
#91 = EDGE_LOOP ( 'NONE', ( #96, #265, #263, #219 ) ) ;
#92 = EDGE_CURVE ( 'NONE', #218, #191, #294, .T. ) ;
#93 = FACE_OUTER_BOUND ( 'NONE', #120, .T. ) ;
#94 = LENGTH_MEASURE_WITH_UNIT ( LENGTH_MEASURE( 0.02539999999999999897 ), #45 );
#95 = MECHANICAL_DESIGN_GEOMETRIC_PRESENTATION_REPRESENTATION (  '', ( #24 ), #245 ) ;
#96 = ORIENTED_EDGE ( 'NONE', *, *, #92, .T. ) ;
#97 = ORIENTED_EDGE ( 'NONE', *, *, #214, .F. ) ;
#98 = MANIFOLD_SOLID_BREP ( 'Revolve - Tool Body (Straight Shanked)', #217 ) ;
#99 = MANIFOLD_SOLID_BREP ( 'Revolve - Cutting Edge', #64 ) ;
#100 = FILL_AREA_STYLE ('',( #131 ) ) ;
#101 = ADVANCED_BREP_SHAPE_REPRESENTATION ( '30347', ( #99, #98, #228 ), #46 ) ;
#102 = SURFACE_STYLE_FILL_AREA ( #69 ) ;
#103 = EDGE_CURVE ( 'NONE', #191, #218, #86, .T. ) ;
#104 = CARTESIAN_POINT ( 'NONE',  ( 0.000000000000000000, 0.000000000000000000, 0.000000000000000000 ) ) ;
#105 = SURFACE_STYLE_FILL_AREA ( #250 ) ;
#106 =( GEOMETRIC_REPRESENTATION_CONTEXT ( 3 ) GLOBAL_UNCERTAINTY_ASSIGNED_CONTEXT ( ( #176 ) ) GLOBAL_UNIT_ASSIGNED_CONTEXT ( ( #195, #77, #107 ) ) REPRESENTATION_CONTEXT ( 'NONE', 'WORKASPACE' ) );
#107 =( NAMED_UNIT ( * ) SI_UNIT ( $, .STERADIAN. ) SOLID_ANGLE_UNIT ( ) );
#108 = EDGE_CURVE ( 'NONE', #267, #47, #79, .T. ) ;
#109 = PRESENTATION_LAYER_ASSIGNMENT (  '', '', ( #196 ) ) ;
#110 = UNCERTAINTY_MEASURE_WITH_UNIT (LENGTH_MEASURE( 1.000000000000000082E-05 ), #160, 'distance_accuracy_value', 'NONE');
#111 = DIRECTION ( 'NONE',  ( -1.000000000000000000, -6.997981709413449187E-17, 0.000000000000000000 ) ) ;
#112 =( GEOMETRIC_REPRESENTATION_CONTEXT ( 3 ) GLOBAL_UNCERTAINTY_ASSIGNED_CONTEXT ( ( #189 ) ) GLOBAL_UNIT_ASSIGNED_CONTEXT ( ( #232, #252, #28 ) ) REPRESENTATION_CONTEXT ( 'NONE', 'WORKASPACE' ) );
#113 = DIRECTION ( 'NONE',  ( 0.000000000000000000, 0.000000000000000000, -1.000000000000000000 ) ) ;
#114 =( NAMED_UNIT ( * ) PLANE_ANGLE_UNIT ( ) SI_UNIT ( $, .RADIAN. ) );
#115 = STYLED_ITEM ( 'NONE', ( #31 ), #99 ) ;
#116 = VERTEX_POINT ( 'NONE', #81 ) ;
#117 = LINE ( 'NONE', #258, #169 ) ;
#118 = ADVANCED_FACE ( 'NONE', ( #129 ), #254, .T. ) ;
#119 = PRESENTATION_LAYER_ASSIGNMENT (  '', '', ( #24 ) ) ;
#120 = EDGE_LOOP ( 'NONE', ( #41, #163, #18, #239 ) ) ;
#121 = AXIS2_PLACEMENT_3D ( 'NONE', #165, #220, #162 ) ;
#122 = DIRECTION ( 'NONE',  ( -1.000000000000000000, 0.000000000000000000, 0.000000000000000000 ) ) ;
#123 = APPLICATION_CONTEXT ( 'automotive_design' ) ;
#124 =( NAMED_UNIT ( * ) PLANE_ANGLE_UNIT ( ) SI_UNIT ( $, .RADIAN. ) );
#125 = CIRCLE ( 'NONE', #273, 0.1875000000000001388 ) ;
#126 = EDGE_CURVE ( 'NONE', #192, #141, #266, .T. ) ;
#127 = PRESENTATION_LAYER_ASSIGNMENT (  '', '', ( #142 ) ) ;
#128 =( NAMED_UNIT ( * ) SI_UNIT ( $, .STERADIAN. ) SOLID_ANGLE_UNIT ( ) );
#129 = FACE_OUTER_BOUND ( 'NONE', #67, .T. ) ;
#130 = PRODUCT ( '30347', '30347', '', ( #32 ) ) ;
#131 = FILL_AREA_STYLE_COLOUR ( '', #209 ) ;
#132 = AXIS2_PLACEMENT_3D ( 'NONE', #240, #274, #139 ) ;
#133 = DIRECTION ( 'NONE',  ( -6.997981709413449187E-17, 1.000000000000000000, -0.000000000000000000 ) ) ;
#134 = UNCERTAINTY_MEASURE_WITH_UNIT (LENGTH_MEASURE( 1.000000000000000082E-05 ), #70, 'distance_accuracy_value', 'NONE');
#135 = CARTESIAN_POINT ( 'NONE',  ( -1.224646799147353700E-16, 3.000000000000000444, 0.000000000000000000 ) ) ;
#136 = DIRECTION ( 'NONE',  ( -0.000000000000000000, -1.000000000000000000, -0.000000000000000000 ) ) ;
#137 = PRESENTATION_STYLE_ASSIGNMENT (( #37 ) ) ;
#138 = DIRECTION ( 'NONE',  ( -0.000000000000000000, -1.000000000000000000, -0.000000000000000000 ) ) ;
#139 = DIRECTION ( 'NONE',  ( 0.000000000000000000, 0.000000000000000000, -1.000000000000000000 ) ) ;
#140 = PRODUCT_RELATED_PRODUCT_CATEGORY ( 'part', '', ( #130 ) ) ;
#141 = VERTEX_POINT ( 'NONE', #35 ) ;
#142 = STYLED_ITEM ( 'NONE', ( #152 ), #118 ) ;
#143 = ADVANCED_FACE ( 'NONE', ( #238 ), #13, .T. ) ;
#144 = EDGE_LOOP ( 'NONE', ( #261, #289, #243, #15 ) ) ;
#145 = DIRECTION ( 'NONE',  ( -6.997981709413449187E-17, 1.000000000000000000, -0.000000000000000000 ) ) ;
#146 = PLANE ( 'NONE',  #148 ) ;
#147 = PLANE ( 'NONE',  #50 ) ;
#148 = AXIS2_PLACEMENT_3D ( 'NONE', #104, #248, #168 ) ;
#149 =( LENGTH_UNIT ( ) NAMED_UNIT ( * ) SI_UNIT ( $, .METRE. ) );
#150 = PRODUCT_DEFINITION ( 'UNKNOWN', '', #305, #300 ) ;
#151 =( NAMED_UNIT ( * ) PLANE_ANGLE_UNIT ( ) SI_UNIT ( $, .RADIAN. ) );
#152 = PRESENTATION_STYLE_ASSIGNMENT (( #57 ) ) ;
#153 = FILL_AREA_STYLE ('',( #298 ) ) ;
#154 = SURFACE_SIDE_STYLE ('',( #105 ) ) ;
#155 = EDGE_CURVE ( 'NONE', #218, #141, #303, .T. ) ;
#156 = SURFACE_STYLE_USAGE ( .BOTH. , #259 ) ;
#157 = FACE_OUTER_BOUND ( 'NONE', #288, .T. ) ;
#158 = CARTESIAN_POINT ( 'NONE',  ( 0.000000000000000000, 0.000000000000000000, 0.000000000000000000 ) ) ;
#159 = DIRECTION ( 'NONE',  ( -0.000000000000000000, -1.000000000000000000, -0.000000000000000000 ) ) ;
#160 =( CONVERSION_BASED_UNIT ( 'INCH', #42 ) LENGTH_UNIT ( ) NAMED_UNIT ( #207 ) );
#161 = ORIENTED_EDGE ( 'NONE', *, *, #53, .F. ) ;
#162 = DIRECTION ( 'NONE',  ( -1.000000000000000000, 0.000000000000000000, 0.000000000000000000 ) ) ;
#163 = ORIENTED_EDGE ( 'NONE', *, *, #103, .T. ) ;
#164 = COLOUR_RGB ( '',1.000000000000000000, 0.000000000000000000, 0.000000000000000000 ) ;
#165 = CARTESIAN_POINT ( 'NONE',  ( 0.000000000000000000, 1.250000000000000000, 0.000000000000000000 ) ) ;
#166 =( CONVERSION_BASED_UNIT ( 'INCH', #1 ) LENGTH_UNIT ( ) NAMED_UNIT ( #229 ) );
#167 = ADVANCED_FACE ( 'NONE', ( #157 ), #63, .F. ) ;
#168 = DIRECTION ( 'NONE',  ( 0.000000000000000000, 0.000000000000000000, -1.000000000000000000 ) ) ;
#169 = VECTOR ( 'NONE', #304, 39.37007874015748143 ) ;
#170 = CARTESIAN_POINT ( 'NONE',  ( 0.1875000000000000278, 3.000000000000000444, 0.000000000000000000 ) ) ;
#171 = AXIS2_PLACEMENT_3D ( 'NONE', #270, #138, #84 ) ;
#172 = VECTOR ( 'NONE', #133, 39.37007874015748143 ) ;
#173 = DIMENSIONAL_EXPONENTS ( 1.000000000000000000, 0.000000000000000000, 0.000000000000000000, 0.000000000000000000, 0.000000000000000000, 0.000000000000000000, 0.000000000000000000 ) ;
#174 = DIRECTION ( 'NONE',  ( 0.000000000000000000, 0.000000000000000000, -1.000000000000000000 ) ) ;
#175 = APPLICATION_CONTEXT ( 'automotive_design' ) ;
#176 = UNCERTAINTY_MEASURE_WITH_UNIT (LENGTH_MEASURE( 1.000000000000000082E-05 ), #195, 'distance_accuracy_value', 'NONE');
#177 = FILL_AREA_STYLE ('',( #85 ) ) ;
#178 = DIMENSIONAL_EXPONENTS ( 1.000000000000000000, 0.000000000000000000, 0.000000000000000000, 0.000000000000000000, 0.000000000000000000, 0.000000000000000000, 0.000000000000000000 ) ;
#179 = EDGE_CURVE ( 'NONE', #191, #192, #256, .T. ) ;
#180 = CARTESIAN_POINT ( 'NONE',  ( -1.224646799147353700E-16, 3.000000000000000444, 0.000000000000000000 ) ) ;
#181 = DIMENSIONAL_EXPONENTS ( 1.000000000000000000, 0.000000000000000000, 0.000000000000000000, 0.000000000000000000, 0.000000000000000000, 0.000000000000000000, 0.000000000000000000 ) ;
#182 = CARTESIAN_POINT ( 'NONE',  ( -1.224646799147353700E-16, 3.000000000000000444, 0.000000000000000000 ) ) ;
#183 = CARTESIAN_POINT ( 'NONE',  ( 4.591101375495486296E-34, 1.250000000000000000, 0.000000000000000000 ) ) ;
#184 = DIMENSIONAL_EXPONENTS ( 1.000000000000000000, 0.000000000000000000, 0.000000000000000000, 0.000000000000000000, 0.000000000000000000, 0.000000000000000000, 0.000000000000000000 ) ;
#185 = CIRCLE ( 'NONE', #65, 0.1875000000000001388 ) ;
#186 = DIRECTION ( 'NONE',  ( -6.997981709413449187E-17, 1.000000000000000000, 0.000000000000000000 ) ) ;
#187 = ORIENTED_EDGE ( 'NONE', *, *, #103, .F. ) ;
#188 = CYLINDRICAL_SURFACE ( 'NONE', #2, 0.1875000000000000278 ) ;
#189 = UNCERTAINTY_MEASURE_WITH_UNIT (LENGTH_MEASURE( 1.000000000000000082E-05 ), #232, 'distance_accuracy_value', 'NONE');
#190 = COLOUR_RGB ( '',1.000000000000000000, 0.000000000000000000, 0.000000000000000000 ) ;
#191 = VERTEX_POINT ( 'NONE', #211 ) ;
#192 = VERTEX_POINT ( 'NONE', #302 ) ;
#193 = PRESENTATION_LAYER_ASSIGNMENT (  '', '', ( #115 ) ) ;
#194 = DIRECTION ( 'NONE',  ( 0.000000000000000000, 0.000000000000000000, -1.000000000000000000 ) ) ;
#195 =( CONVERSION_BASED_UNIT ( 'INCH', #56 ) LENGTH_UNIT ( ) NAMED_UNIT ( #181 ) );
#196 = STYLED_ITEM ( 'NONE', ( #6 ), #72 ) ;
#197 = UNCERTAINTY_MEASURE_WITH_UNIT (LENGTH_MEASURE( 1.000000000000000082E-05 ), #11, 'distance_accuracy_value', 'NONE');
#198 = CARTESIAN_POINT ( 'NONE',  ( 0.000000000000000000, 0.000000000000000000, 0.000000000000000000 ) ) ;
#199 = CARTESIAN_POINT ( 'NONE',  ( 0.000000000000000000, 1.250000000000000000, 0.000000000000000000 ) ) ;
#200 = DIMENSIONAL_EXPONENTS ( 1.000000000000000000, 0.000000000000000000, 0.000000000000000000, 0.000000000000000000, 0.000000000000000000, 0.000000000000000000, 0.000000000000000000 ) ;
#201 =( NAMED_UNIT ( * ) SI_UNIT ( $, .STERADIAN. ) SOLID_ANGLE_UNIT ( ) );
#202 = AXIS2_PLACEMENT_3D ( 'NONE', #198, #272, #174 ) ;
#203 = DIRECTION ( 'NONE',  ( -6.997981709413449187E-17, 1.000000000000000000, -0.000000000000000000 ) ) ;
#204 =( LENGTH_UNIT ( ) NAMED_UNIT ( * ) SI_UNIT ( $, .METRE. ) );
#205 = DIRECTION ( 'NONE',  ( -6.997981709413449187E-17, 1.000000000000000000, -0.000000000000000000 ) ) ;
#206 = CARTESIAN_POINT ( 'NONE',  ( -1.224646799147353700E-16, 3.000000000000000444, 0.000000000000000000 ) ) ;
#207 = DIMENSIONAL_EXPONENTS ( 1.000000000000000000, 0.000000000000000000, 0.000000000000000000, 0.000000000000000000, 0.000000000000000000, 0.000000000000000000, 0.000000000000000000 ) ;
#208 = FACE_OUTER_BOUND ( 'NONE', #283, .T. ) ;
#209 = COLOUR_RGB ( '',1.000000000000000000, 0.000000000000000000, 0.000000000000000000 ) ;
#210 = ORIENTED_EDGE ( 'NONE', *, *, #53, .T. ) ;
#211 = CARTESIAN_POINT ( 'NONE',  ( 2.296212748401287726E-17, 1.250000000000000000, 0.1875000000000000278 ) ) ;
#212 = MECHANICAL_DESIGN_GEOMETRIC_PRESENTATION_REPRESENTATION (  '', ( #142 ), #112 ) ;
#213 = ORIENTED_EDGE ( 'NONE', *, *, #242, .T. ) ;
#214 = EDGE_CURVE ( 'NONE', #307, #116, #117, .T. ) ;
#215 = ORIENTED_EDGE ( 'NONE', *, *, #92, .F. ) ;
#216 =( NAMED_UNIT ( * ) PLANE_ANGLE_UNIT ( ) SI_UNIT ( $, .RADIAN. ) );
#217 = CLOSED_SHELL ( 'NONE', ( #247, #167, #143, #25 ) ) ;
#218 = VERTEX_POINT ( 'NONE', #262 ) ;
#219 = ORIENTED_EDGE ( 'NONE', *, *, #155, .F. ) ;
#220 = DIRECTION ( 'NONE',  ( -6.997981709413449187E-17, 1.000000000000000000, -0.000000000000000000 ) ) ;
#221 = SURFACE_STYLE_USAGE ( .BOTH. , #27 ) ;
#222 =( GEOMETRIC_REPRESENTATION_CONTEXT ( 3 ) GLOBAL_UNCERTAINTY_ASSIGNED_CONTEXT ( ( #225 ) ) GLOBAL_UNIT_ASSIGNED_CONTEXT ( ( #246, #124, #293 ) ) REPRESENTATION_CONTEXT ( 'NONE', 'WORKASPACE' ) );
#223 =( LENGTH_UNIT ( ) NAMED_UNIT ( * ) SI_UNIT ( $, .METRE. ) );
#224 = SURFACE_SIDE_STYLE ('',( #78 ) ) ;
#225 = UNCERTAINTY_MEASURE_WITH_UNIT (LENGTH_MEASURE( 1.000000000000000082E-05 ), #246, 'distance_accuracy_value', 'NONE');
#226 = FACE_OUTER_BOUND ( 'NONE', #309, .T. ) ;
#227 = FILL_AREA_STYLE_COLOUR ( '', #3 ) ;
#228 = AXIS2_PLACEMENT_3D ( 'NONE', #88, #38, #231 ) ;
#229 = DIMENSIONAL_EXPONENTS ( 1.000000000000000000, 0.000000000000000000, 0.000000000000000000, 0.000000000000000000, 0.000000000000000000, 0.000000000000000000, 0.000000000000000000 ) ;
#230 = DIRECTION ( 'NONE',  ( -0.000000000000000000, -1.000000000000000000, -0.000000000000000000 ) ) ;
#231 = DIRECTION ( 'NONE',  ( 1.000000000000000000, 0.000000000000000000, 0.000000000000000000 ) ) ;
#232 =( CONVERSION_BASED_UNIT ( 'INCH', #30 ) LENGTH_UNIT ( ) NAMED_UNIT ( #200 ) );
#233 = SURFACE_STYLE_FILL_AREA ( #153 ) ;
#234 = ADVANCED_FACE ( 'NONE', ( #16 ), #260, .T. ) ;
#235 = PRESENTATION_LAYER_ASSIGNMENT (  '', '', ( #22 ) ) ;
#236 = SURFACE_STYLE_FILL_AREA ( #60 ) ;
#237 = FILL_AREA_STYLE_COLOUR ( '', #164 ) ;
#238 = FACE_OUTER_BOUND ( 'NONE', #144, .T. ) ;
#239 = ORIENTED_EDGE ( 'NONE', *, *, #126, .F. ) ;
#240 = CARTESIAN_POINT ( 'NONE',  ( 0.000000000000000000, 0.000000000000000000, 0.000000000000000000 ) ) ;
#241 = CIRCLE ( 'NONE', #308, 0.1875000000000000278 ) ;
#242 = EDGE_CURVE ( 'NONE', #47, #116, #185, .T. ) ;
#243 = ORIENTED_EDGE ( 'NONE', *, *, #214, .T. ) ;
#244 = ORIENTED_EDGE ( 'NONE', *, *, #51, .T. ) ;
#245 =( GEOMETRIC_REPRESENTATION_CONTEXT ( 3 ) GLOBAL_UNCERTAINTY_ASSIGNED_CONTEXT ( ( #34 ) ) GLOBAL_UNIT_ASSIGNED_CONTEXT ( ( #166, #151, #128 ) ) REPRESENTATION_CONTEXT ( 'NONE', 'WORKASPACE' ) );
#246 =( CONVERSION_BASED_UNIT ( 'INCH', #278 ) LENGTH_UNIT ( ) NAMED_UNIT ( #173 ) );
#247 = ADVANCED_FACE ( 'NONE', ( #208 ), #87, .T. ) ;
#248 = DIRECTION ( 'NONE',  ( 0.000000000000000000, -1.000000000000000000, -0.000000000000000000 ) ) ;
#249 = DIRECTION ( 'NONE',  ( 0.000000000000000000, 1.000000000000000000, 0.000000000000000000 ) ) ;
#250 = FILL_AREA_STYLE ('',( #227 ) ) ;
#251 =( NAMED_UNIT ( * ) SI_UNIT ( $, .STERADIAN. ) SOLID_ANGLE_UNIT ( ) );
#252 =( NAMED_UNIT ( * ) PLANE_ANGLE_UNIT ( ) SI_UNIT ( $, .RADIAN. ) );
#253 = DIRECTION ( 'NONE',  ( 1.000000000000000000, 6.997981709413449187E-17, 0.000000000000000000 ) ) ;
#254 = PLANE ( 'NONE',  #277 ) ;
#255 = COLOUR_RGB ( '',0.7921568627450980005, 0.8196078431372548767, 0.9333333333333333481 ) ;
#256 = LINE ( 'NONE', #281, #73 ) ;
#257 = SHAPE_DEFINITION_REPRESENTATION ( #82, #101 ) ;
#258 = CARTESIAN_POINT ( 'NONE',  ( -0.1875000000000002220, 3.000000000000000444, 0.000000000000000000 ) ) ;
#259 = SURFACE_SIDE_STYLE ('',( #58 ) ) ;
#260 = CYLINDRICAL_SURFACE ( 'NONE', #132, 0.1875000000000000278 ) ;
#261 = ORIENTED_EDGE ( 'NONE', *, *, #108, .F. ) ;
#262 = CARTESIAN_POINT ( 'NONE',  ( 0.000000000000000000, 1.250000000000000000, -0.1875000000000000278 ) ) ;
#263 = ORIENTED_EDGE ( 'NONE', *, *, #51, .F. ) ;
#264 = AXIS2_PLACEMENT_3D ( 'NONE', #29, #230, #292 ) ;
#265 = ORIENTED_EDGE ( 'NONE', *, *, #179, .T. ) ;
#266 = CIRCLE ( 'NONE', #40, 0.1875000000000000278 ) ;
#267 = VERTEX_POINT ( 'NONE', #61 ) ;
#268 = CARTESIAN_POINT ( 'NONE',  ( 0.000000000000000000, 1.250000000000000000, 0.000000000000000000 ) ) ;
#269 = CARTESIAN_POINT ( 'NONE',  ( -0.1875000000000000278, 1.250000000000000000, 0.000000000000000000 ) ) ;
#270 = CARTESIAN_POINT ( 'NONE',  ( 0.000000000000000000, 1.250000000000000000, 0.000000000000000000 ) ) ;
#271 = EDGE_CURVE ( 'NONE', #116, #47, #125, .T. ) ;
#272 = DIRECTION ( 'NONE',  ( -0.000000000000000000, -1.000000000000000000, -0.000000000000000000 ) ) ;
#273 = AXIS2_PLACEMENT_3D ( 'NONE', #182, #279, #284 ) ;
#274 = DIRECTION ( 'NONE',  ( -0.000000000000000000, -1.000000000000000000, -0.000000000000000000 ) ) ;
#275 = DIRECTION ( 'NONE',  ( -1.000000000000000000, 0.000000000000000000, 0.000000000000000000 ) ) ;
#276 = VECTOR ( 'NONE', #136, 39.37007874015748143 ) ;
#277 = AXIS2_PLACEMENT_3D ( 'NONE', #199, #249, #5 ) ;
#278 = LENGTH_MEASURE_WITH_UNIT ( LENGTH_MEASURE( 0.02539999999999999897 ), #291 );
#279 = DIRECTION ( 'NONE',  ( -6.997981709413449187E-17, 1.000000000000000000, -0.000000000000000000 ) ) ;
#280 = MECHANICAL_DESIGN_GEOMETRIC_PRESENTATION_REPRESENTATION (  '', ( #22 ), #75 ) ;
#281 = CARTESIAN_POINT ( 'NONE',  ( 2.296212748401287726E-17, 0.000000000000000000, 0.1875000000000000278 ) ) ;
#282 =( NAMED_UNIT ( * ) PLANE_ANGLE_UNIT ( ) SI_UNIT ( $, .RADIAN. ) );
#283 = EDGE_LOOP ( 'NONE', ( #210, #19, #21, #97 ) ) ;
#284 = DIRECTION ( 'NONE',  ( -1.000000000000000000, 0.000000000000000000, 0.000000000000000000 ) ) ;
#285 = FILL_AREA_STYLE_COLOUR ( '', #190 ) ;
#286 = CIRCLE ( 'NONE', #202, 0.1875000000000000278 ) ;
#287 = EDGE_CURVE ( 'NONE', #267, #307, #17, .T. ) ;
#288 = EDGE_LOOP ( 'NONE', ( #161, #49 ) ) ;
#289 = ORIENTED_EDGE ( 'NONE', *, *, #287, .T. ) ;
#290 = MECHANICAL_DESIGN_GEOMETRIC_PRESENTATION_REPRESENTATION (  '', ( #68 ), #52 ) ;
#291 =( LENGTH_UNIT ( ) NAMED_UNIT ( * ) SI_UNIT ( $, .METRE. ) );
#292 = DIRECTION ( 'NONE',  ( 0.000000000000000000, 0.000000000000000000, -1.000000000000000000 ) ) ;
#293 =( NAMED_UNIT ( * ) SI_UNIT ( $, .STERADIAN. ) SOLID_ANGLE_UNIT ( ) );
#294 = CIRCLE ( 'NONE', #171, 0.1875000000000000278 ) ;
#295 = DIRECTION ( 'NONE',  ( 6.997981709413449187E-17, -1.000000000000000000, 0.000000000000000000 ) ) ;
#296 = CARTESIAN_POINT ( 'NONE',  ( 0.1874999999999999445, 3.000000000000000444, 2.296212748401288342E-17 ) ) ;
#297 = LENGTH_MEASURE_WITH_UNIT ( LENGTH_MEASURE( 0.02539999999999999897 ), #204 );
#298 = FILL_AREA_STYLE_COLOUR ( '', #14 ) ;
#299 = DIRECTION ( 'NONE',  ( -1.000000000000000000, 0.000000000000000000, 0.000000000000000000 ) ) ;
#300 = PRODUCT_DEFINITION_CONTEXT ( 'detailed design', #175, 'design' ) ;
#301 = APPLICATION_PROTOCOL_DEFINITION ( 'draft international standard', 'automotive_design', 1998, #175 ) ;
#302 = CARTESIAN_POINT ( 'NONE',  ( 2.296212748401287726E-17, 0.000000000000000000, 0.1875000000000000278 ) ) ;
#303 = LINE ( 'NONE', #89, #276 ) ;
#304 = DIRECTION ( 'NONE',  ( -6.997981709413449187E-17, 1.000000000000000000, -0.000000000000000000 ) ) ;
#305 = PRODUCT_DEFINITION_FORMATION_WITH_SPECIFIED_SOURCE ( 'ANY', '', #130, .NOT_KNOWN. ) ;
#306 = EDGE_LOOP ( 'NONE', ( #71, #213 ) ) ;
#307 = VERTEX_POINT ( 'NONE', #269 ) ;
#308 = AXIS2_PLACEMENT_3D ( 'NONE', #268, #145, #122 ) ;
#309 = EDGE_LOOP ( 'NONE', ( #244, #44 ) ) ;
ENDSEC;
END-ISO-10303-21;
