ISO-10303-21;
HEADER;
FILE_DESCRIPTION (( 'STEP AP214' ),
    '1' );
FILE_NAME ('Micro_MMBM-004-3.STEP',
    '2021-09-03T16:21:48',
    ( '' ),
    ( '' ),
    'SwSTEP 2.0',
    'SolidWorks 2020',
    '' );
FILE_SCHEMA (( 'AUTOMOTIVE_DESIGN' ));
ENDSEC;

DATA;
#1 = SHAPE_DEFINITION_REPRESENTATION ( #226, #106 ) ;
#2 = ADVANCED_FACE ( 'NONE', ( #139 ), #135, .T. ) ;
#3 = DIRECTION ( 'NONE',  ( -0.0000000000000000000, -0.0000000000000000000, -1.000000000000000000 ) ) ;
#4 = AXIS2_PLACEMENT_3D ( 'NONE', #159, #130, #282 ) ;
#5 = CARTESIAN_POINT ( 'NONE',  ( -0.007480500000000007976, 0.0000000000000000000, 0.0000000000000000000 ) ) ;
#6 = CARTESIAN_POINT ( 'NONE',  ( 0.0000000000000000000, 0.0000000000000000000, 1.953504000000000129 ) ) ;
#7 = AXIS2_PLACEMENT_3D ( 'NONE', #26, #142, #30 ) ;
#8 = AXIS2_PLACEMENT_3D ( 'NONE', #243, #124, #68 ) ;
#9 = SURFACE_STYLE_USAGE ( .BOTH. , #120 ) ;
#10 = ADVANCED_FACE ( 'NONE', ( #343 ), #334, .T. ) ;
#11 = DIRECTION ( 'NONE',  ( 1.000000000000000000, 0.0000000000000000000, 0.0000000000000000000 ) ) ;
#12 = VERTEX_POINT ( 'NONE', #324 ) ;
#13 = DIRECTION ( 'NONE',  ( 0.0000000000000000000, 0.0000000000000000000, 1.000000000000000000 ) ) ;
#14 = ORIENTED_EDGE ( 'NONE', *, *, #123, .T. ) ;
#15 = CIRCLE ( 'NONE', #113, 0.007873212599999998562 ) ;
#16 = CARTESIAN_POINT ( 'NONE',  ( -0.007480500000000014915, 0.0000000000000000000, 0.1181100000000000066 ) ) ;
#17 = ORIENTED_EDGE ( 'NONE', *, *, #351, .T. ) ;
#18 = CARTESIAN_POINT ( 'NONE',  ( 0.0000000000000000000, 0.0000000000000000000, 1.968503999999999809 ) ) ;
#19 = ORIENTED_EDGE ( 'NONE', *, *, #372, .F. ) ;
#20 = CARTESIAN_POINT ( 'NONE',  ( 0.007873212599999998562, 9.641904609596609667E-19, 0.0000000000000000000 ) ) ;
#21 = DIRECTION ( 'NONE',  ( 0.0000000000000000000, 0.0000000000000000000, -1.000000000000000000 ) ) ;
#22 = CIRCLE ( 'NONE', #238, 0.007480500000000001905 ) ;
#23 = DIRECTION ( 'NONE',  ( -0.0000000000000000000, -0.0000000000000000000, -1.000000000000000000 ) ) ;
#24 = VERTEX_POINT ( 'NONE', #82 ) ;
#25 = DIRECTION ( 'NONE',  ( 1.000000000000000000, 0.0000000000000000000, 0.0000000000000000000 ) ) ;
#26 = CARTESIAN_POINT ( 'NONE',  ( 0.0000000000000000000, 0.0000000000000000000, 0.0000000000000000000 ) ) ;
#27 =( CONVERSION_BASED_UNIT ( 'INCH', #84 ) LENGTH_UNIT ( ) NAMED_UNIT ( #274 ) );
#28 =( LENGTH_UNIT ( ) NAMED_UNIT ( * ) SI_UNIT ( $, .METRE. ) );
#29 = EDGE_CURVE ( 'NONE', #12, #219, #341, .T. ) ;
#30 = DIRECTION ( 'NONE',  ( -1.000000000000000000, 0.0000000000000000000, 0.0000000000000000000 ) ) ;
#31 = LINE ( 'NONE', #214, #147 ) ;
#32 = AXIS2_PLACEMENT_3D ( 'NONE', #33, #325, #275 ) ;
#33 = CARTESIAN_POINT ( 'NONE',  ( 0.0000000000000000000, 0.0000000000000000000, 0.01574800000000000158 ) ) ;
#34 = CARTESIAN_POINT ( 'NONE',  ( 0.07874000000000001831, 9.642868896486260050E-18, 1.968503999999999809 ) ) ;
#35 = EDGE_LOOP ( 'NONE', ( #228, #185, #284, #188 ) ) ;
#36 = VERTEX_POINT ( 'NONE', #179 ) ;
#37 = ADVANCED_FACE ( 'NONE', ( #208 ), #112, .T. ) ;
#38 = DIRECTION ( 'NONE',  ( 1.000000000000000000, 0.0000000000000000000, -0.0000000000000000000 ) ) ;
#39 = ORIENTED_EDGE ( 'NONE', *, *, #351, .F. ) ;
#40 = DIRECTION ( 'NONE',  ( -1.000000000000000000, 0.0000000000000000000, 0.0000000000000000000 ) ) ;
#41 = EDGE_LOOP ( 'NONE', ( #362, #17, #47, #109 ) ) ;
#42 = AXIS2_PLACEMENT_3D ( 'NONE', #358, #299, #217 ) ;
#43 = CIRCLE ( 'NONE', #58, 0.007480500000000014915 ) ;
#44 = APPLICATION_CONTEXT ( 'automotive_design' ) ;
#45 = VECTOR ( 'NONE', #308, 39.37007874015748143 ) ;
#46 = DIRECTION ( 'NONE',  ( -1.000000000000000000, 0.0000000000000000000, 0.0000000000000000000 ) ) ;
#47 = ORIENTED_EDGE ( 'NONE', *, *, #66, .F. ) ;
#48 = FACE_OUTER_BOUND ( 'NONE', #41, .T. ) ;
#49 = DIRECTION ( 'NONE',  ( -0.0000000000000000000, -0.0000000000000000000, -1.000000000000000000 ) ) ;
#50 = DIRECTION ( 'NONE',  ( 0.0000000000000000000, 0.0000000000000000000, 1.000000000000000000 ) ) ;
#51 = FACE_OUTER_BOUND ( 'NONE', #73, .T. ) ;
#52 = PRESENTATION_LAYER_ASSIGNMENT (  '', '', ( #104 ) ) ;
#53 = ORIENTED_EDGE ( 'NONE', *, *, #149, .F. ) ;
#54 = EDGE_CURVE ( 'NONE', #158, #290, #216, .T. ) ;
#55 = EDGE_CURVE ( 'NONE', #171, #12, #133, .T. ) ;
#56 = DIRECTION ( 'NONE',  ( 1.000000000000000000, 0.0000000000000000000, 0.0000000000000000000 ) ) ;
#57 = AXIS2_PLACEMENT_3D ( 'NONE', #350, #21, #201 ) ;
#58 = AXIS2_PLACEMENT_3D ( 'NONE', #280, #157, #257 ) ;
#59 = EDGE_CURVE ( 'NONE', #360, #331, #146, .T. ) ;
#60 = EDGE_LOOP ( 'NONE', ( #261, #337 ) ) ;
#61 = DIRECTION ( 'NONE',  ( -1.000000000000000000, 0.0000000000000000000, 0.0000000000000000000 ) ) ;
#62 = LINE ( 'NONE', #125, #297 ) ;
#63 = EDGE_CURVE ( 'NONE', #331, #171, #161, .T. ) ;
#64 = AXIS2_PLACEMENT_3D ( 'NONE', #132, #13, #97 ) ;
#65 = CIRCLE ( 'NONE', #227, 0.007873212599999998562 ) ;
#66 = EDGE_CURVE ( 'NONE', #24, #360, #22, .T. ) ;
#67 = ORIENTED_EDGE ( 'NONE', *, *, #66, .T. ) ;
#68 = DIRECTION ( 'NONE',  ( -1.000000000000000000, 0.0000000000000000000, 0.0000000000000000000 ) ) ;
#69 = VERTEX_POINT ( 'NONE', #88 ) ;
#70 = ADVANCED_FACE ( 'NONE', ( #254 ), #288, .T. ) ;
#71 = DIRECTION ( 'NONE',  ( -1.000000000000000000, 0.0000000000000000000, 0.0000000000000000000 ) ) ;
#72 = DIMENSIONAL_EXPONENTS ( 1.000000000000000000, 0.0000000000000000000, 0.0000000000000000000, 0.0000000000000000000, 0.0000000000000000000, 0.0000000000000000000, 0.0000000000000000000 ) ;
#73 = EDGE_LOOP ( 'NONE', ( #193, #198, #53, #94 ) ) ;
#74 = CARTESIAN_POINT ( 'NONE',  ( 0.0000000000000000000, 0.0000000000000000000, 0.01797518382871478304 ) ) ;
#75 = ADVANCED_FACE ( 'NONE', ( #51 ), #209, .T. ) ;
#76 = ORIENTED_EDGE ( 'NONE', *, *, #63, .F. ) ;
#77 = CARTESIAN_POINT ( 'NONE',  ( 0.0000000000000000000, 0.0000000000000000000, 0.0000000000000000000 ) ) ;
#78 = DIRECTION ( 'NONE',  ( -0.0000000000000000000, -0.0000000000000000000, -1.000000000000000000 ) ) ;
#79 = FACE_OUTER_BOUND ( 'NONE', #60, .T. ) ;
#80 = DIRECTION ( 'NONE',  ( -1.000000000000000000, 0.0000000000000000000, 0.0000000000000000000 ) ) ;
#81 = SURFACE_STYLE_FILL_AREA ( #203 ) ;
#82 = CARTESIAN_POINT ( 'NONE',  ( -0.007480500000000001905, 0.0000000000000000000, 0.01797518382871478304 ) ) ;
#83 = PRODUCT_DEFINITION_FORMATION_WITH_SPECIFIED_SOURCE ( 'ANY', '', #352, .NOT_KNOWN. ) ;
#84 = LENGTH_MEASURE_WITH_UNIT ( LENGTH_MEASURE( 0.02539999999999999897 ), #175 );
#85 = ADVANCED_FACE ( 'NONE', ( #336 ), #363, .T. ) ;
#86 = AXIS2_PLACEMENT_3D ( 'NONE', #339, #194, #71 ) ;
#87 = DIRECTION ( 'NONE',  ( -1.000000000000000000, 0.0000000000000000000, 0.0000000000000000000 ) ) ;
#88 = CARTESIAN_POINT ( 'NONE',  ( 0.007480500000000014915, 9.160970381021795179E-19, 0.1181100000000000066 ) ) ;
#89 = CARTESIAN_POINT ( 'NONE',  ( 0.0000000000000000000, 0.0000000000000000000, 0.0000000000000000000 ) ) ;
#90 = DIRECTION ( 'NONE',  ( -0.0000000000000000000, -0.0000000000000000000, -1.000000000000000000 ) ) ;
#91 = MECHANICAL_DESIGN_GEOMETRIC_PRESENTATION_REPRESENTATION (  '', ( #302 ), #251 ) ;
#92 = UNCERTAINTY_MEASURE_WITH_UNIT (LENGTH_MEASURE( 1.000000000000000082E-05 ), #332, 'distance_accuracy_value', 'NONE');
#93 = DIRECTION ( 'NONE',  ( -0.0000000000000000000, -0.0000000000000000000, -1.000000000000000000 ) ) ;
#94 = ORIENTED_EDGE ( 'NONE', *, *, #365, .F. ) ;
#95 = DIRECTION ( 'NONE',  ( -0.0000000000000000000, -0.0000000000000000000, -1.000000000000000000 ) ) ;
#96 = MANIFOLD_SOLID_BREP ( 'Cut-Revolve1', #236 ) ;
#97 = DIRECTION ( 'NONE',  ( 1.000000000000000000, 0.0000000000000000000, -0.0000000000000000000 ) ) ;
#98 = EDGE_LOOP ( 'NONE', ( #244, #14 ) ) ;
#99 = EDGE_CURVE ( 'NONE', #281, #290, #62, .T. ) ;
#100 = FACE_OUTER_BOUND ( 'NONE', #98, .T. ) ;
#101 = ORIENTED_EDGE ( 'NONE', *, *, #118, .T. ) ;
#102 = FACE_OUTER_BOUND ( 'NONE', #168, .T. ) ;
#103 = DIRECTION ( 'NONE',  ( -0.0000000000000000000, -0.0000000000000000000, -1.000000000000000000 ) ) ;
#104 = STYLED_ITEM ( 'NONE', ( #259 ), #106 ) ;
#105 = CARTESIAN_POINT ( 'NONE',  ( -0.07874000000000001831, 0.0000000000000000000, 0.1181100000000002287 ) ) ;
#106 = ADVANCED_BREP_SHAPE_REPRESENTATION ( 'Micro_MMBM-004-3', ( #96, #371 ), #218 ) ;
#107 = ORIENTED_EDGE ( 'NONE', *, *, #160, .T. ) ;
#108 = CARTESIAN_POINT ( 'NONE',  ( 0.007480500000000014915, 0.0000000000000000000, 0.1181100000000001315 ) ) ;
#109 = ORIENTED_EDGE ( 'NONE', *, *, #176, .F. ) ;
#110 = DIRECTION ( 'NONE',  ( 0.0000000000000000000, 0.0000000000000000000, 1.000000000000000000 ) ) ;
#111 = EDGE_CURVE ( 'NONE', #24, #171, #359, .T. ) ;
#112 = CYLINDRICAL_SURFACE ( 'NONE', #180, 0.007873212599999998562 ) ;
#113 = AXIS2_PLACEMENT_3D ( 'NONE', #89, #355, #303 ) ;
#114 = AXIS2_PLACEMENT_3D ( 'NONE', #374, #346, #80 ) ;
#115 = AXIS2_PLACEMENT_3D ( 'NONE', #18, #50, #38 ) ;
#116 = EDGE_LOOP ( 'NONE', ( #368, #166 ) ) ;
#117 = DIRECTION ( 'NONE',  ( -0.1736481776669308030, 0.0000000000000000000, -0.9848077530122077983 ) ) ;
#118 = EDGE_CURVE ( 'NONE', #290, #158, #205, .T. ) ;
#119 = AXIS2_PLACEMENT_3D ( 'NONE', #291, #78, #200 ) ;
#120 = SURFACE_SIDE_STYLE ('',( #241 ) ) ;
#121 = COLOUR_RGB ( '',0.7921568627450980005, 0.8196078431372548767, 0.9333333333333333481 ) ;
#122 = ORIENTED_EDGE ( 'NONE', *, *, #260, .F. ) ;
#123 = EDGE_CURVE ( 'NONE', #219, #12, #15, .T. ) ;
#124 = DIRECTION ( 'NONE',  ( -0.0000000000000000000, -0.0000000000000000000, -1.000000000000000000 ) ) ;
#125 = CARTESIAN_POINT ( 'NONE',  ( 0.06374000000000018540, 7.805898697765251255E-18, 1.968503999999999809 ) ) ;
#126 = FACE_BOUND ( 'NONE', #156, .T. ) ;
#127 = AXIS2_PLACEMENT_3D ( 'NONE', #6, #212, #11 ) ;
#128 = ORIENTED_EDGE ( 'NONE', *, *, #99, .F. ) ;
#129 = DIMENSIONAL_EXPONENTS ( 1.000000000000000000, 0.0000000000000000000, 0.0000000000000000000, 0.0000000000000000000, 0.0000000000000000000, 0.0000000000000000000, 0.0000000000000000000 ) ;
#130 = DIRECTION ( 'NONE',  ( 0.0000000000000000000, 0.0000000000000000000, 1.000000000000000000 ) ) ;
#131 = ORIENTED_EDGE ( 'NONE', *, *, #278, .F. ) ;
#132 = CARTESIAN_POINT ( 'NONE',  ( 0.0000000000000000000, 0.0000000000000000000, 0.0000000000000000000 ) ) ;
#133 = LINE ( 'NONE', #207, #326 ) ;
#134 = DIRECTION ( 'NONE',  ( -0.0000000000000000000, -0.0000000000000000000, -1.000000000000000000 ) ) ;
#135 = CYLINDRICAL_SURFACE ( 'NONE', #204, 0.07874000000000001831 ) ;
#136 = VECTOR ( 'NONE', #134, 39.37007874015748143 ) ;
#137 = DIRECTION ( 'NONE',  ( -1.000000000000000000, 0.0000000000000000000, 0.0000000000000000000 ) ) ;
#138 = ADVANCED_FACE ( 'NONE', ( #247 ), #148, .T. ) ;
#139 = FACE_OUTER_BOUND ( 'NONE', #232, .T. ) ;
#140 = PRODUCT_CONTEXT ( 'NONE', #283, 'mechanical' ) ;
#141 = EDGE_CURVE ( 'NONE', #171, #331, #65, .T. ) ;
#142 = DIRECTION ( 'NONE',  ( -0.0000000000000000000, -0.0000000000000000000, -1.000000000000000000 ) ) ;
#143 = AXIS2_PLACEMENT_3D ( 'NONE', #223, #235, #56 ) ;
#144 =( NAMED_UNIT ( * ) PLANE_ANGLE_UNIT ( ) SI_UNIT ( $, .RADIAN. ) );
#145 =( CONVERSION_BASED_UNIT ( 'INCH', #206 ) LENGTH_UNIT ( ) NAMED_UNIT ( #72 ) );
#146 = LINE ( 'NONE', #240, #186 ) ;
#147 = VECTOR ( 'NONE', #329, 39.37007874015748143 ) ;
#148 = CYLINDRICAL_SURFACE ( 'NONE', #8, 0.007873212599999998562 ) ;
#149 = EDGE_CURVE ( 'NONE', #366, #36, #239, .T. ) ;
#150 = DIRECTION ( 'NONE',  ( 0.7071067811865507924, 8.659560562354973534E-17, -0.7071067811865443531 ) ) ;
#151 = LINE ( 'NONE', #34, #174 ) ;
#152 = CARTESIAN_POINT ( 'NONE',  ( 0.0000000000000000000, 0.0000000000000000000, 0.01574800000000000158 ) ) ;
#153 =( GEOMETRIC_REPRESENTATION_CONTEXT ( 3 ) GLOBAL_UNCERTAINTY_ASSIGNED_CONTEXT ( ( #190 ) ) GLOBAL_UNIT_ASSIGNED_CONTEXT ( ( #145, #322, #173 ) ) REPRESENTATION_CONTEXT ( 'NONE', 'WORKASPACE' ) );
#154 = ORIENTED_EDGE ( 'NONE', *, *, #59, .F. ) ;
#155 = PRESENTATION_STYLE_ASSIGNMENT (( #9 ) ) ;
#156 = EDGE_LOOP ( 'NONE', ( #122, #131 ) ) ;
#157 = DIRECTION ( 'NONE',  ( -0.0000000000000000000, -0.0000000000000000000, -1.000000000000000000 ) ) ;
#158 = VERTEX_POINT ( 'NONE', #330 ) ;
#159 = CARTESIAN_POINT ( 'NONE',  ( 0.0000000000000000000, 0.0000000000000000000, 1.968503999999999809 ) ) ;
#160 = EDGE_CURVE ( 'NONE', #273, #158, #31, .T. ) ;
#161 = CIRCLE ( 'NONE', #378, 0.007873212599999998562 ) ;
#162 = AXIS2_PLACEMENT_3D ( 'NONE', #229, #344, #199 ) ;
#163 = DIRECTION ( 'NONE',  ( -1.000000000000000000, 0.0000000000000000000, 0.0000000000000000000 ) ) ;
#164 = ORIENTED_EDGE ( 'NONE', *, *, #141, .F. ) ;
#165 = CARTESIAN_POINT ( 'NONE',  ( 0.007480500000000001905, 9.401437495309192793E-19, 0.01797518382871478304 ) ) ;
#166 = ORIENTED_EDGE ( 'NONE', *, *, #319, .T. ) ;
#167 = DIRECTION ( 'NONE',  ( -0.0000000000000000000, 0.0000000000000000000, -1.000000000000000000 ) ) ;
#168 = EDGE_LOOP ( 'NONE', ( #39, #286, #224, #221 ) ) ;
#169 = AXIS2_PLACEMENT_3D ( 'NONE', #250, #253, #364 ) ;
#170 = APPLICATION_PROTOCOL_DEFINITION ( 'draft international standard', 'automotive_design', 1998, #283 ) ;
#171 = VERTEX_POINT ( 'NONE', #361 ) ;
#172 = EDGE_CURVE ( 'NONE', #290, #36, #151, .T. ) ;
#173 =( NAMED_UNIT ( * ) SI_UNIT ( $, .STERADIAN. ) SOLID_ANGLE_UNIT ( ) );
#174 = VECTOR ( 'NONE', #95, 39.37007874015748143 ) ;
#175 =( LENGTH_UNIT ( ) NAMED_UNIT ( * ) SI_UNIT ( $, .METRE. ) );
#176 = EDGE_CURVE ( 'NONE', #178, #24, #268, .T. ) ;
#177 = CARTESIAN_POINT ( 'NONE',  ( 0.0000000000000000000, 0.0000000000000000000, 0.0000000000000000000 ) ) ;
#178 = VERTEX_POINT ( 'NONE', #16 ) ;
#179 = CARTESIAN_POINT ( 'NONE',  ( 0.07874000000000001831, 9.642868896486260050E-18, 0.1181100000000002287 ) ) ;
#180 = AXIS2_PLACEMENT_3D ( 'NONE', #237, #49, #61 ) ;
#181 = VECTOR ( 'NONE', #287, 39.37007874015748143 ) ;
#182 = CARTESIAN_POINT ( 'NONE',  ( 0.0000000000000000000, 0.0000000000000000000, 0.1181100000000002287 ) ) ;
#183 =( NAMED_UNIT ( * ) PLANE_ANGLE_UNIT ( ) SI_UNIT ( $, .RADIAN. ) );
#184 = FILL_AREA_STYLE_COLOUR ( '', #263 ) ;
#185 = ORIENTED_EDGE ( 'NONE', *, *, #328, .T. ) ;
#186 = VECTOR ( 'NONE', #315, 39.37007874015748854 ) ;
#187 =( LENGTH_UNIT ( ) NAMED_UNIT ( * ) SI_UNIT ( $, .METRE. ) );
#188 = ORIENTED_EDGE ( 'NONE', *, *, #55, .F. ) ;
#189 = CARTESIAN_POINT ( 'NONE',  ( 0.06374000000000018540, 8.724383797125754882E-18, 1.968503999999999809 ) ) ;
#190 = UNCERTAINTY_MEASURE_WITH_UNIT (LENGTH_MEASURE( 1.000000000000000082E-05 ), #145, 'distance_accuracy_value', 'NONE');
#191 = EDGE_LOOP ( 'NONE', ( #67, #317, #164, #340 ) ) ;
#192 = CARTESIAN_POINT ( 'NONE',  ( 0.007480500000000007976, 9.160970381021785549E-19, 0.0000000000000000000 ) ) ;
#193 = ORIENTED_EDGE ( 'NONE', *, *, #54, .T. ) ;
#194 = DIRECTION ( 'NONE',  ( -0.0000000000000000000, -0.0000000000000000000, -1.000000000000000000 ) ) ;
#195 = AXIS2_PLACEMENT_3D ( 'NONE', #108, #167, #163 ) ;
#196 = ORIENTED_EDGE ( 'NONE', *, *, #55, .T. ) ;
#197 = LINE ( 'NONE', #369, #136 ) ;
#198 = ORIENTED_EDGE ( 'NONE', *, *, #172, .T. ) ;
#199 = DIRECTION ( 'NONE',  ( -1.000000000000000000, 0.0000000000000000000, 0.0000000000000000000 ) ) ;
#200 = DIRECTION ( 'NONE',  ( -1.000000000000000000, 0.0000000000000000000, 0.0000000000000000000 ) ) ;
#201 = DIRECTION ( 'NONE',  ( 1.000000000000000000, 0.0000000000000000000, 0.0000000000000000000 ) ) ;
#202 = PRODUCT_DEFINITION ( 'UNKNOWN', '', #83, #309 ) ;
#203 = FILL_AREA_STYLE ('',( #349 ) ) ;
#204 = AXIS2_PLACEMENT_3D ( 'NONE', #377, #318, #348 ) ;
#205 = CIRCLE ( 'NONE', #127, 0.07874000000000001831 ) ;
#206 = LENGTH_MEASURE_WITH_UNIT ( LENGTH_MEASURE( 0.02539999999999999897 ), #28 );
#207 = CARTESIAN_POINT ( 'NONE',  ( -0.007873212599999998562, 0.0000000000000000000, 0.0000000000000000000 ) ) ;
#208 = FACE_OUTER_BOUND ( 'NONE', #35, .T. ) ;
#209 = CYLINDRICAL_SURFACE ( 'NONE', #42, 0.07874000000000001831 ) ;
#210 = AXIS2_PLACEMENT_3D ( 'NONE', #77, #220, #40 ) ;
#211 = DIRECTION ( 'NONE',  ( -1.000000000000000000, 0.0000000000000000000, 0.0000000000000000000 ) ) ;
#212 = DIRECTION ( 'NONE',  ( 0.0000000000000000000, 0.0000000000000000000, -1.000000000000000000 ) ) ;
#213 = ORIENTED_EDGE ( 'NONE', *, *, #319, .F. ) ;
#214 = CARTESIAN_POINT ( 'NONE',  ( -0.06374000000000018540, 0.0000000000000000000, 1.968503999999999809 ) ) ;
#215 = ORIENTED_EDGE ( 'NONE', *, *, #172, .F. ) ;
#216 = CIRCLE ( 'NONE', #57, 0.07874000000000001831 ) ;
#217 = DIRECTION ( 'NONE',  ( -1.000000000000000000, 0.0000000000000000000, 0.0000000000000000000 ) ) ;
#218 =( GEOMETRIC_REPRESENTATION_CONTEXT ( 3 ) GLOBAL_UNCERTAINTY_ASSIGNED_CONTEXT ( ( #304 ) ) GLOBAL_UNIT_ASSIGNED_CONTEXT ( ( #27, #144, #262 ) ) REPRESENTATION_CONTEXT ( 'NONE', 'WORKASPACE' ) );
#219 = VERTEX_POINT ( 'NONE', #20 ) ;
#220 = DIRECTION ( 'NONE',  ( -0.0000000000000000000, -0.0000000000000000000, -1.000000000000000000 ) ) ;
#221 = ORIENTED_EDGE ( 'NONE', *, *, #233, .F. ) ;
#222 = ADVANCED_FACE ( 'NONE', ( #373 ), #327, .T. ) ;
#223 = CARTESIAN_POINT ( 'NONE',  ( 0.0000000000000000000, 0.0000000000000000000, 1.968503999999999809 ) ) ;
#224 = ORIENTED_EDGE ( 'NONE', *, *, #176, .T. ) ;
#225 = CYLINDRICAL_SURFACE ( 'NONE', #86, 0.007480500000000007976 ) ;
#226 = PRODUCT_DEFINITION_SHAPE ( 'NONE', 'NONE',  #202 ) ;
#227 = AXIS2_PLACEMENT_3D ( 'NONE', #152, #93, #356 ) ;
#228 = ORIENTED_EDGE ( 'NONE', *, *, #141, .T. ) ;
#229 = CARTESIAN_POINT ( 'NONE',  ( 0.0000000000000000000, 0.0000000000000000000, 1.968503999999999809 ) ) ;
#230 = ORIENTED_EDGE ( 'NONE', *, *, #233, .T. ) ;
#231 = CARTESIAN_POINT ( 'NONE',  ( 0.0000000000000000000, 0.0000000000000000000, 0.1181100000000000066 ) ) ;
#232 = EDGE_LOOP ( 'NONE', ( #215, #101, #310, #213 ) ) ;
#233 = EDGE_CURVE ( 'NONE', #360, #24, #321, .T. ) ;
#234 = AXIS2_PLACEMENT_3D ( 'NONE', #74, #23, #137 ) ;
#235 = DIRECTION ( 'NONE',  ( 0.0000000000000000000, 0.0000000000000000000, 1.000000000000000000 ) ) ;
#236 = CLOSED_SHELL ( 'NONE', ( #37, #270, #85, #70, #75, #2, #242, #222, #248, #10, #345, #138, #298 ) ) ;
#237 = CARTESIAN_POINT ( 'NONE',  ( 0.0000000000000000000, 0.0000000000000000000, 0.0000000000000000000 ) ) ;
#238 = AXIS2_PLACEMENT_3D ( 'NONE', #323, #3, #354 ) ;
#239 = CIRCLE ( 'NONE', #289, 0.07874000000000001831 ) ;
#240 = CARTESIAN_POINT ( 'NONE',  ( 0.007873212599999998562, 9.641904609596609667E-19, 0.01574800000000000158 ) ) ;
#241 = SURFACE_STYLE_FILL_AREA ( #272 ) ;
#242 = ADVANCED_FACE ( 'NONE', ( #79 ), #316, .T. ) ;
#243 = CARTESIAN_POINT ( 'NONE',  ( 0.0000000000000000000, 0.0000000000000000000, 0.0000000000000000000 ) ) ;
#244 = ORIENTED_EDGE ( 'NONE', *, *, #29, .T. ) ;
#245 = PRODUCT_RELATED_PRODUCT_CATEGORY ( 'part', '', ( #352 ) ) ;
#246 = ORIENTED_EDGE ( 'NONE', *, *, #111, .T. ) ;
#247 = FACE_OUTER_BOUND ( 'NONE', #333, .T. ) ;
#248 = ADVANCED_FACE ( 'NONE', ( #126, #375 ), #285, .T. ) ;
#249 = EDGE_LOOP ( 'NONE', ( #154, #230, #246, #76 ) ) ;
#250 = CARTESIAN_POINT ( 'NONE',  ( 0.0000000000000000000, 0.0000000000000000000, 0.1181100000000002287 ) ) ;
#251 =( GEOMETRIC_REPRESENTATION_CONTEXT ( 3 ) GLOBAL_UNCERTAINTY_ASSIGNED_CONTEXT ( ( #92 ) ) GLOBAL_UNIT_ASSIGNED_CONTEXT ( ( #332, #183, #300 ) ) REPRESENTATION_CONTEXT ( 'NONE', 'WORKASPACE' ) );
#252 = CARTESIAN_POINT ( 'NONE',  ( -0.07874000000000001831, 0.0000000000000000000, 1.968503999999999809 ) ) ;
#253 = DIRECTION ( 'NONE',  ( -0.0000000000000000000, -0.0000000000000000000, -1.000000000000000000 ) ) ;
#254 = FACE_OUTER_BOUND ( 'NONE', #295, .T. ) ;
#255 = LINE ( 'NONE', #252, #264 ) ;
#256 = DIRECTION ( 'NONE',  ( -0.0000000000000000000, -0.0000000000000000000, -1.000000000000000000 ) ) ;
#257 = DIRECTION ( 'NONE',  ( -1.000000000000000000, 0.0000000000000000000, 0.0000000000000000000 ) ) ;
#258 = ORIENTED_EDGE ( 'NONE', *, *, #54, .F. ) ;
#259 = PRESENTATION_STYLE_ASSIGNMENT (( #292 ) ) ;
#260 = EDGE_CURVE ( 'NONE', #178, #69, #43, .T. ) ;
#261 = ORIENTED_EDGE ( 'NONE', *, *, #372, .T. ) ;
#262 =( NAMED_UNIT ( * ) SI_UNIT ( $, .STERADIAN. ) SOLID_ANGLE_UNIT ( ) );
#263 = COLOUR_RGB ( '',0.7921568627450980005, 0.8196078431372548767, 0.9333333333333333481 ) ;
#264 = VECTOR ( 'NONE', #367, 39.37007874015748143 ) ;
#265 = CIRCLE ( 'NONE', #143, 0.06374000000000018540 ) ;
#266 = CARTESIAN_POINT ( 'NONE',  ( 0.0000000000000000000, 0.0000000000000000000, 0.01574800000000000158 ) ) ;
#267 = PRESENTATION_LAYER_ASSIGNMENT (  '', '', ( #302 ) ) ;
#268 = LINE ( 'NONE', #5, #181 ) ;
#269 = LENGTH_MEASURE_WITH_UNIT ( LENGTH_MEASURE( 0.02539999999999999897 ), #187 );
#270 = ADVANCED_FACE ( 'NONE', ( #48 ), #225, .T. ) ;
#271 = VECTOR ( 'NONE', #117, 39.37007874015748854 ) ;
#272 = FILL_AREA_STYLE ('',( #184 ) ) ;
#273 = VERTEX_POINT ( 'NONE', #312 ) ;
#274 = DIMENSIONAL_EXPONENTS ( 1.000000000000000000, 0.0000000000000000000, 0.0000000000000000000, 0.0000000000000000000, 0.0000000000000000000, 0.0000000000000000000, 0.0000000000000000000 ) ;
#275 = DIRECTION ( 'NONE',  ( -1.000000000000000000, 0.0000000000000000000, 0.0000000000000000000 ) ) ;
#276 = ORIENTED_EDGE ( 'NONE', *, *, #118, .F. ) ;
#277 = PLANE ( 'NONE',  #64 ) ;
#278 = EDGE_CURVE ( 'NONE', #69, #178, #311, .T. ) ;
#279 = EDGE_LOOP ( 'NONE', ( #128, #19, #107, #276 ) ) ;
#280 = CARTESIAN_POINT ( 'NONE',  ( 0.0000000000000000000, 0.0000000000000000000, 0.1181100000000000066 ) ) ;
#281 = VERTEX_POINT ( 'NONE', #189 ) ;
#282 = DIRECTION ( 'NONE',  ( 1.000000000000000000, 0.0000000000000000000, 0.0000000000000000000 ) ) ;
#283 = APPLICATION_CONTEXT ( 'automotive_design' ) ;
#284 = ORIENTED_EDGE ( 'NONE', *, *, #29, .F. ) ;
#285 = PLANE ( 'NONE',  #195 ) ;
#286 = ORIENTED_EDGE ( 'NONE', *, *, #278, .T. ) ;
#287 = DIRECTION ( 'NONE',  ( -0.0000000000000000000, -0.0000000000000000000, -1.000000000000000000 ) ) ;
#288 = CONICAL_SURFACE ( 'NONE', #114, 0.06374000000000018540, 0.7853981633974528309 ) ;
#289 = AXIS2_PLACEMENT_3D ( 'NONE', #182, #90, #211 ) ;
#290 = VERTEX_POINT ( 'NONE', #306 ) ;
#291 = CARTESIAN_POINT ( 'NONE',  ( 0.0000000000000000000, 0.0000000000000000000, 0.01574800000000000158 ) ) ;
#292 = SURFACE_STYLE_USAGE ( .BOTH. , #320 ) ;
#293 = CIRCLE ( 'NONE', #4, 0.06374000000000018540 ) ;
#294 = APPLICATION_PROTOCOL_DEFINITION ( 'draft international standard', 'automotive_design', 1998, #44 ) ;
#295 = EDGE_LOOP ( 'NONE', ( #301, #305, #258, #376 ) ) ;
#296 = CARTESIAN_POINT ( 'NONE',  ( -0.007873212599999998562, 0.0000000000000000000, 0.01574800000000000158 ) ) ;
#297 = VECTOR ( 'NONE', #150, 39.37007874015748143 ) ;
#298 = ADVANCED_FACE ( 'NONE', ( #100 ), #277, .F. ) ;
#299 = DIRECTION ( 'NONE',  ( -0.0000000000000000000, -0.0000000000000000000, -1.000000000000000000 ) ) ;
#300 =( NAMED_UNIT ( * ) SI_UNIT ( $, .STERADIAN. ) SOLID_ANGLE_UNIT ( ) );
#301 = ORIENTED_EDGE ( 'NONE', *, *, #357, .F. ) ;
#302 = STYLED_ITEM ( 'NONE', ( #155 ), #96 ) ;
#303 = DIRECTION ( 'NONE',  ( -1.000000000000000000, 0.0000000000000000000, 0.0000000000000000000 ) ) ;
#304 = UNCERTAINTY_MEASURE_WITH_UNIT (LENGTH_MEASURE( 1.000000000000000082E-05 ), #27, 'distance_accuracy_value', 'NONE');
#305 = ORIENTED_EDGE ( 'NONE', *, *, #99, .T. ) ;
#306 = CARTESIAN_POINT ( 'NONE',  ( 0.07874000000000001831, 9.642868896486260050E-18, 1.953504000000000129 ) ) ;
#307 = ORIENTED_EDGE ( 'NONE', *, *, #63, .T. ) ;
#308 = DIRECTION ( 'NONE',  ( -0.0000000000000000000, -0.0000000000000000000, -1.000000000000000000 ) ) ;
#309 = PRODUCT_DEFINITION_CONTEXT ( 'detailed design', #44, 'design' ) ;
#310 = ORIENTED_EDGE ( 'NONE', *, *, #365, .T. ) ;
#311 = CIRCLE ( 'NONE', #335, 0.007480500000000014915 ) ;
#312 = CARTESIAN_POINT ( 'NONE',  ( -0.06374000000000018540, 0.0000000000000000000, 1.968503999999999809 ) ) ;
#313 = ORIENTED_EDGE ( 'NONE', *, *, #123, .F. ) ;
#314 = CARTESIAN_POINT ( 'NONE',  ( 0.007873212599999998562, 9.641904609596609667E-19, 0.01574800000000000158 ) ) ;
#315 = DIRECTION ( 'NONE',  ( 0.1736481776669308030, 2.126576849575777153E-17, -0.9848077530122077983 ) ) ;
#316 = PLANE ( 'NONE',  #115 ) ;
#317 = ORIENTED_EDGE ( 'NONE', *, *, #59, .T. ) ;
#318 = DIRECTION ( 'NONE',  ( -0.0000000000000000000, -0.0000000000000000000, -1.000000000000000000 ) ) ;
#319 = EDGE_CURVE ( 'NONE', #36, #366, #379, .T. ) ;
#320 = SURFACE_SIDE_STYLE ('',( #81 ) ) ;
#321 = CIRCLE ( 'NONE', #234, 0.007480500000000001905 ) ;
#322 =( NAMED_UNIT ( * ) PLANE_ANGLE_UNIT ( ) SI_UNIT ( $, .RADIAN. ) );
#323 = CARTESIAN_POINT ( 'NONE',  ( 0.0000000000000000000, 0.0000000000000000000, 0.01797518382871478304 ) ) ;
#324 = CARTESIAN_POINT ( 'NONE',  ( -0.007873212599999998562, 0.0000000000000000000, 0.0000000000000000000 ) ) ;
#325 = DIRECTION ( 'NONE',  ( -0.0000000000000000000, -0.0000000000000000000, -1.000000000000000000 ) ) ;
#326 = VECTOR ( 'NONE', #103, 39.37007874015748143 ) ;
#327 = CONICAL_SURFACE ( 'NONE', #162, 0.06374000000000018540, 0.7853981633974528309 ) ;
#328 = EDGE_CURVE ( 'NONE', #331, #219, #197, .T. ) ;
#329 = DIRECTION ( 'NONE',  ( -0.7071067811865507924, 0.0000000000000000000, -0.7071067811865443531 ) ) ;
#330 = CARTESIAN_POINT ( 'NONE',  ( -0.07874000000000001831, 0.0000000000000000000, 1.953504000000000129 ) ) ;
#331 = VERTEX_POINT ( 'NONE', #314 ) ;
#332 =( CONVERSION_BASED_UNIT ( 'INCH', #269 ) LENGTH_UNIT ( ) NAMED_UNIT ( #129 ) );
#333 = EDGE_LOOP ( 'NONE', ( #370, #307, #196, #313 ) ) ;
#334 = CONICAL_SURFACE ( 'NONE', #119, 0.007873212599999998562, 0.1745329251994334474 ) ;
#335 = AXIS2_PLACEMENT_3D ( 'NONE', #231, #347, #46 ) ;
#336 = FACE_OUTER_BOUND ( 'NONE', #191, .T. ) ;
#337 = ORIENTED_EDGE ( 'NONE', *, *, #357, .T. ) ;
#338 = LINE ( 'NONE', #192, #45 ) ;
#339 = CARTESIAN_POINT ( 'NONE',  ( 0.0000000000000000000, 0.0000000000000000000, 0.0000000000000000000 ) ) ;
#340 = ORIENTED_EDGE ( 'NONE', *, *, #111, .F. ) ;
#341 = CIRCLE ( 'NONE', #7, 0.007873212599999998562 ) ;
#342 = CYLINDRICAL_SURFACE ( 'NONE', #210, 0.007480500000000007976 ) ;
#343 = FACE_OUTER_BOUND ( 'NONE', #249, .T. ) ;
#344 = DIRECTION ( 'NONE',  ( 0.0000000000000000000, 0.0000000000000000000, -1.000000000000000000 ) ) ;
#345 = ADVANCED_FACE ( 'NONE', ( #102 ), #342, .T. ) ;
#346 = DIRECTION ( 'NONE',  ( 0.0000000000000000000, 0.0000000000000000000, -1.000000000000000000 ) ) ;
#347 = DIRECTION ( 'NONE',  ( -0.0000000000000000000, -0.0000000000000000000, -1.000000000000000000 ) ) ;
#348 = DIRECTION ( 'NONE',  ( -1.000000000000000000, 0.0000000000000000000, 0.0000000000000000000 ) ) ;
#349 = FILL_AREA_STYLE_COLOUR ( '', #121 ) ;
#350 = CARTESIAN_POINT ( 'NONE',  ( 0.0000000000000000000, 0.0000000000000000000, 1.953504000000000129 ) ) ;
#351 = EDGE_CURVE ( 'NONE', #69, #360, #338, .T. ) ;
#352 = PRODUCT ( 'Micro_MMBM-004-3', 'Micro_MMBM-004-3', '', ( #140 ) ) ;
#353 = MECHANICAL_DESIGN_GEOMETRIC_PRESENTATION_REPRESENTATION (  '', ( #104 ), #153 ) ;
#354 = DIRECTION ( 'NONE',  ( -1.000000000000000000, 0.0000000000000000000, 0.0000000000000000000 ) ) ;
#355 = DIRECTION ( 'NONE',  ( -0.0000000000000000000, -0.0000000000000000000, -1.000000000000000000 ) ) ;
#356 = DIRECTION ( 'NONE',  ( -1.000000000000000000, 0.0000000000000000000, 0.0000000000000000000 ) ) ;
#357 = EDGE_CURVE ( 'NONE', #281, #273, #293, .T. ) ;
#358 = CARTESIAN_POINT ( 'NONE',  ( 0.0000000000000000000, 0.0000000000000000000, 1.968503999999999809 ) ) ;
#359 = LINE ( 'NONE', #296, #271 ) ;
#360 = VERTEX_POINT ( 'NONE', #165 ) ;
#361 = CARTESIAN_POINT ( 'NONE',  ( -0.007873212599999998562, 0.0000000000000000000, 0.01574800000000000158 ) ) ;
#362 = ORIENTED_EDGE ( 'NONE', *, *, #260, .T. ) ;
#363 = CONICAL_SURFACE ( 'NONE', #32, 0.007873212599999998562, 0.1745329251994334474 ) ;
#364 = DIRECTION ( 'NONE',  ( -1.000000000000000000, 0.0000000000000000000, 0.0000000000000000000 ) ) ;
#365 = EDGE_CURVE ( 'NONE', #158, #366, #255, .T. ) ;
#366 = VERTEX_POINT ( 'NONE', #105 ) ;
#367 = DIRECTION ( 'NONE',  ( -0.0000000000000000000, -0.0000000000000000000, -1.000000000000000000 ) ) ;
#368 = ORIENTED_EDGE ( 'NONE', *, *, #149, .T. ) ;
#369 = CARTESIAN_POINT ( 'NONE',  ( 0.007873212599999998562, 9.641904609596609667E-19, 0.0000000000000000000 ) ) ;
#370 = ORIENTED_EDGE ( 'NONE', *, *, #328, .F. ) ;
#371 = AXIS2_PLACEMENT_3D ( 'NONE', #177, #110, #25 ) ;
#372 = EDGE_CURVE ( 'NONE', #273, #281, #265, .T. ) ;
#373 = FACE_OUTER_BOUND ( 'NONE', #279, .T. ) ;
#374 = CARTESIAN_POINT ( 'NONE',  ( 0.0000000000000000000, 0.0000000000000000000, 1.968503999999999809 ) ) ;
#375 = FACE_OUTER_BOUND ( 'NONE', #116, .T. ) ;
#376 = ORIENTED_EDGE ( 'NONE', *, *, #160, .F. ) ;
#377 = CARTESIAN_POINT ( 'NONE',  ( 0.0000000000000000000, 0.0000000000000000000, 1.968503999999999809 ) ) ;
#378 = AXIS2_PLACEMENT_3D ( 'NONE', #266, #256, #87 ) ;
#379 = CIRCLE ( 'NONE', #169, 0.07874000000000001831 ) ;
ENDSEC;
END-ISO-10303-21;
