ISO-10303-21;
HEADER;
FILE_DESCRIPTION (( 'STEP AP214' ),
    '1' );
FILE_NAME ('Micro_AECM-0405-4X.STEP',
    '2021-09-03T16:57:23',
    ( '' ),
    ( '' ),
    'SwSTEP 2.0',
    'SolidWorks 2020',
    '' );
FILE_SCHEMA (( 'AUTOMOTIVE_DESIGN' ));
ENDSEC;

DATA;
#1 = VECTOR ( 'NONE', #201, 39.37007874015747433 ) ;
#2 = FACE_OUTER_BOUND ( 'NONE', #195, .T. ) ;
#3 = PLANE ( 'NONE',  #347 ) ;
#4 = EDGE_LOOP ( 'NONE', ( #333, #30 ) ) ;
#5 = DIRECTION ( 'NONE',  ( 1.224646799147353207E-16, 0.0000000000000000000, 1.000000000000000000 ) ) ;
#6 = ORIENTED_EDGE ( 'NONE', *, *, #216, .T. ) ;
#7 = VECTOR ( 'NONE', #105, 39.37007874015748143 ) ;
#8 = VECTOR ( 'NONE', #16, 39.37007874015748143 ) ;
#9 = AXIS2_PLACEMENT_3D ( 'NONE', #274, #194, #350 ) ;
#10 = ORIENTED_EDGE ( 'NONE', *, *, #24, .F. ) ;
#11 = EDGE_CURVE ( 'NONE', #35, #89, #17, .T. ) ;
#12 = DIRECTION ( 'NONE',  ( 0.0000000000000000000, 0.0000000000000000000, 1.000000000000000000 ) ) ;
#13 = CARTESIAN_POINT ( 'NONE',  ( -0.07866125999999999674, 0.0000000000000000000, 9.633226027589770864E-18 ) ) ;
#14 = ADVANCED_FACE ( 'NONE', ( #261 ), #287, .T. ) ;
#15 = AXIS2_PLACEMENT_3D ( 'NONE', #23, #136, #55 ) ;
#16 = DIRECTION ( 'NONE',  ( -1.224646799147353207E-16, -0.0000000000000000000, -1.000000000000000000 ) ) ;
#17 = LINE ( 'NONE', #13, #8 ) ;
#18 = ADVANCED_BREP_SHAPE_REPRESENTATION ( 'Micro_AECM-0405-4X', ( #244, #240 ), #110 ) ;
#19 = PRODUCT_DEFINITION_FORMATION_WITH_SPECIFIED_SOURCE ( 'ANY', '', #158, .NOT_KNOWN. ) ;
#20 = CARTESIAN_POINT ( 'NONE',  ( 5.303590139535433909E-17, 0.0000000000000000000, 0.4330709999999999837 ) ) ;
#21 = DIRECTION ( 'NONE',  ( 0.0000000000000000000, 0.0000000000000000000, -1.000000000000000000 ) ) ;
#22 = SURFACE_STYLE_USAGE ( .BOTH. , #295 ) ;
#23 = CARTESIAN_POINT ( 'NONE',  ( 0.0000000000000000000, 0.0000000000000000000, 2.244094000000000033 ) ) ;
#24 = EDGE_CURVE ( 'NONE', #123, #36, #71, .T. ) ;
#25 = AXIS2_PLACEMENT_3D ( 'NONE', #84, #297, #242 ) ;
#26 = CONICAL_SURFACE ( 'NONE', #225, 0.1031100000000002570, 0.7853981633974318477 ) ;
#27 = DIRECTION ( 'NONE',  ( -1.000000000000000000, 0.0000000000000000000, 0.0000000000000000000 ) ) ;
#28 = ORIENTED_EDGE ( 'NONE', *, *, #139, .F. ) ;
#29 =( NAMED_UNIT ( * ) PLANE_ANGLE_UNIT ( ) SI_UNIT ( $, .RADIAN. ) );
#30 = ORIENTED_EDGE ( 'NONE', *, *, #104, .T. ) ;
#31 = AXIS2_PLACEMENT_3D ( 'NONE', #239, #217, #160 ) ;
#32 = LINE ( 'NONE', #310, #151 ) ;
#33 = ORIENTED_EDGE ( 'NONE', *, *, #49, .T. ) ;
#34 = DIRECTION ( 'NONE',  ( 0.0000000000000000000, 0.0000000000000000000, 1.000000000000000000 ) ) ;
#35 = VERTEX_POINT ( 'NONE', #126 ) ;
#36 = VERTEX_POINT ( 'NONE', #130 ) ;
#37 = ADVANCED_FACE ( 'NONE', ( #153 ), #39, .T. ) ;
#38 = STYLED_ITEM ( 'NONE', ( #229 ), #18 ) ;
#39 = CYLINDRICAL_SURFACE ( 'NONE', #337, 0.1181100000000000066 ) ;
#40 = LENGTH_MEASURE_WITH_UNIT ( LENGTH_MEASURE( 0.02539999999999999897 ), #102 );
#41 = CARTESIAN_POINT ( 'NONE',  ( 2.410717224121564627E-18, 0.0000000000000000000, 0.0000000000000000000 ) ) ;
#42 = CARTESIAN_POINT ( 'NONE',  ( -0.07866125999999994123, 9.633226027589770864E-18, 0.4330709999999999837 ) ) ;
#43 = CARTESIAN_POINT ( 'NONE',  ( 0.0000000000000000000, 0.0000000000000000000, 0.0000000000000000000 ) ) ;
#44 = ORIENTED_EDGE ( 'NONE', *, *, #187, .F. ) ;
#45 = AXIS2_PLACEMENT_3D ( 'NONE', #59, #61, #245 ) ;
#46 =( NAMED_UNIT ( * ) PLANE_ANGLE_UNIT ( ) SI_UNIT ( $, .RADIAN. ) );
#47 = DIRECTION ( 'NONE',  ( 0.7071067811865358044, 8.659560562354788645E-17, -0.7071067811865590080 ) ) ;
#48 = DIRECTION ( 'NONE',  ( 0.0000000000000000000, 0.0000000000000000000, 1.000000000000000000 ) ) ;
#49 = EDGE_CURVE ( 'NONE', #202, #35, #190, .T. ) ;
#50 = DIRECTION ( 'NONE',  ( -1.224646799147353207E-16, -0.0000000000000000000, -1.000000000000000000 ) ) ;
#51 = AXIS2_PLACEMENT_3D ( 'NONE', #185, #50, #157 ) ;
#52 = FILL_AREA_STYLE ('',( #138 ) ) ;
#53 = EDGE_CURVE ( 'NONE', #35, #306, #127, .T. ) ;
#54 = PRESENTATION_STYLE_ASSIGNMENT (( #22 ) ) ;
#55 = DIRECTION ( 'NONE',  ( 1.000000000000000000, 0.0000000000000000000, 0.0000000000000000000 ) ) ;
#56 = AXIS2_PLACEMENT_3D ( 'NONE', #167, #5, #57 ) ;
#57 = DIRECTION ( 'NONE',  ( 1.000000000000000000, 0.0000000000000000000, 0.0000000000000000000 ) ) ;
#58 = VERTEX_POINT ( 'NONE', #103 ) ;
#59 = CARTESIAN_POINT ( 'NONE',  ( 0.0000000000000000000, 0.0000000000000000000, 2.229093999999999465 ) ) ;
#60 = VERTEX_POINT ( 'NONE', #154 ) ;
#61 = DIRECTION ( 'NONE',  ( 0.0000000000000000000, 0.0000000000000000000, -1.000000000000000000 ) ) ;
#62 = EDGE_LOOP ( 'NONE', ( #142, #232, #304, #311 ) ) ;
#63 = AXIS2_PLACEMENT_3D ( 'NONE', #321, #82, #80 ) ;
#64 =( CONVERSION_BASED_UNIT ( 'INCH', #222 ) LENGTH_UNIT ( ) NAMED_UNIT ( #124 ) );
#65 = ORIENTED_EDGE ( 'NONE', *, *, #79, .F. ) ;
#66 = EDGE_CURVE ( 'NONE', #224, #89, #269, .T. ) ;
#67 = DIRECTION ( 'NONE',  ( 1.000000000000000000, 0.0000000000000000000, -0.0000000000000000000 ) ) ;
#68 = ORIENTED_EDGE ( 'NONE', *, *, #324, .F. ) ;
#69 = DIRECTION ( 'NONE',  ( -1.000000000000000000, 0.0000000000000000000, 0.0000000000000000000 ) ) ;
#70 = MECHANICAL_DESIGN_GEOMETRIC_PRESENTATION_REPRESENTATION (  '', ( #38 ), #145 ) ;
#71 = LINE ( 'NONE', #147, #298 ) ;
#72 = SHAPE_DEFINITION_REPRESENTATION ( #109, #18 ) ;
#73 = CARTESIAN_POINT ( 'NONE',  ( 2.410717224121565012E-18, 0.0000000000000000000, 0.01968500000000000458 ) ) ;
#74 = CARTESIAN_POINT ( 'NONE',  ( 0.1031100000000002570, 1.354581824536888722E-17, 2.244094000000000033 ) ) ;
#75 = VECTOR ( 'NONE', #212, 39.37007874015748143 ) ;
#76 =( CONVERSION_BASED_UNIT ( 'INCH', #40 ) LENGTH_UNIT ( ) NAMED_UNIT ( #119 ) );
#77 = DIRECTION ( 'NONE',  ( 1.000000000000000000, 0.0000000000000000000, 0.0000000000000000000 ) ) ;
#78 = CIRCLE ( 'NONE', #215, 0.1181100000000000066 ) ;
#79 = EDGE_CURVE ( 'NONE', #58, #89, #286, .T. ) ;
#80 = DIRECTION ( 'NONE',  ( 1.000000000000000000, 0.0000000000000000000, 0.0000000000000000000 ) ) ;
#81 = CARTESIAN_POINT ( 'NONE',  ( 0.07866125999999999674, 9.633226027589770864E-18, 0.01968500000000000458 ) ) ;
#82 = DIRECTION ( 'NONE',  ( 1.224646799147353207E-16, 0.0000000000000000000, 1.000000000000000000 ) ) ;
#83 = EDGE_CURVE ( 'NONE', #228, #58, #236, .T. ) ;
#84 = CARTESIAN_POINT ( 'NONE',  ( 8.043430235321561285E-17, 0.0000000000000000000, 0.6567959219688248584 ) ) ;
#85 = FACE_OUTER_BOUND ( 'NONE', #170, .T. ) ;
#86 =( NAMED_UNIT ( * ) SI_UNIT ( $, .STERADIAN. ) SOLID_ANGLE_UNIT ( ) );
#87 = ORIENTED_EDGE ( 'NONE', *, *, #216, .F. ) ;
#88 = CARTESIAN_POINT ( 'NONE',  ( 8.043430235321561285E-17, 0.0000000000000000000, 0.6567959219688248584 ) ) ;
#89 = VERTEX_POINT ( 'NONE', #339 ) ;
#90 = ORIENTED_EDGE ( 'NONE', *, *, #334, .F. ) ;
#91 = COLOUR_RGB ( '',0.7921568627450980005, 0.8196078431372548767, 0.9333333333333333481 ) ;
#92 = ADVANCED_FACE ( 'NONE', ( #312 ), #137, .T. ) ;
#93 = AXIS2_PLACEMENT_3D ( 'NONE', #88, #248, #218 ) ;
#94 = DIRECTION ( 'NONE',  ( 0.1736481776669313859, 0.0000000000000000000, 0.9848077530122077983 ) ) ;
#95 = ORIENTED_EDGE ( 'NONE', *, *, #316, .F. ) ;
#96 = ORIENTED_EDGE ( 'NONE', *, *, #226, .F. ) ;
#97 = APPLICATION_PROTOCOL_DEFINITION ( 'draft international standard', 'automotive_design', 1998, #341 ) ;
#98 = ORIENTED_EDGE ( 'NONE', *, *, #24, .T. ) ;
#99 = AXIS2_PLACEMENT_3D ( 'NONE', #20, #320, #27 ) ;
#100 = DIRECTION ( 'NONE',  ( -1.000000000000000000, 0.0000000000000000000, 0.0000000000000000000 ) ) ;
#101 = DIRECTION ( 'NONE',  ( 1.000000000000000000, 0.0000000000000000000, 0.0000000000000000000 ) ) ;
#102 =( LENGTH_UNIT ( ) NAMED_UNIT ( * ) SI_UNIT ( $, .METRE. ) );
#103 = CARTESIAN_POINT ( 'NONE',  ( -0.05897625999999998869, 8.427867415528987780E-18, 0.0000000000000000000 ) ) ;
#104 = EDGE_CURVE ( 'NONE', #123, #116, #203, .T. ) ;
#105 = DIRECTION ( 'NONE',  ( -0.0000000000000000000, -0.0000000000000000000, -1.000000000000000000 ) ) ;
#106 =( GEOMETRIC_REPRESENTATION_CONTEXT ( 3 ) GLOBAL_UNCERTAINTY_ASSIGNED_CONTEXT ( ( #291 ) ) GLOBAL_UNIT_ASSIGNED_CONTEXT ( ( #161, #140, #305 ) ) REPRESENTATION_CONTEXT ( 'NONE', 'WORKASPACE' ) );
#107 = LINE ( 'NONE', #182, #75 ) ;
#108 = DIRECTION ( 'NONE',  ( 0.0000000000000000000, 0.0000000000000000000, -1.000000000000000000 ) ) ;
#109 = PRODUCT_DEFINITION_SHAPE ( 'NONE', 'NONE',  #273 ) ;
#110 =( GEOMETRIC_REPRESENTATION_CONTEXT ( 3 ) GLOBAL_UNCERTAINTY_ASSIGNED_CONTEXT ( ( #283 ) ) GLOBAL_UNIT_ASSIGNED_CONTEXT ( ( #64, #29, #86 ) ) REPRESENTATION_CONTEXT ( 'NONE', 'WORKASPACE' ) );
#111 =( LENGTH_UNIT ( ) NAMED_UNIT ( * ) SI_UNIT ( $, .METRE. ) );
#112 = AXIS2_PLACEMENT_3D ( 'NONE', #198, #115, #220 ) ;
#113 = FACE_OUTER_BOUND ( 'NONE', #233, .T. ) ;
#114 = ADVANCED_FACE ( 'NONE', ( #176 ), #135, .T. ) ;
#115 = DIRECTION ( 'NONE',  ( 0.0000000000000000000, 0.0000000000000000000, 1.000000000000000000 ) ) ;
#116 = VERTEX_POINT ( 'NONE', #338 ) ;
#117 = ORIENTED_EDGE ( 'NONE', *, *, #316, .T. ) ;
#118 = CARTESIAN_POINT ( 'NONE',  ( -0.1181100000000000066, 0.0000000000000000000, 2.229093999999999465 ) ) ;
#119 = DIMENSIONAL_EXPONENTS ( 1.000000000000000000, 0.0000000000000000000, 0.0000000000000000000, 0.0000000000000000000, 0.0000000000000000000, 0.0000000000000000000, 0.0000000000000000000 ) ;
#120 = ORIENTED_EDGE ( 'NONE', *, *, #206, .T. ) ;
#121 = PRESENTATION_LAYER_ASSIGNMENT (  '', '', ( #267 ) ) ;
#122 = CONICAL_SURFACE ( 'NONE', #63, 0.07866125999999999674, 0.1745329251994338915 ) ;
#123 = VERTEX_POINT ( 'NONE', #74 ) ;
#124 = DIMENSIONAL_EXPONENTS ( 1.000000000000000000, 0.0000000000000000000, 0.0000000000000000000, 0.0000000000000000000, 0.0000000000000000000, 0.0000000000000000000, 0.0000000000000000000 ) ;
#125 = PRODUCT_DEFINITION_CONTEXT ( 'detailed design', #341, 'design' ) ;
#126 = CARTESIAN_POINT ( 'NONE',  ( -0.07866125999999994123, 1.204876468615957931E-17, 0.4330709999999999837 ) ) ;
#127 = LINE ( 'NONE', #42, #1 ) ;
#128 = CIRCLE ( 'NONE', #25, 0.1181100000000000066 ) ;
#129 = ORIENTED_EDGE ( 'NONE', *, *, #324, .T. ) ;
#130 = CARTESIAN_POINT ( 'NONE',  ( 0.1181100000000000066, 1.446430334472939084E-17, 2.229093999999999465 ) ) ;
#131 = EDGE_CURVE ( 'NONE', #342, #306, #266, .T. ) ;
#132 = DIRECTION ( 'NONE',  ( -1.000000000000000000, 0.0000000000000000000, 1.224646799147352961E-16 ) ) ;
#133 = CARTESIAN_POINT ( 'NONE',  ( 0.05897625999999998869, 0.0000000000000000000, 0.0000000000000000000 ) ) ;
#134 = DIRECTION ( 'NONE',  ( 0.0000000000000000000, -1.000000000000000000, 0.0000000000000000000 ) ) ;
#135 = TOROIDAL_SURFACE ( 'NONE', #146, 0.05897625999999998869, 0.01968500000000000111 ) ;
#136 = DIRECTION ( 'NONE',  ( 0.0000000000000000000, 0.0000000000000000000, 1.000000000000000000 ) ) ;
#137 = CONICAL_SURFACE ( 'NONE', #191, 0.1031100000000002570, 0.7853981633974318477 ) ;
#138 = FILL_AREA_STYLE_COLOUR ( '', #91 ) ;
#139 = EDGE_CURVE ( 'NONE', #116, #123, #253, .T. ) ;
#140 =( NAMED_UNIT ( * ) PLANE_ANGLE_UNIT ( ) SI_UNIT ( $, .RADIAN. ) );
#141 = EDGE_CURVE ( 'NONE', #60, #306, #128, .T. ) ;
#142 = ORIENTED_EDGE ( 'NONE', *, *, #174, .F. ) ;
#143 = ORIENTED_EDGE ( 'NONE', *, *, #49, .F. ) ;
#144 = ORIENTED_EDGE ( 'NONE', *, *, #141, .F. ) ;
#145 =( GEOMETRIC_REPRESENTATION_CONTEXT ( 3 ) GLOBAL_UNCERTAINTY_ASSIGNED_CONTEXT ( ( #159 ) ) GLOBAL_UNIT_ASSIGNED_CONTEXT ( ( #76, #46, #336 ) ) REPRESENTATION_CONTEXT ( 'NONE', 'WORKASPACE' ) );
#146 = AXIS2_PLACEMENT_3D ( 'NONE', #149, #179, #256 ) ;
#147 = CARTESIAN_POINT ( 'NONE',  ( 0.1031100000000002570, 1.262733314600838667E-17, 2.244094000000000033 ) ) ;
#148 = SURFACE_SIDE_STYLE ('',( #204 ) ) ;
#149 = CARTESIAN_POINT ( 'NONE',  ( 2.410717224121564627E-18, 0.0000000000000000000, 0.01968500000000000111 ) ) ;
#150 = DIRECTION ( 'NONE',  ( -0.0000000000000000000, -0.0000000000000000000, -1.000000000000000000 ) ) ;
#151 = VECTOR ( 'NONE', #189, 39.37007874015748854 ) ;
#152 = ADVANCED_FACE ( 'NONE', ( #85 ), #292, .F. ) ;
#153 = FACE_OUTER_BOUND ( 'NONE', #168, .T. ) ;
#154 = CARTESIAN_POINT ( 'NONE',  ( 0.1181100000000000899, 1.446430334472940009E-17, 0.6567959219688248584 ) ) ;
#155 = CARTESIAN_POINT ( 'NONE',  ( 0.0000000000000000000, 0.0000000000000000000, 2.244094000000000033 ) ) ;
#156 = MECHANICAL_DESIGN_GEOMETRIC_PRESENTATION_REPRESENTATION (  '', ( #267 ), #106 ) ;
#157 = DIRECTION ( 'NONE',  ( -1.000000000000000000, 0.0000000000000000000, 1.224646799147352961E-16 ) ) ;
#158 = PRODUCT ( 'Micro_AECM-0405-4X', 'Micro_AECM-0405-4X', '', ( #230 ) ) ;
#159 = UNCERTAINTY_MEASURE_WITH_UNIT (LENGTH_MEASURE( 1.000000000000000082E-05 ), #76, 'distance_accuracy_value', 'NONE');
#160 = DIRECTION ( 'NONE',  ( 1.000000000000000000, 0.0000000000000000000, 0.0000000000000000000 ) ) ;
#161 =( CONVERSION_BASED_UNIT ( 'INCH', #186 ) LENGTH_UNIT ( ) NAMED_UNIT ( #257 ) );
#162 = CARTESIAN_POINT ( 'NONE',  ( 0.07866126000000003837, 0.0000000000000000000, 0.4330709999999999837 ) ) ;
#163 = ADVANCED_FACE ( 'NONE', ( #113 ), #323, .T. ) ;
#164 = CIRCLE ( 'NONE', #93, 0.1181100000000000066 ) ;
#165 =( LENGTH_UNIT ( ) NAMED_UNIT ( * ) SI_UNIT ( $, .METRE. ) );
#166 = EDGE_LOOP ( 'NONE', ( #129, #117, #90, #272 ) ) ;
#167 = CARTESIAN_POINT ( 'NONE',  ( 5.303590139535433909E-17, 0.0000000000000000000, 0.4330709999999999837 ) ) ;
#168 = EDGE_LOOP ( 'NONE', ( #95, #328, #196, #144 ) ) ;
#169 = CIRCLE ( 'NONE', #112, 0.07866125999999999674 ) ;
#170 = EDGE_LOOP ( 'NONE', ( #219, #275 ) ) ;
#171 = DIRECTION ( 'NONE',  ( -0.0000000000000000000, -0.0000000000000000000, -1.000000000000000000 ) ) ;
#172 = ORIENTED_EDGE ( 'NONE', *, *, #279, .F. ) ;
#173 = ORIENTED_EDGE ( 'NONE', *, *, #289, .F. ) ;
#174 = EDGE_CURVE ( 'NONE', #58, #228, #331, .T. ) ;
#175 = PRESENTATION_LAYER_ASSIGNMENT (  '', '', ( #38 ) ) ;
#176 = FACE_OUTER_BOUND ( 'NONE', #62, .T. ) ;
#177 = DIRECTION ( 'NONE',  ( 1.224646799147353207E-16, 1.000000000000000000, -0.0000000000000000000 ) ) ;
#178 = ADVANCED_FACE ( 'NONE', ( #345 ), #344, .T. ) ;
#179 = DIRECTION ( 'NONE',  ( 0.0000000000000000000, 0.0000000000000000000, 1.000000000000000000 ) ) ;
#180 = AXIS2_PLACEMENT_3D ( 'NONE', #73, #12, #317 ) ;
#181 = ORIENTED_EDGE ( 'NONE', *, *, #83, .F. ) ;
#182 = CARTESIAN_POINT ( 'NONE',  ( 0.07866125999999999674, 9.633226027589770864E-18, -9.633226027589770864E-18 ) ) ;
#183 = FACE_OUTER_BOUND ( 'NONE', #247, .T. ) ;
#184 = AXIS2_PLACEMENT_3D ( 'NONE', #41, #150, #77 ) ;
#185 = CARTESIAN_POINT ( 'NONE',  ( 0.0000000000000000000, 0.0000000000000000000, 0.0000000000000000000 ) ) ;
#186 = LENGTH_MEASURE_WITH_UNIT ( LENGTH_MEASURE( 0.02539999999999999897 ), #111 );
#187 = EDGE_CURVE ( 'NONE', #202, #224, #107, .T. ) ;
#188 = FACE_OUTER_BOUND ( 'NONE', #332, .T. ) ;
#189 = DIRECTION ( 'NONE',  ( -0.7071067811865358044, 0.0000000000000000000, -0.7071067811865590080 ) ) ;
#190 = CIRCLE ( 'NONE', #346, 0.07866125999999999674 ) ;
#191 = AXIS2_PLACEMENT_3D ( 'NONE', #290, #285, #69 ) ;
#192 = CARTESIAN_POINT ( 'NONE',  ( -0.1181099999999999234, 0.0000000000000000000, 0.6567959219688248584 ) ) ;
#193 = ORIENTED_EDGE ( 'NONE', *, *, #289, .T. ) ;
#194 = DIRECTION ( 'NONE',  ( 0.0000000000000000000, 0.0000000000000000000, 1.000000000000000000 ) ) ;
#195 = EDGE_LOOP ( 'NONE', ( #87, #309, #281, #250 ) ) ;
#196 = ORIENTED_EDGE ( 'NONE', *, *, #131, .T. ) ;
#197 = CIRCLE ( 'NONE', #45, 0.1181100000000000066 ) ;
#198 = CARTESIAN_POINT ( 'NONE',  ( 2.410717224121565012E-18, 0.0000000000000000000, 0.01968500000000000458 ) ) ;
#199 = ORIENTED_EDGE ( 'NONE', *, *, #104, .F. ) ;
#200 = ADVANCED_FACE ( 'NONE', ( #188 ), #26, .T. ) ;
#201 = DIRECTION ( 'NONE',  ( -0.1736481776669311916, 2.126576849575783316E-17, 0.9848077530122080203 ) ) ;
#202 = VERTEX_POINT ( 'NONE', #162 ) ;
#203 = CIRCLE ( 'NONE', #308, 0.1031100000000002570 ) ;
#204 = SURFACE_STYLE_FILL_AREA ( #255 ) ;
#205 = DIRECTION ( 'NONE',  ( -1.000000000000000000, 0.0000000000000000000, 0.0000000000000000000 ) ) ;
#206 = EDGE_CURVE ( 'NONE', #228, #224, #241, .T. ) ;
#207 = CARTESIAN_POINT ( 'NONE',  ( -0.05897625999999998869, 7.222508803468206236E-18, 0.01968500000000000111 ) ) ;
#208 = DIRECTION ( 'NONE',  ( -1.000000000000000000, 1.224646799147352961E-16, 0.0000000000000000000 ) ) ;
#209 = APPLICATION_CONTEXT ( 'automotive_design' ) ;
#210 = CONICAL_SURFACE ( 'NONE', #56, 0.07866125999999999674, 0.1745329251994338915 ) ;
#211 = CARTESIAN_POINT ( 'NONE',  ( 0.0000000000000000000, 0.0000000000000000000, 2.244094000000000033 ) ) ;
#212 = DIRECTION ( 'NONE',  ( -1.224646799147353207E-16, -0.0000000000000000000, -1.000000000000000000 ) ) ;
#213 = CARTESIAN_POINT ( 'NONE',  ( 0.05897625999999998869, 0.0000000000000000000, 0.01968500000000000111 ) ) ;
#214 = CLOSED_SHELL ( 'NONE', ( #114, #14, #340, #200, #178, #37, #301, #92, #235, #163, #152, #349 ) ) ;
#215 = AXIS2_PLACEMENT_3D ( 'NONE', #238, #108, #319 ) ;
#216 = EDGE_CURVE ( 'NONE', #35, #202, #294, .T. ) ;
#217 = DIRECTION ( 'NONE',  ( -0.0000000000000000000, -0.0000000000000000000, -1.000000000000000000 ) ) ;
#218 = DIRECTION ( 'NONE',  ( 1.000000000000000000, 0.0000000000000000000, 0.0000000000000000000 ) ) ;
#219 = ORIENTED_EDGE ( 'NONE', *, *, #83, .T. ) ;
#220 = DIRECTION ( 'NONE',  ( 1.000000000000000000, 0.0000000000000000000, 0.0000000000000000000 ) ) ;
#221 = EDGE_LOOP ( 'NONE', ( #65, #181, #120, #172 ) ) ;
#222 = LENGTH_MEASURE_WITH_UNIT ( LENGTH_MEASURE( 0.02539999999999999897 ), #165 );
#223 = ORIENTED_EDGE ( 'NONE', *, *, #279, .T. ) ;
#224 = VERTEX_POINT ( 'NONE', #81 ) ;
#225 = AXIS2_PLACEMENT_3D ( 'NONE', #211, #21, #265 ) ;
#226 = EDGE_CURVE ( 'NONE', #36, #342, #78, .T. ) ;
#227 = DIRECTION ( 'NONE',  ( 0.0000000000000000000, 0.0000000000000000000, 1.000000000000000000 ) ) ;
#228 = VERTEX_POINT ( 'NONE', #133 ) ;
#229 = PRESENTATION_STYLE_ASSIGNMENT (( #288 ) ) ;
#230 = PRODUCT_CONTEXT ( 'NONE', #209, 'mechanical' ) ;
#231 = DIRECTION ( 'NONE',  ( 1.000000000000000000, 0.0000000000000000000, 0.0000000000000000000 ) ) ;
#232 = ORIENTED_EDGE ( 'NONE', *, *, #79, .T. ) ;
#233 = EDGE_LOOP ( 'NONE', ( #44, #33, #284, #223 ) ) ;
#234 = CARTESIAN_POINT ( 'NONE',  ( 0.0000000000000000000, 0.0000000000000000000, 2.244094000000000033 ) ) ;
#235 = ADVANCED_FACE ( 'NONE', ( #183 ), #122, .T. ) ;
#236 = CIRCLE ( 'NONE', #184, 0.05897625999999998869 ) ;
#237 = LINE ( 'NONE', #249, #259 ) ;
#238 = CARTESIAN_POINT ( 'NONE',  ( 0.0000000000000000000, 0.0000000000000000000, 2.229093999999999465 ) ) ;
#239 = CARTESIAN_POINT ( 'NONE',  ( 2.410717224121564627E-18, 0.0000000000000000000, 0.0000000000000000000 ) ) ;
#240 = AXIS2_PLACEMENT_3D ( 'NONE', #43, #227, #101 ) ;
#241 = CIRCLE ( 'NONE', #322, 0.01968500000000000111 ) ;
#242 = DIRECTION ( 'NONE',  ( 1.000000000000000000, 0.0000000000000000000, 0.0000000000000000000 ) ) ;
#243 = CARTESIAN_POINT ( 'NONE',  ( -0.1181100000000000066, 0.0000000000000000000, 2.244094000000000033 ) ) ;
#244 = MANIFOLD_SOLID_BREP ( 'Fillet1', #214 ) ;
#245 = DIRECTION ( 'NONE',  ( 1.000000000000000000, 0.0000000000000000000, 0.0000000000000000000 ) ) ;
#246 = AXIS2_PLACEMENT_3D ( 'NONE', #348, #48, #296 ) ;
#247 = EDGE_LOOP ( 'NONE', ( #251, #143, #260, #280 ) ) ;
#248 = DIRECTION ( 'NONE',  ( -1.224646799147353207E-16, -0.0000000000000000000, -1.000000000000000000 ) ) ;
#249 = CARTESIAN_POINT ( 'NONE',  ( 0.07866126000000003837, 0.0000000000000000000, 0.4330709999999999837 ) ) ;
#250 = ORIENTED_EDGE ( 'NONE', *, *, #262, .F. ) ;
#251 = ORIENTED_EDGE ( 'NONE', *, *, #53, .F. ) ;
#252 = AXIS2_PLACEMENT_3D ( 'NONE', #315, #335, #132 ) ;
#253 = CIRCLE ( 'NONE', #15, 0.1031100000000002570 ) ;
#254 = CARTESIAN_POINT ( 'NONE',  ( 5.303590139535433909E-17, 0.0000000000000000000, 0.4330709999999999837 ) ) ;
#255 = FILL_AREA_STYLE ('',( #326 ) ) ;
#256 = DIRECTION ( 'NONE',  ( 1.000000000000000000, 0.0000000000000000000, 0.0000000000000000000 ) ) ;
#257 = DIMENSIONAL_EXPONENTS ( 1.000000000000000000, 0.0000000000000000000, 0.0000000000000000000, 0.0000000000000000000, 0.0000000000000000000, 0.0000000000000000000, 0.0000000000000000000 ) ;
#258 = CARTESIAN_POINT ( 'NONE',  ( 0.0000000000000000000, 0.0000000000000000000, 2.244094000000000033 ) ) ;
#259 = VECTOR ( 'NONE', #94, 39.37007874015748143 ) ;
#260 = ORIENTED_EDGE ( 'NONE', *, *, #262, .T. ) ;
#261 = FACE_OUTER_BOUND ( 'NONE', #329, .T. ) ;
#262 = EDGE_CURVE ( 'NONE', #202, #60, #237, .T. ) ;
#263 = DIRECTION ( 'NONE',  ( -0.0000000000000000000, -0.0000000000000000000, -1.000000000000000000 ) ) ;
#264 = DIRECTION ( 'NONE',  ( -1.000000000000000000, 0.0000000000000000000, 0.0000000000000000000 ) ) ;
#265 = DIRECTION ( 'NONE',  ( -1.000000000000000000, 0.0000000000000000000, 0.0000000000000000000 ) ) ;
#266 = LINE ( 'NONE', #243, #7 ) ;
#267 = STYLED_ITEM ( 'NONE', ( #54 ), #244 ) ;
#268 = COLOUR_RGB ( '',0.7921568627450980005, 0.8196078431372548767, 0.9333333333333333481 ) ;
#269 = CIRCLE ( 'NONE', #180, 0.07866125999999999674 ) ;
#270 = DIRECTION ( 'NONE',  ( 0.0000000000000000000, 0.0000000000000000000, -1.000000000000000000 ) ) ;
#271 = LINE ( 'NONE', #303, #318 ) ;
#272 = ORIENTED_EDGE ( 'NONE', *, *, #131, .F. ) ;
#273 = PRODUCT_DEFINITION ( 'UNKNOWN', '', #19, #125 ) ;
#274 = CARTESIAN_POINT ( 'NONE',  ( 2.410717224121564627E-18, 0.0000000000000000000, 0.01968500000000000111 ) ) ;
#275 = ORIENTED_EDGE ( 'NONE', *, *, #174, .T. ) ;
#276 = FACE_OUTER_BOUND ( 'NONE', #221, .T. ) ;
#277 = AXIS2_PLACEMENT_3D ( 'NONE', #207, #177, #208 ) ;
#278 = EDGE_LOOP ( 'NONE', ( #10, #28, #193, #96 ) ) ;
#279 = EDGE_CURVE ( 'NONE', #89, #224, #169, .T. ) ;
#280 = ORIENTED_EDGE ( 'NONE', *, *, #141, .T. ) ;
#281 = ORIENTED_EDGE ( 'NONE', *, *, #334, .T. ) ;
#282 = DIRECTION ( 'NONE',  ( 0.0000000000000000000, 0.0000000000000000000, 1.000000000000000000 ) ) ;
#283 = UNCERTAINTY_MEASURE_WITH_UNIT (LENGTH_MEASURE( 1.000000000000000082E-05 ), #64, 'distance_accuracy_value', 'NONE');
#284 = ORIENTED_EDGE ( 'NONE', *, *, #11, .T. ) ;
#285 = DIRECTION ( 'NONE',  ( 0.0000000000000000000, 0.0000000000000000000, -1.000000000000000000 ) ) ;
#286 = CIRCLE ( 'NONE', #277, 0.01968500000000000458 ) ;
#287 = CYLINDRICAL_SURFACE ( 'NONE', #252, 0.07866125999999999674 ) ;
#288 = SURFACE_STYLE_USAGE ( .BOTH. , #148 ) ;
#289 = EDGE_CURVE ( 'NONE', #116, #342, #32, .T. ) ;
#290 = CARTESIAN_POINT ( 'NONE',  ( 0.0000000000000000000, 0.0000000000000000000, 2.244094000000000033 ) ) ;
#291 = UNCERTAINTY_MEASURE_WITH_UNIT (LENGTH_MEASURE( 1.000000000000000082E-05 ), #161, 'distance_accuracy_value', 'NONE');
#292 = PLANE ( 'NONE',  #246 ) ;
#293 = SURFACE_STYLE_FILL_AREA ( #52 ) ;
#294 = CIRCLE ( 'NONE', #99, 0.07866125999999999674 ) ;
#295 = SURFACE_SIDE_STYLE ('',( #293 ) ) ;
#296 = DIRECTION ( 'NONE',  ( 1.000000000000000000, 0.0000000000000000000, -0.0000000000000000000 ) ) ;
#297 = DIRECTION ( 'NONE',  ( -1.224646799147353207E-16, -0.0000000000000000000, -1.000000000000000000 ) ) ;
#298 = VECTOR ( 'NONE', #47, 39.37007874015748854 ) ;
#299 = TOROIDAL_SURFACE ( 'NONE', #9, 0.05897625999999998869, 0.01968500000000000111 ) ;
#300 = FACE_OUTER_BOUND ( 'NONE', #4, .T. ) ;
#301 = ADVANCED_FACE ( 'NONE', ( #300 ), #3, .T. ) ;
#302 = ORIENTED_EDGE ( 'NONE', *, *, #11, .F. ) ;
#303 = CARTESIAN_POINT ( 'NONE',  ( 0.1181100000000000066, 1.446430334472939084E-17, 2.244094000000000033 ) ) ;
#304 = ORIENTED_EDGE ( 'NONE', *, *, #66, .F. ) ;
#305 =( NAMED_UNIT ( * ) SI_UNIT ( $, .STERADIAN. ) SOLID_ANGLE_UNIT ( ) );
#306 = VERTEX_POINT ( 'NONE', #192 ) ;
#307 = PRODUCT_RELATED_PRODUCT_CATEGORY ( 'part', '', ( #158 ) ) ;
#308 = AXIS2_PLACEMENT_3D ( 'NONE', #258, #282, #231 ) ;
#309 = ORIENTED_EDGE ( 'NONE', *, *, #53, .T. ) ;
#310 = CARTESIAN_POINT ( 'NONE',  ( -0.1031100000000002570, 0.0000000000000000000, 2.244094000000000033 ) ) ;
#311 = ORIENTED_EDGE ( 'NONE', *, *, #206, .F. ) ;
#312 = FACE_OUTER_BOUND ( 'NONE', #278, .T. ) ;
#313 = ORIENTED_EDGE ( 'NONE', *, *, #187, .T. ) ;
#314 = DIRECTION ( 'NONE',  ( -0.0000000000000000000, -0.0000000000000000000, -1.000000000000000000 ) ) ;
#315 = CARTESIAN_POINT ( 'NONE',  ( 0.0000000000000000000, 0.0000000000000000000, 0.0000000000000000000 ) ) ;
#316 = EDGE_CURVE ( 'NONE', #36, #60, #271, .T. ) ;
#317 = DIRECTION ( 'NONE',  ( 1.000000000000000000, 0.0000000000000000000, 0.0000000000000000000 ) ) ;
#318 = VECTOR ( 'NONE', #171, 39.37007874015748143 ) ;
#319 = DIRECTION ( 'NONE',  ( 1.000000000000000000, 0.0000000000000000000, 0.0000000000000000000 ) ) ;
#320 = DIRECTION ( 'NONE',  ( -1.224646799147353207E-16, -0.0000000000000000000, -1.000000000000000000 ) ) ;
#321 = CARTESIAN_POINT ( 'NONE',  ( 5.303590139535433909E-17, 0.0000000000000000000, 0.4330709999999999837 ) ) ;
#322 = AXIS2_PLACEMENT_3D ( 'NONE', #213, #134, #270 ) ;
#323 = CYLINDRICAL_SURFACE ( 'NONE', #51, 0.07866125999999999674 ) ;
#324 = EDGE_CURVE ( 'NONE', #342, #36, #197, .T. ) ;
#325 = APPLICATION_PROTOCOL_DEFINITION ( 'draft international standard', 'automotive_design', 1998, #209 ) ;
#326 = FILL_AREA_STYLE_COLOUR ( '', #268 ) ;
#327 = CARTESIAN_POINT ( 'NONE',  ( 0.0000000000000000000, 0.0000000000000000000, 2.244094000000000033 ) ) ;
#328 = ORIENTED_EDGE ( 'NONE', *, *, #226, .T. ) ;
#329 = EDGE_LOOP ( 'NONE', ( #6, #313, #351, #302 ) ) ;
#330 = AXIS2_PLACEMENT_3D ( 'NONE', #155, #263, #264 ) ;
#331 = CIRCLE ( 'NONE', #31, 0.05897625999999998869 ) ;
#332 = EDGE_LOOP ( 'NONE', ( #199, #98, #68, #173 ) ) ;
#333 = ORIENTED_EDGE ( 'NONE', *, *, #139, .T. ) ;
#334 = EDGE_CURVE ( 'NONE', #306, #60, #164, .T. ) ;
#335 = DIRECTION ( 'NONE',  ( -1.224646799147353207E-16, -0.0000000000000000000, -1.000000000000000000 ) ) ;
#336 =( NAMED_UNIT ( * ) SI_UNIT ( $, .STERADIAN. ) SOLID_ANGLE_UNIT ( ) );
#337 = AXIS2_PLACEMENT_3D ( 'NONE', #234, #314, #100 ) ;
#338 = CARTESIAN_POINT ( 'NONE',  ( -0.1031100000000002570, 0.0000000000000000000, 2.244094000000000033 ) ) ;
#339 = CARTESIAN_POINT ( 'NONE',  ( -0.07866125999999999674, 0.0000000000000000000, 0.01968500000000000458 ) ) ;
#340 = ADVANCED_FACE ( 'NONE', ( #2 ), #210, .T. ) ;
#341 = APPLICATION_CONTEXT ( 'automotive_design' ) ;
#342 = VERTEX_POINT ( 'NONE', #118 ) ;
#343 = DIRECTION ( 'NONE',  ( -1.224646799147353207E-16, -0.0000000000000000000, -1.000000000000000000 ) ) ;
#344 = CYLINDRICAL_SURFACE ( 'NONE', #330, 0.1181100000000000066 ) ;
#345 = FACE_OUTER_BOUND ( 'NONE', #166, .T. ) ;
#346 = AXIS2_PLACEMENT_3D ( 'NONE', #254, #343, #205 ) ;
#347 = AXIS2_PLACEMENT_3D ( 'NONE', #327, #34, #67 ) ;
#348 = CARTESIAN_POINT ( 'NONE',  ( 0.0000000000000000000, 0.0000000000000000000, 0.0000000000000000000 ) ) ;
#349 = ADVANCED_FACE ( 'NONE', ( #276 ), #299, .T. ) ;
#350 = DIRECTION ( 'NONE',  ( 1.000000000000000000, 0.0000000000000000000, 0.0000000000000000000 ) ) ;
#351 = ORIENTED_EDGE ( 'NONE', *, *, #66, .T. ) ;
ENDSEC;
END-ISO-10303-21;
