ISO-10303-21;
HEADER;
FILE_DESCRIPTION (( 'STEP AP214' ),
    '1' );
FILE_NAME ('44182.STEP',
    '2023-06-22T19:34:15',
    ( '' ),
    ( '' ),
    'SwSTEP 2.0',
    'SolidWorks 2023',
    '' );
FILE_SCHEMA (( 'AUTOMOTIVE_DESIGN' ));
ENDSEC;

DATA;
#1 = UNCERTAINTY_MEASURE_WITH_UNIT (LENGTH_MEASURE( 1.000000000000000082E-05 ), #80, 'distance_accuracy_value', 'NONE');
#2 = PRODUCT_DEFINITION_SHAPE ( 'NONE', 'NONE',  #270 ) ;
#3 = VECTOR ( 'NONE', #94, 39.37007874015748143 ) ;
#4 = EDGE_CURVE ( 'NONE', #225, #65, #160, .T. ) ;
#5 = FILL_AREA_STYLE ('',( #86 ) ) ;
#6 = COLOUR_RGB ( '',1.000000000000000000, 0.000000000000000000, 0.000000000000000000 ) ;
#7 = DIRECTION ( 'NONE',  ( -0.000000000000000000, -1.000000000000000000, -0.000000000000000000 ) ) ;
#8 = VECTOR ( 'NONE', #19, 39.37007874015748143 ) ;
#9 = FACE_OUTER_BOUND ( 'NONE', #205, .T. ) ;
#10 = FACE_OUTER_BOUND ( 'NONE', #29, .T. ) ;
#11 = CARTESIAN_POINT ( 'NONE',  ( 0.000000000000000000, 0.000000000000000000, 0.000000000000000000 ) ) ;
#12 = SURFACE_STYLE_USAGE ( .BOTH. , #196 ) ;
#13 =( CONVERSION_BASED_UNIT ( 'INCH', #220 ) LENGTH_UNIT ( ) NAMED_UNIT ( #283 ) );
#14 =( NAMED_UNIT ( * ) PLANE_ANGLE_UNIT ( ) SI_UNIT ( $, .RADIAN. ) );
#15 =( GEOMETRIC_REPRESENTATION_CONTEXT ( 3 ) GLOBAL_UNCERTAINTY_ASSIGNED_CONTEXT ( ( #235 ) ) GLOBAL_UNIT_ASSIGNED_CONTEXT ( ( #63, #14, #276 ) ) REPRESENTATION_CONTEXT ( 'NONE', 'WORKASPACE' ) );
#16 = EDGE_LOOP ( 'NONE', ( #46, #208 ) ) ;
#17 = SURFACE_STYLE_FILL_AREA ( #153 ) ;
#18 = EDGE_LOOP ( 'NONE', ( #136, #107 ) ) ;
#19 = DIRECTION ( 'NONE',  ( -0.000000000000000000, -1.000000000000000000, -0.000000000000000000 ) ) ;
#20 = EDGE_CURVE ( 'NONE', #304, #70, #186, .T. ) ;
#21 = CARTESIAN_POINT ( 'NONE',  ( 1.913510623667739463E-17, 0.000000000000000000, 0.1562500000000000000 ) ) ;
#22 = VERTEX_POINT ( 'NONE', #233 ) ;
#23 = AXIS2_PLACEMENT_3D ( 'NONE', #43, #181, #69 ) ;
#24 = VERTEX_POINT ( 'NONE', #259 ) ;
#25 = PRODUCT_DEFINITION_CONTEXT ( 'detailed design', #227, 'design' ) ;
#26 =( LENGTH_UNIT ( ) NAMED_UNIT ( * ) SI_UNIT ( $, .METRE. ) );
#27 = AXIS2_PLACEMENT_3D ( 'NONE', #308, #296, #269 ) ;
#28 = FILL_AREA_STYLE ('',( #253 ) ) ;
#29 = EDGE_LOOP ( 'NONE', ( #302, #110 ) ) ;
#30 = MANIFOLD_SOLID_BREP ( 'Revolve - Cutting Edge', #247 ) ;
#31 = ORIENTED_EDGE ( 'NONE', *, *, #209, .T. ) ;
#32 = PRODUCT ( '44182', '44182', '', ( #57 ) ) ;
#33 = MECHANICAL_DESIGN_GEOMETRIC_PRESENTATION_REPRESENTATION (  '', ( #48 ), #277 ) ;
#34 = AXIS2_PLACEMENT_3D ( 'NONE', #157, #61, #133 ) ;
#35 = CARTESIAN_POINT ( 'NONE',  ( -6.123233995736766036E-17, 2.500000000000000000, 0.000000000000000000 ) ) ;
#36 = MANIFOLD_SOLID_BREP ( 'Revolve - Tool Body (Straight Shanked)', #288 ) ;
#37 =( CONVERSION_BASED_UNIT ( 'INCH', #84 ) LENGTH_UNIT ( ) NAMED_UNIT ( #152 ) );
#38 = AXIS2_PLACEMENT_3D ( 'NONE', #243, #238, #194 ) ;
#39 = AXIS2_PLACEMENT_3D ( 'NONE', #151, #245, #273 ) ;
#40 = ADVANCED_FACE ( 'NONE', ( #309 ), #263, .T. ) ;
#41 =( CONVERSION_BASED_UNIT ( 'INCH', #106 ) LENGTH_UNIT ( ) NAMED_UNIT ( #295 ) );
#42 = PLANE ( 'NONE',  #289 ) ;
#43 = CARTESIAN_POINT ( 'NONE',  ( 0.000000000000000000, 0.8125000000000001110, 0.000000000000000000 ) ) ;
#44 =( LENGTH_UNIT ( ) NAMED_UNIT ( * ) SI_UNIT ( $, .METRE. ) );
#45 = ORIENTED_EDGE ( 'NONE', *, *, #4, .F. ) ;
#46 = ORIENTED_EDGE ( 'NONE', *, *, #255, .T. ) ;
#47 = SURFACE_STYLE_FILL_AREA ( #28 ) ;
#48 = STYLED_ITEM ( 'NONE', ( #197 ), #30 ) ;
#49 = MECHANICAL_DESIGN_GEOMETRIC_PRESENTATION_REPRESENTATION (  '', ( #150 ), #15 ) ;
#50 = EDGE_LOOP ( 'NONE', ( #203, #134, #274, #91 ) ) ;
#51 = DIRECTION ( 'NONE',  ( 0.000000000000000000, -1.000000000000000000, -0.000000000000000000 ) ) ;
#52 = CARTESIAN_POINT ( 'NONE',  ( 0.1562499999999999722, 2.500000000000000000, 1.913510623667739771E-17 ) ) ;
#53 = DIRECTION ( 'NONE',  ( -0.000000000000000000, -1.000000000000000000, -0.000000000000000000 ) ) ;
#54 = PRESENTATION_STYLE_ASSIGNMENT (( #141 ) ) ;
#55 = PRESENTATION_STYLE_ASSIGNMENT (( #12 ) ) ;
#56 = FACE_OUTER_BOUND ( 'NONE', #50, .T. ) ;
#57 = PRODUCT_CONTEXT ( 'NONE', #212, 'mechanical' ) ;
#58 = FACE_OUTER_BOUND ( 'NONE', #230, .T. ) ;
#59 =( NAMED_UNIT ( * ) PLANE_ANGLE_UNIT ( ) SI_UNIT ( $, .RADIAN. ) );
#60 = DIRECTION ( 'NONE',  ( 0.000000000000000000, 0.000000000000000000, 1.000000000000000000 ) ) ;
#61 = DIRECTION ( 'NONE',  ( -3.628583108584750472E-17, 1.000000000000000000, -0.000000000000000000 ) ) ;
#62 = VERTEX_POINT ( 'NONE', #75 ) ;
#63 =( CONVERSION_BASED_UNIT ( 'INCH', #228 ) LENGTH_UNIT ( ) NAMED_UNIT ( #240 ) );
#64 = SURFACE_STYLE_USAGE ( .BOTH. , #145 ) ;
#65 = VERTEX_POINT ( 'NONE', #164 ) ;
#66 = AXIS2_PLACEMENT_3D ( 'NONE', #285, #118, #190 ) ;
#67 = AXIS2_PLACEMENT_3D ( 'NONE', #298, #167, #97 ) ;
#68 = ORIENTED_EDGE ( 'NONE', *, *, #114, .F. ) ;
#69 = DIRECTION ( 'NONE',  ( -1.000000000000000000, 0.000000000000000000, 0.000000000000000000 ) ) ;
#70 = VERTEX_POINT ( 'NONE', #52 ) ;
#71 = EDGE_LOOP ( 'NONE', ( #135, #236, #116, #170 ) ) ;
#72 =( CONVERSION_BASED_UNIT ( 'INCH', #213 ) LENGTH_UNIT ( ) NAMED_UNIT ( #266 ) );
#73 = STYLED_ITEM ( 'NONE', ( #204 ), #36 ) ;
#74 = FILL_AREA_STYLE ('',( #191 ) ) ;
#75 = CARTESIAN_POINT ( 'NONE',  ( -0.1562499999999999722, 0.8125000000000001110, 0.000000000000000000 ) ) ;
#76 = UNCERTAINTY_MEASURE_WITH_UNIT (LENGTH_MEASURE( 1.000000000000000082E-05 ), #13, 'distance_accuracy_value', 'NONE');
#77 = PLANE ( 'NONE',  #67 ) ;
#78 = AXIS2_PLACEMENT_3D ( 'NONE', #215, #306, #257 ) ;
#79 = VECTOR ( 'NONE', #284, 39.37007874015748143 ) ;
#80 =( CONVERSION_BASED_UNIT ( 'INCH', #119 ) LENGTH_UNIT ( ) NAMED_UNIT ( #174 ) );
#81 = FILL_AREA_STYLE_COLOUR ( '', #89 ) ;
#82 = CARTESIAN_POINT ( 'NONE',  ( -0.1562500000000001110, 2.500000000000000000, 0.000000000000000000 ) ) ;
#83 = AXIS2_PLACEMENT_3D ( 'NONE', #286, #53, #117 ) ;
#84 = LENGTH_MEASURE_WITH_UNIT ( LENGTH_MEASURE( 0.02539999999999999897 ), #99 );
#85 = CARTESIAN_POINT ( 'NONE',  ( 1.913510623667739463E-17, 0.000000000000000000, 0.1562500000000000000 ) ) ;
#86 = FILL_AREA_STYLE_COLOUR ( '', #214 ) ;
#87 = CARTESIAN_POINT ( 'NONE',  ( -6.123233995736766036E-17, 2.500000000000000000, 0.000000000000000000 ) ) ;
#88 = LENGTH_MEASURE_WITH_UNIT ( LENGTH_MEASURE( 0.02539999999999999897 ), #202 );
#89 = COLOUR_RGB ( '',0.7921568627450980005, 0.8196078431372548767, 0.9333333333333333481 ) ;
#90 = COLOUR_RGB ( '',1.000000000000000000, 0.000000000000000000, 0.000000000000000000 ) ;
#91 = ORIENTED_EDGE ( 'NONE', *, *, #209, .F. ) ;
#92 = EDGE_CURVE ( 'NONE', #24, #22, #182, .T. ) ;
#93 =( NAMED_UNIT ( * ) PLANE_ANGLE_UNIT ( ) SI_UNIT ( $, .RADIAN. ) );
#94 = DIRECTION ( 'NONE',  ( -3.628583108584750472E-17, 1.000000000000000000, -0.000000000000000000 ) ) ;
#95 =( GEOMETRIC_REPRESENTATION_CONTEXT ( 3 ) GLOBAL_UNCERTAINTY_ASSIGNED_CONTEXT ( ( #195 ) ) GLOBAL_UNIT_ASSIGNED_CONTEXT ( ( #250, #122, #163 ) ) REPRESENTATION_CONTEXT ( 'NONE', 'WORKASPACE' ) );
#96 = PRESENTATION_LAYER_ASSIGNMENT (  '', '', ( #150 ) ) ;
#97 = DIRECTION ( 'NONE',  ( 0.000000000000000000, -0.000000000000000000, 1.000000000000000000 ) ) ;
#98 = DIRECTION ( 'NONE',  ( -1.000000000000000000, 0.000000000000000000, 0.000000000000000000 ) ) ;
#99 =( LENGTH_UNIT ( ) NAMED_UNIT ( * ) SI_UNIT ( $, .METRE. ) );
#100 = SURFACE_STYLE_FILL_AREA ( #5 ) ;
#101 = SURFACE_STYLE_FILL_AREA ( #74 ) ;
#102 = CIRCLE ( 'NONE', #34, 0.1562500000000000278 ) ;
#103 = DIRECTION ( 'NONE',  ( 0.000000000000000000, 0.000000000000000000, -1.000000000000000000 ) ) ;
#104 = UNCERTAINTY_MEASURE_WITH_UNIT (LENGTH_MEASURE( 1.000000000000000082E-05 ), #37, 'distance_accuracy_value', 'NONE');
#105 = PRESENTATION_LAYER_ASSIGNMENT (  '', '', ( #189 ) ) ;
#106 = LENGTH_MEASURE_WITH_UNIT ( LENGTH_MEASURE( 0.02539999999999999897 ), #108 );
#107 = ORIENTED_EDGE ( 'NONE', *, *, #125, .F. ) ;
#108 =( LENGTH_UNIT ( ) NAMED_UNIT ( * ) SI_UNIT ( $, .METRE. ) );
#109 =( LENGTH_UNIT ( ) NAMED_UNIT ( * ) SI_UNIT ( $, .METRE. ) );
#110 = ORIENTED_EDGE ( 'NONE', *, *, #201, .T. ) ;
#111 = MECHANICAL_DESIGN_GEOMETRIC_PRESENTATION_REPRESENTATION (  '', ( #155 ), #265 ) ;
#112 = SURFACE_SIDE_STYLE ('',( #17 ) ) ;
#113 = CIRCLE ( 'NONE', #23, 0.1562499999999999722 ) ;
#114 = EDGE_CURVE ( 'NONE', #159, #70, #260, .T. ) ;
#115 = FILL_AREA_STYLE ('',( #292 ) ) ;
#116 = ORIENTED_EDGE ( 'NONE', *, *, #254, .T. ) ;
#117 = DIRECTION ( 'NONE',  ( 0.000000000000000000, 0.000000000000000000, -1.000000000000000000 ) ) ;
#118 = DIRECTION ( 'NONE',  ( -0.000000000000000000, -1.000000000000000000, -0.000000000000000000 ) ) ;
#119 = LENGTH_MEASURE_WITH_UNIT ( LENGTH_MEASURE( 0.02539999999999999897 ), #26 );
#120 = STYLED_ITEM ( 'NONE', ( #188 ), #264 ) ;
#121 = DIRECTION ( 'NONE',  ( -1.000000000000000000, 0.000000000000000000, 0.000000000000000000 ) ) ;
#122 =( NAMED_UNIT ( * ) PLANE_ANGLE_UNIT ( ) SI_UNIT ( $, .RADIAN. ) );
#123 = LINE ( 'NONE', #281, #79 ) ;
#124 = PRESENTATION_LAYER_ASSIGNMENT (  '', '', ( #48 ) ) ;
#125 = EDGE_CURVE ( 'NONE', #22, #24, #229, .T. ) ;
#126 = ADVANCED_FACE ( 'NONE', ( #58 ), #199, .F. ) ;
#127 =( NAMED_UNIT ( * ) SI_UNIT ( $, .STERADIAN. ) SOLID_ANGLE_UNIT ( ) );
#128 = CARTESIAN_POINT ( 'NONE',  ( -6.123233995736766036E-17, 2.500000000000000000, 0.000000000000000000 ) ) ;
#129 = AXIS2_PLACEMENT_3D ( 'NONE', #128, #241, #98 ) ;
#130 =( GEOMETRIC_REPRESENTATION_CONTEXT ( 3 ) GLOBAL_UNCERTAINTY_ASSIGNED_CONTEXT ( ( #287 ) ) GLOBAL_UNIT_ASSIGNED_CONTEXT ( ( #41, #223, #299 ) ) REPRESENTATION_CONTEXT ( 'NONE', 'WORKASPACE' ) );
#131 = PRODUCT_DEFINITION_FORMATION_WITH_SPECIFIED_SOURCE ( 'ANY', '', #32, .NOT_KNOWN. ) ;
#132 = APPLICATION_PROTOCOL_DEFINITION ( 'draft international standard', 'automotive_design', 1998, #227 ) ;
#133 = DIRECTION ( 'NONE',  ( -1.000000000000000000, 0.000000000000000000, 0.000000000000000000 ) ) ;
#134 = ORIENTED_EDGE ( 'NONE', *, *, #144, .T. ) ;
#135 = ORIENTED_EDGE ( 'NONE', *, *, #20, .F. ) ;
#136 = ORIENTED_EDGE ( 'NONE', *, *, #92, .F. ) ;
#137 = DIRECTION ( 'NONE',  ( -3.628583108584750472E-17, 1.000000000000000000, -0.000000000000000000 ) ) ;
#138 = ORIENTED_EDGE ( 'NONE', *, *, #125, .T. ) ;
#139 = CARTESIAN_POINT ( 'NONE',  ( 0.1562499999999999722, 2.500000000000000000, 0.000000000000000000 ) ) ;
#140 = FACE_OUTER_BOUND ( 'NONE', #18, .T. ) ;
#141 = SURFACE_STYLE_USAGE ( .BOTH. , #290 ) ;
#142 = MECHANICAL_DESIGN_GEOMETRIC_PRESENTATION_REPRESENTATION (  '', ( #73 ), #95 ) ;
#143 = UNCERTAINTY_MEASURE_WITH_UNIT (LENGTH_MEASURE( 1.000000000000000082E-05 ), #72, 'distance_accuracy_value', 'NONE');
#144 = EDGE_CURVE ( 'NONE', #22, #225, #147, .T. ) ;
#145 = SURFACE_SIDE_STYLE ('',( #173 ) ) ;
#146 = AXIS2_PLACEMENT_3D ( 'NONE', #11, #60, #148 ) ;
#147 = LINE ( 'NONE', #85, #206 ) ;
#148 = DIRECTION ( 'NONE',  ( 1.000000000000000000, 0.000000000000000000, 0.000000000000000000 ) ) ;
#149 = COLOUR_RGB ( '',1.000000000000000000, 0.000000000000000000, 0.000000000000000000 ) ;
#150 = STYLED_ITEM ( 'NONE', ( #55 ), #179 ) ;
#151 = CARTESIAN_POINT ( 'NONE',  ( 0.000000000000000000, 0.000000000000000000, 0.000000000000000000 ) ) ;
#152 = DIMENSIONAL_EXPONENTS ( 1.000000000000000000, 0.000000000000000000, 0.000000000000000000, 0.000000000000000000, 0.000000000000000000, 0.000000000000000000, 0.000000000000000000 ) ;
#153 = FILL_AREA_STYLE ('',( #224 ) ) ;
#154 = PRODUCT_RELATED_PRODUCT_CATEGORY ( 'part', '', ( #32 ) ) ;
#155 = STYLED_ITEM ( 'NONE', ( #54 ), #40 ) ;
#156 = DIRECTION ( 'NONE',  ( -1.000000000000000000, 0.000000000000000000, 0.000000000000000000 ) ) ;
#157 = CARTESIAN_POINT ( 'NONE',  ( -6.123233995736766036E-17, 2.500000000000000000, 0.000000000000000000 ) ) ;
#158 = DIRECTION ( 'NONE',  ( 0.000000000000000000, 0.000000000000000000, -1.000000000000000000 ) ) ;
#159 = VERTEX_POINT ( 'NONE', #82 ) ;
#160 = CIRCLE ( 'NONE', #78, 0.1562500000000000000 ) ;
#161 =( NAMED_UNIT ( * ) SI_UNIT ( $, .STERADIAN. ) SOLID_ANGLE_UNIT ( ) );
#162 = ADVANCED_BREP_SHAPE_REPRESENTATION ( '44182', ( #30, #36, #146 ), #130 ) ;
#163 =( NAMED_UNIT ( * ) SI_UNIT ( $, .STERADIAN. ) SOLID_ANGLE_UNIT ( ) );
#164 = CARTESIAN_POINT ( 'NONE',  ( 0.000000000000000000, 0.000000000000000000, -0.1562500000000000000 ) ) ;
#165 = EDGE_LOOP ( 'NONE', ( #252, #138, #31, #45 ) ) ;
#166 = ORIENTED_EDGE ( 'NONE', *, *, #172, .T. ) ;
#167 = DIRECTION ( 'NONE',  ( 0.000000000000000000, 1.000000000000000000, 0.000000000000000000 ) ) ;
#168 = SURFACE_STYLE_USAGE ( .BOTH. , #307 ) ;
#169 = AXIS2_PLACEMENT_3D ( 'NONE', #244, #7, #103 ) ;
#170 = ORIENTED_EDGE ( 'NONE', *, *, #201, .F. ) ;
#171 = CARTESIAN_POINT ( 'NONE',  ( 0.1562499999999999445, 2.500000000000000000, 1.913510623667739463E-17 ) ) ;
#172 = EDGE_CURVE ( 'NONE', #62, #304, #279, .T. ) ;
#173 = SURFACE_STYLE_FILL_AREA ( #294 ) ;
#174 = DIMENSIONAL_EXPONENTS ( 1.000000000000000000, 0.000000000000000000, 0.000000000000000000, 0.000000000000000000, 0.000000000000000000, 0.000000000000000000, 0.000000000000000000 ) ;
#175 = CARTESIAN_POINT ( 'NONE',  ( 0.000000000000000000, 0.8125000000000001110, 0.000000000000000000 ) ) ;
#176 = PRESENTATION_LAYER_ASSIGNMENT (  '', '', ( #155 ) ) ;
#177 = DIRECTION ( 'NONE',  ( -1.000000000000000000, 0.000000000000000000, 0.000000000000000000 ) ) ;
#178 = SHAPE_DEFINITION_REPRESENTATION ( #2, #162 ) ;
#179 = ADVANCED_FACE ( 'NONE', ( #56 ), #216, .T. ) ;
#180 = ORIENTED_EDGE ( 'NONE', *, *, #20, .T. ) ;
#181 = DIRECTION ( 'NONE',  ( -3.628583108584750472E-17, 1.000000000000000000, -0.000000000000000000 ) ) ;
#182 = CIRCLE ( 'NONE', #27, 0.1562499999999999722 ) ;
#183 = EDGE_CURVE ( 'NONE', #304, #62, #113, .T. ) ;
#184 = CIRCLE ( 'NONE', #83, 0.1562500000000000000 ) ;
#185 = FACE_OUTER_BOUND ( 'NONE', #71, .T. ) ;
#186 = LINE ( 'NONE', #171, #3 ) ;
#187 = DIMENSIONAL_EXPONENTS ( 1.000000000000000000, 0.000000000000000000, 0.000000000000000000, 0.000000000000000000, 0.000000000000000000, 0.000000000000000000, 0.000000000000000000 ) ;
#188 = PRESENTATION_STYLE_ASSIGNMENT (( #168 ) ) ;
#189 = STYLED_ITEM ( 'NONE', ( #246 ), #231 ) ;
#190 = DIRECTION ( 'NONE',  ( 0.000000000000000000, 0.000000000000000000, -1.000000000000000000 ) ) ;
#191 = FILL_AREA_STYLE_COLOUR ( '', #222 ) ;
#192 =( NAMED_UNIT ( * ) SI_UNIT ( $, .STERADIAN. ) SOLID_ANGLE_UNIT ( ) );
#193 = DIRECTION ( 'NONE',  ( 3.628583108584750472E-17, -1.000000000000000000, 0.000000000000000000 ) ) ;
#194 = DIRECTION ( 'NONE',  ( -1.000000000000000000, -3.628583108584750472E-17, 0.000000000000000000 ) ) ;
#195 = UNCERTAINTY_MEASURE_WITH_UNIT (LENGTH_MEASURE( 1.000000000000000082E-05 ), #250, 'distance_accuracy_value', 'NONE');
#196 = SURFACE_SIDE_STYLE ('',( #100 ) ) ;
#197 = PRESENTATION_STYLE_ASSIGNMENT (( #242 ) ) ;
#198 = AXIS2_PLACEMENT_3D ( 'NONE', #232, #51, #158 ) ;
#199 = PLANE ( 'NONE',  #38 ) ;
#200 = APPLICATION_PROTOCOL_DEFINITION ( 'draft international standard', 'automotive_design', 1998, #212 ) ;
#201 = EDGE_CURVE ( 'NONE', #70, #159, #102, .T. ) ;
#202 =( LENGTH_UNIT ( ) NAMED_UNIT ( * ) SI_UNIT ( $, .METRE. ) );
#203 = ORIENTED_EDGE ( 'NONE', *, *, #92, .T. ) ;
#204 = PRESENTATION_STYLE_ASSIGNMENT (( #64 ) ) ;
#205 = EDGE_LOOP ( 'NONE', ( #166, #180, #68, #305 ) ) ;
#206 = VECTOR ( 'NONE', #267, 39.37007874015748143 ) ;
#207 = CARTESIAN_POINT ( 'NONE',  ( 0.000000000000000000, 0.000000000000000000, -0.1562500000000000000 ) ) ;
#208 = ORIENTED_EDGE ( 'NONE', *, *, #4, .T. ) ;
#209 = EDGE_CURVE ( 'NONE', #24, #65, #251, .T. ) ;
#210 =( GEOMETRIC_REPRESENTATION_CONTEXT ( 3 ) GLOBAL_UNCERTAINTY_ASSIGNED_CONTEXT ( ( #76 ) ) GLOBAL_UNIT_ASSIGNED_CONTEXT ( ( #13, #300, #221 ) ) REPRESENTATION_CONTEXT ( 'NONE', 'WORKASPACE' ) );
#211 = DIRECTION ( 'NONE',  ( 1.000000000000000000, 3.628583108584750472E-17, 0.000000000000000000 ) ) ;
#212 = APPLICATION_CONTEXT ( 'automotive_design' ) ;
#213 = LENGTH_MEASURE_WITH_UNIT ( LENGTH_MEASURE( 0.02539999999999999897 ), #261 );
#214 = COLOUR_RGB ( '',1.000000000000000000, 0.000000000000000000, 0.000000000000000000 ) ;
#215 = CARTESIAN_POINT ( 'NONE',  ( 0.000000000000000000, 0.000000000000000000, 0.000000000000000000 ) ) ;
#216 = CYLINDRICAL_SURFACE ( 'NONE', #39, 0.1562500000000000000 ) ;
#217 = AXIS2_PLACEMENT_3D ( 'NONE', #175, #218, #177 ) ;
#218 = DIRECTION ( 'NONE',  ( -3.628583108584750472E-17, 1.000000000000000000, -0.000000000000000000 ) ) ;
#219 = ADVANCED_FACE ( 'NONE', ( #185 ), #280, .T. ) ;
#220 = LENGTH_MEASURE_WITH_UNIT ( LENGTH_MEASURE( 0.02539999999999999897 ), #109 );
#221 =( NAMED_UNIT ( * ) SI_UNIT ( $, .STERADIAN. ) SOLID_ANGLE_UNIT ( ) );
#222 = COLOUR_RGB ( '',0.7921568627450980005, 0.8196078431372548767, 0.9333333333333333481 ) ;
#223 =( NAMED_UNIT ( * ) PLANE_ANGLE_UNIT ( ) SI_UNIT ( $, .RADIAN. ) );
#224 = FILL_AREA_STYLE_COLOUR ( '', #149 ) ;
#225 = VERTEX_POINT ( 'NONE', #21 ) ;
#226 = FACE_OUTER_BOUND ( 'NONE', #16, .T. ) ;
#227 = APPLICATION_CONTEXT ( 'automotive_design' ) ;
#228 = LENGTH_MEASURE_WITH_UNIT ( LENGTH_MEASURE( 0.02539999999999999897 ), #44 );
#229 = CIRCLE ( 'NONE', #169, 0.1562499999999999722 ) ;
#230 = EDGE_LOOP ( 'NONE', ( #278, #275 ) ) ;
#231 = ADVANCED_FACE ( 'NONE', ( #226 ), #249, .T. ) ;
#232 = CARTESIAN_POINT ( 'NONE',  ( 0.000000000000000000, 0.000000000000000000, 0.000000000000000000 ) ) ;
#233 = CARTESIAN_POINT ( 'NONE',  ( 1.913510623667738847E-17, 0.8125000000000000000, 0.1562499999999999722 ) ) ;
#234 = MECHANICAL_DESIGN_GEOMETRIC_PRESENTATION_REPRESENTATION (  '', ( #120 ), #272 ) ;
#235 = UNCERTAINTY_MEASURE_WITH_UNIT (LENGTH_MEASURE( 1.000000000000000082E-05 ), #63, 'distance_accuracy_value', 'NONE');
#236 = ORIENTED_EDGE ( 'NONE', *, *, #183, .T. ) ;
#237 = PRESENTATION_LAYER_ASSIGNMENT (  '', '', ( #73 ) ) ;
#238 = DIRECTION ( 'NONE',  ( -3.628583108584750472E-17, 1.000000000000000000, 0.000000000000000000 ) ) ;
#239 = AXIS2_PLACEMENT_3D ( 'NONE', #87, #303, #156 ) ;
#240 = DIMENSIONAL_EXPONENTS ( 1.000000000000000000, 0.000000000000000000, 0.000000000000000000, 0.000000000000000000, 0.000000000000000000, 0.000000000000000000, 0.000000000000000000 ) ;
#241 = DIRECTION ( 'NONE',  ( -3.628583108584750472E-17, 1.000000000000000000, -0.000000000000000000 ) ) ;
#242 = SURFACE_STYLE_USAGE ( .BOTH. , #268 ) ;
#243 = CARTESIAN_POINT ( 'NONE',  ( 1.028641826242700682E-34, 0.8125000000000000000, 0.000000000000000000 ) ) ;
#244 = CARTESIAN_POINT ( 'NONE',  ( 0.000000000000000000, 0.8125000000000000000, 0.000000000000000000 ) ) ;
#245 = DIRECTION ( 'NONE',  ( -0.000000000000000000, -1.000000000000000000, -0.000000000000000000 ) ) ;
#246 = PRESENTATION_STYLE_ASSIGNMENT (( #271 ) ) ;
#247 = CLOSED_SHELL ( 'NONE', ( #179, #264, #40, #231 ) ) ;
#248 = AXIS2_PLACEMENT_3D ( 'NONE', #35, #137, #121 ) ;
#249 = PLANE ( 'NONE',  #198 ) ;
#250 =( CONVERSION_BASED_UNIT ( 'INCH', #88 ) LENGTH_UNIT ( ) NAMED_UNIT ( #187 ) );
#251 = LINE ( 'NONE', #207, #8 ) ;
#252 = ORIENTED_EDGE ( 'NONE', *, *, #144, .F. ) ;
#253 = FILL_AREA_STYLE_COLOUR ( '', #90 ) ;
#254 = EDGE_CURVE ( 'NONE', #62, #159, #123, .T. ) ;
#255 = EDGE_CURVE ( 'NONE', #65, #225, #184, .T. ) ;
#256 =( NAMED_UNIT ( * ) PLANE_ANGLE_UNIT ( ) SI_UNIT ( $, .RADIAN. ) );
#257 = DIRECTION ( 'NONE',  ( 0.000000000000000000, 0.000000000000000000, -1.000000000000000000 ) ) ;
#258 = SURFACE_STYLE_FILL_AREA ( #115 ) ;
#259 = CARTESIAN_POINT ( 'NONE',  ( 0.000000000000000000, 0.8125000000000000000, -0.1562499999999999722 ) ) ;
#260 = CIRCLE ( 'NONE', #129, 0.1562500000000000278 ) ;
#261 =( LENGTH_UNIT ( ) NAMED_UNIT ( * ) SI_UNIT ( $, .METRE. ) );
#262 = CYLINDRICAL_SURFACE ( 'NONE', #248, 0.1562500000000000000 ) ;
#263 = CYLINDRICAL_SURFACE ( 'NONE', #66, 0.1562500000000000000 ) ;
#264 = ADVANCED_FACE ( 'NONE', ( #140 ), #77, .T. ) ;
#265 =( GEOMETRIC_REPRESENTATION_CONTEXT ( 3 ) GLOBAL_UNCERTAINTY_ASSIGNED_CONTEXT ( ( #1 ) ) GLOBAL_UNIT_ASSIGNED_CONTEXT ( ( #80, #93, #192 ) ) REPRESENTATION_CONTEXT ( 'NONE', 'WORKASPACE' ) );
#266 = DIMENSIONAL_EXPONENTS ( 1.000000000000000000, 0.000000000000000000, 0.000000000000000000, 0.000000000000000000, 0.000000000000000000, 0.000000000000000000, 0.000000000000000000 ) ;
#267 = DIRECTION ( 'NONE',  ( -0.000000000000000000, -1.000000000000000000, -0.000000000000000000 ) ) ;
#268 = SURFACE_SIDE_STYLE ('',( #101 ) ) ;
#269 = DIRECTION ( 'NONE',  ( 0.000000000000000000, 0.000000000000000000, -1.000000000000000000 ) ) ;
#270 = PRODUCT_DEFINITION ( 'UNKNOWN', '', #131, #25 ) ;
#271 = SURFACE_STYLE_USAGE ( .BOTH. , #112 ) ;
#272 =( GEOMETRIC_REPRESENTATION_CONTEXT ( 3 ) GLOBAL_UNCERTAINTY_ASSIGNED_CONTEXT ( ( #143 ) ) GLOBAL_UNIT_ASSIGNED_CONTEXT ( ( #72, #256, #161 ) ) REPRESENTATION_CONTEXT ( 'NONE', 'WORKASPACE' ) );
#273 = DIRECTION ( 'NONE',  ( 0.000000000000000000, 0.000000000000000000, -1.000000000000000000 ) ) ;
#274 = ORIENTED_EDGE ( 'NONE', *, *, #255, .F. ) ;
#275 = ORIENTED_EDGE ( 'NONE', *, *, #183, .F. ) ;
#276 =( NAMED_UNIT ( * ) SI_UNIT ( $, .STERADIAN. ) SOLID_ANGLE_UNIT ( ) );
#277 =( GEOMETRIC_REPRESENTATION_CONTEXT ( 3 ) GLOBAL_UNCERTAINTY_ASSIGNED_CONTEXT ( ( #104 ) ) GLOBAL_UNIT_ASSIGNED_CONTEXT ( ( #37, #59, #127 ) ) REPRESENTATION_CONTEXT ( 'NONE', 'WORKASPACE' ) );
#278 = ORIENTED_EDGE ( 'NONE', *, *, #172, .F. ) ;
#279 = CIRCLE ( 'NONE', #217, 0.1562499999999999722 ) ;
#280 = CYLINDRICAL_SURFACE ( 'NONE', #239, 0.1562500000000000000 ) ;
#281 = CARTESIAN_POINT ( 'NONE',  ( -0.1562500000000000833, 2.500000000000000000, 0.000000000000000000 ) ) ;
#282 = MECHANICAL_DESIGN_GEOMETRIC_PRESENTATION_REPRESENTATION (  '', ( #189 ), #210 ) ;
#283 = DIMENSIONAL_EXPONENTS ( 1.000000000000000000, 0.000000000000000000, 0.000000000000000000, 0.000000000000000000, 0.000000000000000000, 0.000000000000000000, 0.000000000000000000 ) ;
#284 = DIRECTION ( 'NONE',  ( -3.628583108584750472E-17, 1.000000000000000000, -0.000000000000000000 ) ) ;
#285 = CARTESIAN_POINT ( 'NONE',  ( 0.000000000000000000, 0.000000000000000000, 0.000000000000000000 ) ) ;
#286 = CARTESIAN_POINT ( 'NONE',  ( 0.000000000000000000, 0.000000000000000000, 0.000000000000000000 ) ) ;
#287 = UNCERTAINTY_MEASURE_WITH_UNIT (LENGTH_MEASURE( 1.000000000000000082E-05 ), #41, 'distance_accuracy_value', 'NONE');
#288 = CLOSED_SHELL ( 'NONE', ( #291, #126, #219, #293 ) ) ;
#289 = AXIS2_PLACEMENT_3D ( 'NONE', #139, #193, #211 ) ;
#290 = SURFACE_SIDE_STYLE ('',( #258 ) ) ;
#291 = ADVANCED_FACE ( 'NONE', ( #9 ), #262, .T. ) ;
#292 = FILL_AREA_STYLE_COLOUR ( '', #6 ) ;
#293 = ADVANCED_FACE ( 'NONE', ( #10 ), #42, .F. ) ;
#294 = FILL_AREA_STYLE ('',( #81 ) ) ;
#295 = DIMENSIONAL_EXPONENTS ( 1.000000000000000000, 0.000000000000000000, 0.000000000000000000, 0.000000000000000000, 0.000000000000000000, 0.000000000000000000, 0.000000000000000000 ) ;
#296 = DIRECTION ( 'NONE',  ( -0.000000000000000000, -1.000000000000000000, -0.000000000000000000 ) ) ;
#297 = PRESENTATION_LAYER_ASSIGNMENT (  '', '', ( #120 ) ) ;
#298 = CARTESIAN_POINT ( 'NONE',  ( 0.000000000000000000, 0.8125000000000000000, 0.000000000000000000 ) ) ;
#299 =( NAMED_UNIT ( * ) SI_UNIT ( $, .STERADIAN. ) SOLID_ANGLE_UNIT ( ) );
#300 =( NAMED_UNIT ( * ) PLANE_ANGLE_UNIT ( ) SI_UNIT ( $, .RADIAN. ) );
#301 = CARTESIAN_POINT ( 'NONE',  ( 0.1562499999999999722, 0.8125000000000001110, 1.913510623667739771E-17 ) ) ;
#302 = ORIENTED_EDGE ( 'NONE', *, *, #114, .T. ) ;
#303 = DIRECTION ( 'NONE',  ( -3.628583108584750472E-17, 1.000000000000000000, -0.000000000000000000 ) ) ;
#304 = VERTEX_POINT ( 'NONE', #301 ) ;
#305 = ORIENTED_EDGE ( 'NONE', *, *, #254, .F. ) ;
#306 = DIRECTION ( 'NONE',  ( -0.000000000000000000, -1.000000000000000000, -0.000000000000000000 ) ) ;
#307 = SURFACE_SIDE_STYLE ('',( #47 ) ) ;
#308 = CARTESIAN_POINT ( 'NONE',  ( 0.000000000000000000, 0.8125000000000000000, 0.000000000000000000 ) ) ;
#309 = FACE_OUTER_BOUND ( 'NONE', #165, .T. ) ;
ENDSEC;
END-ISO-10303-21;
