ISO-10303-21;
HEADER;
FILE_DESCRIPTION (( 'STEP AP214' ),
    '1' );
FILE_NAME ('59508.STEP',
    '2023-07-24T15:48:11',
    ( '' ),
    ( '' ),
    'SwSTEP 2.0',
    'SolidWorks 2023',
    '' );
FILE_SCHEMA (( 'AUTOMOTIVE_DESIGN' ));
ENDSEC;

DATA;
#1 = VERTEX_POINT ( 'NONE', #245 ) ;
#2 = CARTESIAN_POINT ( 'NONE',  ( 0.000000000000000000, 0.000000000000000000, 0.000000000000000000 ) ) ;
#3 = ORIENTED_EDGE ( 'NONE', *, *, #202, .T. ) ;
#4 = CIRCLE ( 'NONE', #166, 12.50000000000000000 ) ;
#5 = CARTESIAN_POINT ( 'NONE',  ( 12.50000000000000000, 64.00000000000000000, 1.530808498934191916E-15 ) ) ;
#6 = EDGE_LOOP ( 'NONE', ( #90, #184 ) ) ;
#7 = DIRECTION ( 'NONE',  ( -7.227423732672903446E-17, 1.000000000000000000, -0.000000000000000000 ) ) ;
#8 =( NAMED_UNIT ( * ) PLANE_ANGLE_UNIT ( ) SI_UNIT ( $, .RADIAN. ) );
#9 = LINE ( 'NONE', #50, #54 ) ;
#10 = ADVANCED_FACE ( 'NONE', ( #88 ), #271, .F. ) ;
#11 = PRESENTATION_STYLE_ASSIGNMENT (( #32 ) ) ;
#12 = PRESENTATION_LAYER_ASSIGNMENT (  '', '', ( #56 ) ) ;
#13 = SURFACE_STYLE_USAGE ( .BOTH. , #111 ) ;
#14 = SURFACE_STYLE_FILL_AREA ( #15 ) ;
#15 = FILL_AREA_STYLE ('',( #241 ) ) ;
#16 = EDGE_LOOP ( 'NONE', ( #248, #228 ) ) ;
#17 = VERTEX_POINT ( 'NONE', #207 ) ;
#18 = ORIENTED_EDGE ( 'NONE', *, *, #68, .T. ) ;
#19 = SURFACE_SIDE_STYLE ('',( #124 ) ) ;
#20 = PRESENTATION_LAYER_ASSIGNMENT (  '', '', ( #280 ) ) ;
#21 = CARTESIAN_POINT ( 'NONE',  ( 1.530808498934191521E-15, 0.000000000000000000, 12.50000000000000000 ) ) ;
#22 = SHAPE_DEFINITION_REPRESENTATION ( #28, #40 ) ;
#23 = VERTEX_POINT ( 'NONE', #5 ) ;
#24 = MECHANICAL_DESIGN_GEOMETRIC_PRESENTATION_REPRESENTATION (  '', ( #56 ), #215 ) ;
#25 = APPLICATION_PROTOCOL_DEFINITION ( 'draft international standard', 'automotive_design', 1998, #101 ) ;
#26 = SURFACE_STYLE_FILL_AREA ( #167 ) ;
#27 = PRESENTATION_LAYER_ASSIGNMENT (  '', '', ( #125 ) ) ;
#28 = PRODUCT_DEFINITION_SHAPE ( 'NONE', 'NONE',  #209 ) ;
#29 = SURFACE_SIDE_STYLE ('',( #26 ) ) ;
#30 = DIRECTION ( 'NONE',  ( -0.000000000000000000, -1.000000000000000000, -0.000000000000000000 ) ) ;
#31 = AXIS2_PLACEMENT_3D ( 'NONE', #114, #201, #35 ) ;
#32 = SURFACE_STYLE_USAGE ( .BOTH. , #192 ) ;
#33 = EDGE_CURVE ( 'NONE', #17, #208, #116, .T. ) ;
#34 = DIRECTION ( 'NONE',  ( -0.000000000000000000, -1.000000000000000000, -0.000000000000000000 ) ) ;
#35 = DIRECTION ( 'NONE',  ( 1.000000000000000000, 7.227423732672903446E-17, 0.000000000000000000 ) ) ;
#36 = AXIS2_PLACEMENT_3D ( 'NONE', #197, #83, #283 ) ;
#37 = COLOUR_RGB ( '',0.7921568627450980005, 0.8196078431372548767, 0.9333333333333333481 ) ;
#38 = FILL_AREA_STYLE ('',( #143 ) ) ;
#39 = PLANE ( 'NONE',  #31 ) ;
#40 = ADVANCED_BREP_SHAPE_REPRESENTATION ( '59508', ( #123, #220, #127 ), #61 ) ;
#41 = VERTEX_POINT ( 'NONE', #21 ) ;
#42 = UNCERTAINTY_MEASURE_WITH_UNIT (LENGTH_MEASURE( 1.000000000000000082E-05 ), #270, 'distance_accuracy_value', 'NONE');
#43 = CARTESIAN_POINT ( 'NONE',  ( 7.703719777548943412E-31, 64.00000000000000000, 0.000000000000000000 ) ) ;
#44 =( NAMED_UNIT ( * ) PLANE_ANGLE_UNIT ( ) SI_UNIT ( $, .RADIAN. ) );
#45 = EDGE_LOOP ( 'NONE', ( #46, #49, #204, #180 ) ) ;
#46 = ORIENTED_EDGE ( 'NONE', *, *, #52, .F. ) ;
#47 = AXIS2_PLACEMENT_3D ( 'NONE', #176, #199, #67 ) ;
#48 = CARTESIAN_POINT ( 'NONE',  ( 0.000000000000000000, 64.00000000000000000, 0.000000000000000000 ) ) ;
#49 = ORIENTED_EDGE ( 'NONE', *, *, #107, .T. ) ;
#50 = CARTESIAN_POINT ( 'NONE',  ( -12.50000000000000888, 124.9999999999999858, 0.000000000000000000 ) ) ;
#51 = CIRCLE ( 'NONE', #78, 12.50000000000000533 ) ;
#52 = EDGE_CURVE ( 'NONE', #208, #41, #274, .T. ) ;
#53 = FACE_OUTER_BOUND ( 'NONE', #6, .T. ) ;
#54 = VECTOR ( 'NONE', #80, 1000.000000000000000 ) ;
#55 =( NAMED_UNIT ( * ) PLANE_ANGLE_UNIT ( ) SI_UNIT ( $, .RADIAN. ) );
#56 = STYLED_ITEM ( 'NONE', ( #138 ), #220 ) ;
#57 = LINE ( 'NONE', #105, #178 ) ;
#58 = PLANE ( 'NONE',  #36 ) ;
#59 = AXIS2_PLACEMENT_3D ( 'NONE', #82, #236, #151 ) ;
#60 = SURFACE_SIDE_STYLE ('',( #196 ) ) ;
#61 =( GEOMETRIC_REPRESENTATION_CONTEXT ( 3 ) GLOBAL_UNCERTAINTY_ASSIGNED_CONTEXT ( ( #218 ) ) GLOBAL_UNIT_ASSIGNED_CONTEXT ( ( #85, #247, #64 ) ) REPRESENTATION_CONTEXT ( 'NONE', 'WORKASPACE' ) );
#62 =( GEOMETRIC_REPRESENTATION_CONTEXT ( 3 ) GLOBAL_UNCERTAINTY_ASSIGNED_CONTEXT ( ( #142 ) ) GLOBAL_UNIT_ASSIGNED_CONTEXT ( ( #214, #55, #148 ) ) REPRESENTATION_CONTEXT ( 'NONE', 'WORKASPACE' ) );
#63 =( NAMED_UNIT ( * ) PLANE_ANGLE_UNIT ( ) SI_UNIT ( $, .RADIAN. ) );
#64 =( NAMED_UNIT ( * ) SI_UNIT ( $, .STERADIAN. ) SOLID_ANGLE_UNIT ( ) );
#65 = FILL_AREA_STYLE ('',( #153 ) ) ;
#66 = DIRECTION ( 'NONE',  ( -0.000000000000000000, -1.000000000000000000, -0.000000000000000000 ) ) ;
#67 = DIRECTION ( 'NONE',  ( -1.000000000000000000, 0.000000000000000000, 0.000000000000000000 ) ) ;
#68 = EDGE_CURVE ( 'NONE', #23, #141, #57, .T. ) ;
#69 = CYLINDRICAL_SURFACE ( 'NONE', #89, 12.50000000000000000 ) ;
#70 = ORIENTED_EDGE ( 'NONE', *, *, #33, .T. ) ;
#71 = DIRECTION ( 'NONE',  ( -1.000000000000000000, 0.000000000000000000, 0.000000000000000000 ) ) ;
#72 =( NAMED_UNIT ( * ) SI_UNIT ( $, .STERADIAN. ) SOLID_ANGLE_UNIT ( ) );
#73 = DIRECTION ( 'NONE',  ( -7.227423732672903446E-17, 1.000000000000000000, 0.000000000000000000 ) ) ;
#74 = DIRECTION ( 'NONE',  ( -1.000000000000000000, -7.227423732672903446E-17, 0.000000000000000000 ) ) ;
#75 = DIRECTION ( 'NONE',  ( 1.000000000000000000, 0.000000000000000000, 0.000000000000000000 ) ) ;
#76 = MECHANICAL_DESIGN_GEOMETRIC_PRESENTATION_REPRESENTATION (  '', ( #195 ), #164 ) ;
#77 = CARTESIAN_POINT ( 'NONE',  ( 12.50000000000000000, 125.0000000000000000, 1.530808498934191916E-15 ) ) ;
#78 = AXIS2_PLACEMENT_3D ( 'NONE', #84, #108, #240 ) ;
#79 = CARTESIAN_POINT ( 'NONE',  ( 0.000000000000000000, 64.00000000000000000, 0.000000000000000000 ) ) ;
#80 = DIRECTION ( 'NONE',  ( -7.227423732672903446E-17, 1.000000000000000000, -0.000000000000000000 ) ) ;
#81 =( GEOMETRIC_REPRESENTATION_CONTEXT ( 3 ) GLOBAL_UNCERTAINTY_ASSIGNED_CONTEXT ( ( #182 ) ) GLOBAL_UNIT_ASSIGNED_CONTEXT ( ( #257, #190, #150 ) ) REPRESENTATION_CONTEXT ( 'NONE', 'WORKASPACE' ) );
#82 = CARTESIAN_POINT ( 'NONE',  ( 0.000000000000000000, 0.000000000000000000, 0.000000000000000000 ) ) ;
#83 = DIRECTION ( 'NONE',  ( 0.000000000000000000, -1.000000000000000000, -0.000000000000000000 ) ) ;
#84 = CARTESIAN_POINT ( 'NONE',  ( -4.408728476930470067E-15, 125.0000000000000000, 0.000000000000000000 ) ) ;
#85 =( LENGTH_UNIT ( ) NAMED_UNIT ( * ) SI_UNIT ( .MILLI., .METRE. ) );
#86 =( NAMED_UNIT ( * ) SI_UNIT ( $, .STERADIAN. ) SOLID_ANGLE_UNIT ( ) );
#87 = UNCERTAINTY_MEASURE_WITH_UNIT (LENGTH_MEASURE( 1.000000000000000082E-05 ), #189, 'distance_accuracy_value', 'NONE');
#88 = FACE_OUTER_BOUND ( 'NONE', #16, .T. ) ;
#89 = AXIS2_PLACEMENT_3D ( 'NONE', #2, #177, #136 ) ;
#90 = ORIENTED_EDGE ( 'NONE', *, *, #33, .F. ) ;
#91 = AXIS2_PLACEMENT_3D ( 'NONE', #156, #230, #269 ) ;
#92 = ORIENTED_EDGE ( 'NONE', *, *, #258, .T. ) ;
#93 = ORIENTED_EDGE ( 'NONE', *, *, #175, .F. ) ;
#94 = MECHANICAL_DESIGN_GEOMETRIC_PRESENTATION_REPRESENTATION (  '', ( #125 ), #81 ) ;
#95 = PRESENTATION_LAYER_ASSIGNMENT (  '', '', ( #195 ) ) ;
#96 = ADVANCED_FACE ( 'NONE', ( #234 ), #144, .T. ) ;
#97 = AXIS2_PLACEMENT_3D ( 'NONE', #268, #73, #74 ) ;
#98 = DIRECTION ( 'NONE',  ( 0.000000000000000000, -0.000000000000000000, 1.000000000000000000 ) ) ;
#99 = PRODUCT_DEFINITION_FORMATION_WITH_SPECIFIED_SOURCE ( 'ANY', '', #130, .NOT_KNOWN. ) ;
#100 = DIRECTION ( 'NONE',  ( -0.000000000000000000, -1.000000000000000000, -0.000000000000000000 ) ) ;
#101 = APPLICATION_CONTEXT ( 'automotive_design' ) ;
#102 = PRODUCT_DEFINITION_CONTEXT ( 'detailed design', #284, 'design' ) ;
#103 = DIRECTION ( 'NONE',  ( 0.000000000000000000, 1.000000000000000000, 0.000000000000000000 ) ) ;
#104 =( GEOMETRIC_REPRESENTATION_CONTEXT ( 3 ) GLOBAL_UNCERTAINTY_ASSIGNED_CONTEXT ( ( #246 ) ) GLOBAL_UNIT_ASSIGNED_CONTEXT ( ( #133, #63, #222 ) ) REPRESENTATION_CONTEXT ( 'NONE', 'WORKASPACE' ) );
#105 = CARTESIAN_POINT ( 'NONE',  ( 12.49999999999999822, 124.9999999999999858, 1.530808498934191916E-15 ) ) ;
#106 = FACE_OUTER_BOUND ( 'NONE', #162, .T. ) ;
#107 = EDGE_CURVE ( 'NONE', #208, #17, #256, .T. ) ;
#108 = DIRECTION ( 'NONE',  ( -7.227423732672903446E-17, 1.000000000000000000, -0.000000000000000000 ) ) ;
#109 = SURFACE_STYLE_USAGE ( .BOTH. , #183 ) ;
#110 = DIRECTION ( 'NONE',  ( -7.227423732672903446E-17, 1.000000000000000000, -0.000000000000000000 ) ) ;
#111 = SURFACE_SIDE_STYLE ('',( #14 ) ) ;
#112 = CIRCLE ( 'NONE', #47, 12.50000000000000000 ) ;
#113 = DIRECTION ( 'NONE',  ( -1.000000000000000000, 0.000000000000000000, 0.000000000000000000 ) ) ;
#114 = CARTESIAN_POINT ( 'NONE',  ( 12.50000000000000000, 125.0000000000000000, 0.000000000000000000 ) ) ;
#115 = EDGE_LOOP ( 'NONE', ( #92, #18, #179, #93 ) ) ;
#116 = CIRCLE ( 'NONE', #172, 12.50000000000000000 ) ;
#117 = ORIENTED_EDGE ( 'NONE', *, *, #52, .T. ) ;
#118 = AXIS2_PLACEMENT_3D ( 'NONE', #135, #239, #285 ) ;
#119 = EDGE_CURVE ( 'NONE', #23, #1, #4, .T. ) ;
#120 = VERTEX_POINT ( 'NONE', #275 ) ;
#121 =( GEOMETRIC_REPRESENTATION_CONTEXT ( 3 ) GLOBAL_UNCERTAINTY_ASSIGNED_CONTEXT ( ( #87 ) ) GLOBAL_UNIT_ASSIGNED_CONTEXT ( ( #189, #8, #238 ) ) REPRESENTATION_CONTEXT ( 'NONE', 'WORKASPACE' ) );
#122 = ORIENTED_EDGE ( 'NONE', *, *, #213, .F. ) ;
#123 = MANIFOLD_SOLID_BREP ( 'Revolve - Cutting Edge', #193 ) ;
#124 = SURFACE_STYLE_FILL_AREA ( #140 ) ;
#125 = STYLED_ITEM ( 'NONE', ( #152 ), #186 ) ;
#126 = SURFACE_STYLE_USAGE ( .BOTH. , #29 ) ;
#127 = AXIS2_PLACEMENT_3D ( 'NONE', #251, #277, #75 ) ;
#128 = MECHANICAL_DESIGN_GEOMETRIC_PRESENTATION_REPRESENTATION (  '', ( #174 ), #62 ) ;
#129 = CARTESIAN_POINT ( 'NONE',  ( 0.000000000000000000, 0.000000000000000000, -12.50000000000000000 ) ) ;
#130 = PRODUCT ( '59508', '59508', '', ( #145 ) ) ;
#131 = FILL_AREA_STYLE_COLOUR ( '', #161 ) ;
#132 = EDGE_CURVE ( 'NONE', #17, #185, #219, .T. ) ;
#133 =( LENGTH_UNIT ( ) NAMED_UNIT ( * ) SI_UNIT ( .MILLI., .METRE. ) );
#134 = AXIS2_PLACEMENT_3D ( 'NONE', #273, #210, #244 ) ;
#135 = CARTESIAN_POINT ( 'NONE',  ( -4.408728476930469278E-15, 124.9999999999999858, 0.000000000000000000 ) ) ;
#136 = DIRECTION ( 'NONE',  ( 0.000000000000000000, 0.000000000000000000, -1.000000000000000000 ) ) ;
#137 = CYLINDRICAL_SURFACE ( 'NONE', #118, 12.50000000000000355 ) ;
#138 = PRESENTATION_STYLE_ASSIGNMENT (( #171 ) ) ;
#139 = EDGE_LOOP ( 'NONE', ( #227, #229, #203, #122 ) ) ;
#140 = FILL_AREA_STYLE ('',( #160 ) ) ;
#141 = VERTEX_POINT ( 'NONE', #77 ) ;
#142 = UNCERTAINTY_MEASURE_WITH_UNIT (LENGTH_MEASURE( 1.000000000000000082E-05 ), #214, 'distance_accuracy_value', 'NONE');
#143 = FILL_AREA_STYLE_COLOUR ( '', #169 ) ;
#144 = CYLINDRICAL_SURFACE ( 'NONE', #91, 12.50000000000000355 ) ;
#145 = PRODUCT_CONTEXT ( 'NONE', #101, 'mechanical' ) ;
#146 = VECTOR ( 'NONE', #30, 1000.000000000000000 ) ;
#147 = DIRECTION ( 'NONE',  ( 0.000000000000000000, 0.000000000000000000, -1.000000000000000000 ) ) ;
#148 =( NAMED_UNIT ( * ) SI_UNIT ( $, .STERADIAN. ) SOLID_ANGLE_UNIT ( ) );
#149 = ADVANCED_FACE ( 'NONE', ( #53 ), #260, .T. ) ;
#150 =( NAMED_UNIT ( * ) SI_UNIT ( $, .STERADIAN. ) SOLID_ANGLE_UNIT ( ) );
#151 = DIRECTION ( 'NONE',  ( 0.000000000000000000, 0.000000000000000000, -1.000000000000000000 ) ) ;
#152 = PRESENTATION_STYLE_ASSIGNMENT (( #126 ) ) ;
#153 = FILL_AREA_STYLE_COLOUR ( '', #212 ) ;
#154 = DIRECTION ( 'NONE',  ( 0.000000000000000000, 0.000000000000000000, -1.000000000000000000 ) ) ;
#155 = EDGE_LOOP ( 'NONE', ( #3, #157 ) ) ;
#156 = CARTESIAN_POINT ( 'NONE',  ( -4.408728476930469278E-15, 124.9999999999999858, 0.000000000000000000 ) ) ;
#157 = ORIENTED_EDGE ( 'NONE', *, *, #213, .T. ) ;
#158 = EDGE_CURVE ( 'NONE', #41, #185, #278, .T. ) ;
#159 = SURFACE_STYLE_USAGE ( .BOTH. , #19 ) ;
#160 = FILL_AREA_STYLE_COLOUR ( '', #37 ) ;
#161 = COLOUR_RGB ( '',1.000000000000000000, 0.000000000000000000, 0.000000000000000000 ) ;
#162 = EDGE_LOOP ( 'NONE', ( #70, #117, #232, #243 ) ) ;
#163 = AXIS2_PLACEMENT_3D ( 'NONE', #79, #103, #98 ) ;
#164 =( GEOMETRIC_REPRESENTATION_CONTEXT ( 3 ) GLOBAL_UNCERTAINTY_ASSIGNED_CONTEXT ( ( #42 ) ) GLOBAL_UNIT_ASSIGNED_CONTEXT ( ( #270, #44, #72 ) ) REPRESENTATION_CONTEXT ( 'NONE', 'WORKASPACE' ) );
#165 = PRODUCT_RELATED_PRODUCT_CATEGORY ( 'part', '', ( #130 ) ) ;
#166 = AXIS2_PLACEMENT_3D ( 'NONE', #43, #7, #71 ) ;
#167 = FILL_AREA_STYLE ('',( #235 ) ) ;
#168 = FACE_OUTER_BOUND ( 'NONE', #45, .T. ) ;
#169 = COLOUR_RGB ( '',1.000000000000000000, 0.000000000000000000, 0.000000000000000000 ) ;
#170 = COLOUR_RGB ( '',1.000000000000000000, 0.000000000000000000, 0.000000000000000000 ) ;
#171 = SURFACE_STYLE_USAGE ( .BOTH. , #60 ) ;
#172 = AXIS2_PLACEMENT_3D ( 'NONE', #48, #187, #147 ) ;
#173 = FACE_OUTER_BOUND ( 'NONE', #115, .T. ) ;
#174 = STYLED_ITEM ( 'NONE', ( #11 ), #149 ) ;
#175 = EDGE_CURVE ( 'NONE', #1, #120, #9, .T. ) ;
#176 = CARTESIAN_POINT ( 'NONE',  ( 7.703719777548943412E-31, 64.00000000000000000, 0.000000000000000000 ) ) ;
#177 = DIRECTION ( 'NONE',  ( -0.000000000000000000, -1.000000000000000000, -0.000000000000000000 ) ) ;
#178 = VECTOR ( 'NONE', #110, 1000.000000000000000 ) ;
#179 = ORIENTED_EDGE ( 'NONE', *, *, #202, .F. ) ;
#180 = ORIENTED_EDGE ( 'NONE', *, *, #158, .F. ) ;
#181 = AXIS2_PLACEMENT_3D ( 'NONE', #224, #66, #154 ) ;
#182 = UNCERTAINTY_MEASURE_WITH_UNIT (LENGTH_MEASURE( 1.000000000000000082E-05 ), #257, 'distance_accuracy_value', 'NONE');
#183 = SURFACE_SIDE_STYLE ('',( #265 ) ) ;
#184 = ORIENTED_EDGE ( 'NONE', *, *, #107, .F. ) ;
#185 = VERTEX_POINT ( 'NONE', #129 ) ;
#186 = ADVANCED_FACE ( 'NONE', ( #168 ), #216, .T. ) ;
#187 = DIRECTION ( 'NONE',  ( -0.000000000000000000, -1.000000000000000000, -0.000000000000000000 ) ) ;
#188 = AXIS2_PLACEMENT_3D ( 'NONE', #288, #221, #113 ) ;
#189 =( LENGTH_UNIT ( ) NAMED_UNIT ( * ) SI_UNIT ( .MILLI., .METRE. ) );
#190 =( NAMED_UNIT ( * ) PLANE_ANGLE_UNIT ( ) SI_UNIT ( $, .RADIAN. ) );
#191 = MECHANICAL_DESIGN_GEOMETRIC_PRESENTATION_REPRESENTATION (  '', ( #280 ), #121 ) ;
#192 = SURFACE_SIDE_STYLE ('',( #255 ) ) ;
#193 = CLOSED_SHELL ( 'NONE', ( #276, #149, #186, #231 ) ) ;
#194 = FILL_AREA_STYLE ('',( #131 ) ) ;
#195 = STYLED_ITEM ( 'NONE', ( #286 ), #276 ) ;
#196 = SURFACE_STYLE_FILL_AREA ( #65 ) ;
#197 = CARTESIAN_POINT ( 'NONE',  ( 0.000000000000000000, 0.000000000000000000, 0.000000000000000000 ) ) ;
#198 = STYLED_ITEM ( 'NONE', ( #242 ), #231 ) ;
#199 = DIRECTION ( 'NONE',  ( -7.227423732672903446E-17, 1.000000000000000000, -0.000000000000000000 ) ) ;
#200 = EDGE_LOOP ( 'NONE', ( #287, #266 ) ) ;
#201 = DIRECTION ( 'NONE',  ( 7.227423732672903446E-17, -1.000000000000000000, 0.000000000000000000 ) ) ;
#202 = EDGE_CURVE ( 'NONE', #120, #141, #51, .T. ) ;
#203 = ORIENTED_EDGE ( 'NONE', *, *, #175, .T. ) ;
#204 = ORIENTED_EDGE ( 'NONE', *, *, #132, .T. ) ;
#205 = APPLICATION_PROTOCOL_DEFINITION ( 'draft international standard', 'automotive_design', 1998, #284 ) ;
#206 = VECTOR ( 'NONE', #34, 1000.000000000000000 ) ;
#207 = CARTESIAN_POINT ( 'NONE',  ( 0.000000000000000000, 64.00000000000000000, -12.50000000000000000 ) ) ;
#208 = VERTEX_POINT ( 'NONE', #264 ) ;
#209 = PRODUCT_DEFINITION ( 'UNKNOWN', '', #99, #102 ) ;
#210 = DIRECTION ( 'NONE',  ( -0.000000000000000000, -1.000000000000000000, -0.000000000000000000 ) ) ;
#211 = PRESENTATION_STYLE_ASSIGNMENT (( #159 ) ) ;
#212 = COLOUR_RGB ( '',0.7921568627450980005, 0.8196078431372548767, 0.9333333333333333481 ) ;
#213 = EDGE_CURVE ( 'NONE', #141, #120, #263, .T. ) ;
#214 =( LENGTH_UNIT ( ) NAMED_UNIT ( * ) SI_UNIT ( .MILLI., .METRE. ) );
#215 =( GEOMETRIC_REPRESENTATION_CONTEXT ( 3 ) GLOBAL_UNCERTAINTY_ASSIGNED_CONTEXT ( ( #267 ) ) GLOBAL_UNIT_ASSIGNED_CONTEXT ( ( #226, #282, #86 ) ) REPRESENTATION_CONTEXT ( 'NONE', 'WORKASPACE' ) );
#216 = CYLINDRICAL_SURFACE ( 'NONE', #254, 12.50000000000000000 ) ;
#217 = CARTESIAN_POINT ( 'NONE',  ( 0.000000000000000000, 0.000000000000000000, 0.000000000000000000 ) ) ;
#218 = UNCERTAINTY_MEASURE_WITH_UNIT (LENGTH_MEASURE( 1.000000000000000082E-05 ), #85, 'distance_accuracy_value', 'NONE');
#219 = LINE ( 'NONE', #237, #146 ) ;
#220 = MANIFOLD_SOLID_BREP ( 'Revolve - Tool Body (Straight Shanked)', #233 ) ;
#221 = DIRECTION ( 'NONE',  ( -7.227423732672903446E-17, 1.000000000000000000, -0.000000000000000000 ) ) ;
#222 =( NAMED_UNIT ( * ) SI_UNIT ( $, .STERADIAN. ) SOLID_ANGLE_UNIT ( ) );
#223 = ADVANCED_FACE ( 'NONE', ( #173 ), #137, .T. ) ;
#224 = CARTESIAN_POINT ( 'NONE',  ( 0.000000000000000000, 0.000000000000000000, 0.000000000000000000 ) ) ;
#225 = CIRCLE ( 'NONE', #181, 12.50000000000000000 ) ;
#226 =( LENGTH_UNIT ( ) NAMED_UNIT ( * ) SI_UNIT ( .MILLI., .METRE. ) );
#227 = ORIENTED_EDGE ( 'NONE', *, *, #68, .F. ) ;
#228 = ORIENTED_EDGE ( 'NONE', *, *, #119, .F. ) ;
#229 = ORIENTED_EDGE ( 'NONE', *, *, #119, .T. ) ;
#230 = DIRECTION ( 'NONE',  ( -7.227423732672903446E-17, 1.000000000000000000, -0.000000000000000000 ) ) ;
#231 = ADVANCED_FACE ( 'NONE', ( #262 ), #58, .T. ) ;
#232 = ORIENTED_EDGE ( 'NONE', *, *, #281, .F. ) ;
#233 = CLOSED_SHELL ( 'NONE', ( #223, #10, #96, #272 ) ) ;
#234 = FACE_OUTER_BOUND ( 'NONE', #139, .T. ) ;
#235 = FILL_AREA_STYLE_COLOUR ( '', #170 ) ;
#236 = DIRECTION ( 'NONE',  ( -0.000000000000000000, -1.000000000000000000, -0.000000000000000000 ) ) ;
#237 = CARTESIAN_POINT ( 'NONE',  ( 0.000000000000000000, 0.000000000000000000, -12.50000000000000000 ) ) ;
#238 =( NAMED_UNIT ( * ) SI_UNIT ( $, .STERADIAN. ) SOLID_ANGLE_UNIT ( ) );
#239 = DIRECTION ( 'NONE',  ( -7.227423732672903446E-17, 1.000000000000000000, -0.000000000000000000 ) ) ;
#240 = DIRECTION ( 'NONE',  ( -1.000000000000000000, 0.000000000000000000, 0.000000000000000000 ) ) ;
#241 = FILL_AREA_STYLE_COLOUR ( '', #279 ) ;
#242 = PRESENTATION_STYLE_ASSIGNMENT (( #13 ) ) ;
#243 = ORIENTED_EDGE ( 'NONE', *, *, #132, .F. ) ;
#244 = DIRECTION ( 'NONE',  ( 0.000000000000000000, 0.000000000000000000, -1.000000000000000000 ) ) ;
#245 = CARTESIAN_POINT ( 'NONE',  ( -12.50000000000000000, 64.00000000000000000, 0.000000000000000000 ) ) ;
#246 = UNCERTAINTY_MEASURE_WITH_UNIT (LENGTH_MEASURE( 1.000000000000000082E-05 ), #133, 'distance_accuracy_value', 'NONE');
#247 =( NAMED_UNIT ( * ) PLANE_ANGLE_UNIT ( ) SI_UNIT ( $, .RADIAN. ) );
#248 = ORIENTED_EDGE ( 'NONE', *, *, #258, .F. ) ;
#249 = MECHANICAL_DESIGN_GEOMETRIC_PRESENTATION_REPRESENTATION (  '', ( #198 ), #104 ) ;
#250 = PRESENTATION_LAYER_ASSIGNMENT (  '', '', ( #174 ) ) ;
#251 = CARTESIAN_POINT ( 'NONE',  ( 0.000000000000000000, 0.000000000000000000, 0.000000000000000000 ) ) ;
#252 = CARTESIAN_POINT ( 'NONE',  ( 1.530808498934191521E-15, 0.000000000000000000, 12.50000000000000000 ) ) ;
#253 = PRESENTATION_LAYER_ASSIGNMENT (  '', '', ( #198 ) ) ;
#254 = AXIS2_PLACEMENT_3D ( 'NONE', #217, #100, #259 ) ;
#255 = SURFACE_STYLE_FILL_AREA ( #194 ) ;
#256 = CIRCLE ( 'NONE', #134, 12.50000000000000000 ) ;
#257 =( LENGTH_UNIT ( ) NAMED_UNIT ( * ) SI_UNIT ( .MILLI., .METRE. ) );
#258 = EDGE_CURVE ( 'NONE', #1, #23, #112, .T. ) ;
#259 = DIRECTION ( 'NONE',  ( 0.000000000000000000, 0.000000000000000000, -1.000000000000000000 ) ) ;
#260 = PLANE ( 'NONE',  #163 ) ;
#261 = FACE_OUTER_BOUND ( 'NONE', #155, .T. ) ;
#262 = FACE_OUTER_BOUND ( 'NONE', #200, .T. ) ;
#263 = CIRCLE ( 'NONE', #188, 12.50000000000000533 ) ;
#264 = CARTESIAN_POINT ( 'NONE',  ( 1.530808498934191521E-15, 64.00000000000000000, 12.50000000000000000 ) ) ;
#265 = SURFACE_STYLE_FILL_AREA ( #38 ) ;
#266 = ORIENTED_EDGE ( 'NONE', *, *, #158, .T. ) ;
#267 = UNCERTAINTY_MEASURE_WITH_UNIT (LENGTH_MEASURE( 1.000000000000000082E-05 ), #226, 'distance_accuracy_value', 'NONE');
#268 = CARTESIAN_POINT ( 'NONE',  ( 3.264728363225220430E-32, 64.00000000000000000, 0.000000000000000000 ) ) ;
#269 = DIRECTION ( 'NONE',  ( -1.000000000000000000, 0.000000000000000000, 0.000000000000000000 ) ) ;
#270 =( LENGTH_UNIT ( ) NAMED_UNIT ( * ) SI_UNIT ( .MILLI., .METRE. ) );
#271 = PLANE ( 'NONE',  #97 ) ;
#272 = ADVANCED_FACE ( 'NONE', ( #261 ), #39, .F. ) ;
#273 = CARTESIAN_POINT ( 'NONE',  ( 0.000000000000000000, 64.00000000000000000, 0.000000000000000000 ) ) ;
#274 = LINE ( 'NONE', #252, #206 ) ;
#275 = CARTESIAN_POINT ( 'NONE',  ( -12.50000000000001066, 125.0000000000000000, 0.000000000000000000 ) ) ;
#276 = ADVANCED_FACE ( 'NONE', ( #106 ), #69, .T. ) ;
#277 = DIRECTION ( 'NONE',  ( 0.000000000000000000, 0.000000000000000000, 1.000000000000000000 ) ) ;
#278 = CIRCLE ( 'NONE', #59, 12.50000000000000000 ) ;
#279 = COLOUR_RGB ( '',1.000000000000000000, 0.000000000000000000, 0.000000000000000000 ) ;
#280 = STYLED_ITEM ( 'NONE', ( #211 ), #123 ) ;
#281 = EDGE_CURVE ( 'NONE', #185, #41, #225, .T. ) ;
#282 =( NAMED_UNIT ( * ) PLANE_ANGLE_UNIT ( ) SI_UNIT ( $, .RADIAN. ) );
#283 = DIRECTION ( 'NONE',  ( 0.000000000000000000, 0.000000000000000000, -1.000000000000000000 ) ) ;
#284 = APPLICATION_CONTEXT ( 'automotive_design' ) ;
#285 = DIRECTION ( 'NONE',  ( -1.000000000000000000, 0.000000000000000000, 0.000000000000000000 ) ) ;
#286 = PRESENTATION_STYLE_ASSIGNMENT (( #109 ) ) ;
#287 = ORIENTED_EDGE ( 'NONE', *, *, #281, .T. ) ;
#288 = CARTESIAN_POINT ( 'NONE',  ( -4.408728476930470067E-15, 125.0000000000000000, 0.000000000000000000 ) ) ;
ENDSEC;
END-ISO-10303-21;
