ISO-10303-21;
HEADER;
FILE_DESCRIPTION (( 'STEP AP214' ),
    '1' );
FILE_NAME ('56512.STEP',
    '2023-06-30T22:09:36',
    ( '' ),
    ( '' ),
    'SwSTEP 2.0',
    'SolidWorks 2023',
    '' );
FILE_SCHEMA (( 'AUTOMOTIVE_DESIGN' ));
ENDSEC;

DATA;
#1 = CARTESIAN_POINT ( 'NONE',  ( 0.000000000000000000, 1.000000000000000000, 0.000000000000000000 ) ) ;
#2 = CIRCLE ( 'NONE', #216, 0.2499999999999998890 ) ;
#3 = PLANE ( 'NONE',  #115 ) ;
#4 = ORIENTED_EDGE ( 'NONE', *, *, #65, .F. ) ;
#5 = SURFACE_SIDE_STYLE ('',( #241 ) ) ;
#6 = CARTESIAN_POINT ( 'NONE',  ( 0.000000000000000000, 0.2500000000000000000, 0.000000000000000000 ) ) ;
#7 = PRODUCT_DEFINITION_SHAPE ( 'NONE', 'NONE',  #30 ) ;
#8 = LENGTH_MEASURE_WITH_UNIT ( LENGTH_MEASURE( 0.02539999999999999897 ), #95 );
#9 = ORIENTED_EDGE ( 'NONE', *, *, #87, .F. ) ;
#10 = AXIS2_PLACEMENT_3D ( 'NONE', #81, #191, #368 ) ;
#11 = PRODUCT_RELATED_PRODUCT_CATEGORY ( 'part', '', ( #299 ) ) ;
#12 = ORIENTED_EDGE ( 'NONE', *, *, #98, .F. ) ;
#13 = FACE_OUTER_BOUND ( 'NONE', #240, .T. ) ;
#14 = ORIENTED_EDGE ( 'NONE', *, *, #183, .F. ) ;
#15 = ORIENTED_EDGE ( 'NONE', *, *, #21, .T. ) ;
#16 = CARTESIAN_POINT ( 'NONE',  ( 0.000000000000000000, 0.000000000000000000, 0.000000000000000000 ) ) ;
#17 = SURFACE_STYLE_USAGE ( .BOTH. , #77 ) ;
#18 =( NAMED_UNIT ( * ) SI_UNIT ( $, .STERADIAN. ) SOLID_ANGLE_UNIT ( ) );
#19 = DIRECTION ( 'NONE',  ( -1.000000000000000000, 0.000000000000000000, 0.000000000000000000 ) ) ;
#20 = LENGTH_MEASURE_WITH_UNIT ( LENGTH_MEASURE( 0.02539999999999999897 ), #363 );
#21 = EDGE_CURVE ( 'NONE', #101, #116, #311, .T. ) ;
#22 = CARTESIAN_POINT ( 'NONE',  ( 0.000000000000000000, 0.000000000000000000, 0.000000000000000000 ) ) ;
#23 = FILL_AREA_STYLE_COLOUR ( '', #344 ) ;
#24 = EDGE_LOOP ( 'NONE', ( #99, #62, #12, #185 ) ) ;
#25 = DIRECTION ( 'NONE',  ( -0.000000000000000000, -1.000000000000000000, -0.000000000000000000 ) ) ;
#26 = VECTOR ( 'NONE', #25, 39.37007874015748143 ) ;
#27 = VERTEX_POINT ( 'NONE', #275 ) ;
#28 =( LENGTH_UNIT ( ) NAMED_UNIT ( * ) SI_UNIT ( $, .METRE. ) );
#29 = CIRCLE ( 'NONE', #290, 0.2500000000000000000 ) ;
#30 = PRODUCT_DEFINITION ( 'UNKNOWN', '', #50, #154 ) ;
#31 = DIRECTION ( 'NONE',  ( -1.000000000000000000, -1.224646799147353700E-16, 0.000000000000000000 ) ) ;
#32 = COLOUR_RGB ( '',1.000000000000000000, 0.000000000000000000, 0.000000000000000000 ) ;
#33 = UNCERTAINTY_MEASURE_WITH_UNIT (LENGTH_MEASURE( 1.000000000000000082E-05 ), #291, 'distance_accuracy_value', 'NONE');
#34 = SURFACE_SIDE_STYLE ('',( #266 ) ) ;
#35 = ORIENTED_EDGE ( 'NONE', *, *, #87, .T. ) ;
#36 = CARTESIAN_POINT ( 'NONE',  ( 3.061616997868382402E-17, 0.000000000000000000, 0.2499999999999999167 ) ) ;
#37 = EDGE_CURVE ( 'NONE', #178, #72, #301, .T. ) ;
#38 = CIRCLE ( 'NONE', #250, 0.2500000000000000000 ) ;
#39 = VERTEX_POINT ( 'NONE', #338 ) ;
#40 = FILL_AREA_STYLE ('',( #184 ) ) ;
#41 = CARTESIAN_POINT ( 'NONE',  ( 3.061616997868383018E-17, 0.2500000000000000000, 0.2500000000000000000 ) ) ;
#42 = VERTEX_POINT ( 'NONE', #131 ) ;
#43 = CARTESIAN_POINT ( 'NONE',  ( -3.061616997868383018E-17, 0.2500000000000000000, 0.000000000000000000 ) ) ;
#44 =( GEOMETRIC_REPRESENTATION_CONTEXT ( 3 ) GLOBAL_UNCERTAINTY_ASSIGNED_CONTEXT ( ( #354 ) ) GLOBAL_UNIT_ASSIGNED_CONTEXT ( ( #179, #296, #300 ) ) REPRESENTATION_CONTEXT ( 'NONE', 'WORKASPACE' ) );
#45 = LENGTH_MEASURE_WITH_UNIT ( LENGTH_MEASURE( 0.02539999999999999897 ), #313 );
#46 = FILL_AREA_STYLE_COLOUR ( '', #258 ) ;
#47 = CARTESIAN_POINT ( 'NONE',  ( -3.061616997868383018E-17, 0.2500000000000000000, 0.000000000000000000 ) ) ;
#48 = SURFACE_SIDE_STYLE ('',( #372 ) ) ;
#49 =( NAMED_UNIT ( * ) SI_UNIT ( $, .STERADIAN. ) SOLID_ANGLE_UNIT ( ) );
#50 = PRODUCT_DEFINITION_FORMATION_WITH_SPECIFIED_SOURCE ( 'ANY', '', #299, .NOT_KNOWN. ) ;
#51 = DIRECTION ( 'NONE',  ( 1.000000000000000000, 0.000000000000000000, 0.000000000000000000 ) ) ;
#52 = CIRCLE ( 'NONE', #150, 0.2499999999999999722 ) ;
#53 = PRESENTATION_STYLE_ASSIGNMENT (( #224 ) ) ;
#54 = CARTESIAN_POINT ( 'NONE',  ( -6.123233995736772199E-17, 3.000000000000000444, 0.000000000000000000 ) ) ;
#55 = EDGE_CURVE ( 'NONE', #27, #42, #317, .T. ) ;
#56 =( GEOMETRIC_REPRESENTATION_CONTEXT ( 3 ) GLOBAL_UNCERTAINTY_ASSIGNED_CONTEXT ( ( #174 ) ) GLOBAL_UNIT_ASSIGNED_CONTEXT ( ( #222, #281, #18 ) ) REPRESENTATION_CONTEXT ( 'NONE', 'WORKASPACE' ) );
#57 = DIRECTION ( 'NONE',  ( -1.224646799147353700E-16, 1.000000000000000000, 0.000000000000000000 ) ) ;
#58 = CIRCLE ( 'NONE', #69, 0.2500000000000000000 ) ;
#59 = STYLED_ITEM ( 'NONE', ( #194 ), #201 ) ;
#60 = FACE_OUTER_BOUND ( 'NONE', #365, .T. ) ;
#61 = AXIS2_PLACEMENT_3D ( 'NONE', #85, #57, #31 ) ;
#62 = ORIENTED_EDGE ( 'NONE', *, *, #245, .T. ) ;
#63 = DIRECTION ( 'NONE',  ( -1.000000000000000000, 0.000000000000000000, 0.000000000000000000 ) ) ;
#64 = VERTEX_POINT ( 'NONE', #244 ) ;
#65 = EDGE_CURVE ( 'NONE', #64, #27, #58, .T. ) ;
#66 = PRESENTATION_LAYER_ASSIGNMENT (  '', '', ( #173 ) ) ;
#67 = FILL_AREA_STYLE_COLOUR ( '', #90 ) ;
#68 = DIRECTION ( 'NONE',  ( 0.000000000000000000, 0.000000000000000000, -1.000000000000000000 ) ) ;
#69 = AXIS2_PLACEMENT_3D ( 'NONE', #6, #128, #234 ) ;
#70 = CARTESIAN_POINT ( 'NONE',  ( 0.000000000000000000, 0.000000000000000000, 0.000000000000000000 ) ) ;
#71 = DIRECTION ( 'NONE',  ( 0.000000000000000000, 0.000000000000000000, -1.000000000000000000 ) ) ;
#72 = VERTEX_POINT ( 'NONE', #358 ) ;
#73 =( NAMED_UNIT ( * ) PLANE_ANGLE_UNIT ( ) SI_UNIT ( $, .RADIAN. ) );
#74 = STYLED_ITEM ( 'NONE', ( #314 ), #367 ) ;
#75 = PRESENTATION_LAYER_ASSIGNMENT (  '', '', ( #325 ) ) ;
#76 = SPHERICAL_SURFACE ( 'NONE', #263, 0.2500000000000000000 ) ;
#77 = SURFACE_SIDE_STYLE ('',( #343 ) ) ;
#78 = EDGE_CURVE ( 'NONE', #39, #101, #96, .T. ) ;
#79 = EDGE_LOOP ( 'NONE', ( #246, #267, #180, #9 ) ) ;
#80 = APPLICATION_PROTOCOL_DEFINITION ( 'draft international standard', 'automotive_design', 1998, #253 ) ;
#81 = CARTESIAN_POINT ( 'NONE',  ( -6.123233995736772199E-17, 3.000000000000000444, 0.000000000000000000 ) ) ;
#82 = DIRECTION ( 'NONE',  ( -1.000000000000000000, 0.000000000000000000, 0.000000000000000000 ) ) ;
#83 = AXIS2_PLACEMENT_3D ( 'NONE', #70, #239, #360 ) ;
#84 = DIMENSIONAL_EXPONENTS ( 1.000000000000000000, 0.000000000000000000, 0.000000000000000000, 0.000000000000000000, 0.000000000000000000, 0.000000000000000000, 0.000000000000000000 ) ;
#85 = CARTESIAN_POINT ( 'NONE',  ( 1.836970198721030181E-16, 1.000000000000000000, 0.000000000000000000 ) ) ;
#86 = ORIENTED_EDGE ( 'NONE', *, *, #55, .F. ) ;
#87 = EDGE_CURVE ( 'NONE', #297, #72, #125, .T. ) ;
#88 = FILL_AREA_STYLE ('',( #226 ) ) ;
#89 = CARTESIAN_POINT ( 'NONE',  ( 0.2499999999999998057, 3.000000000000000444, 3.061616997868381785E-17 ) ) ;
#90 = COLOUR_RGB ( '',0.7921568627450980005, 0.8196078431372548767, 0.9333333333333333481 ) ;
#91 = AXIS2_PLACEMENT_3D ( 'NONE', #312, #140, #19 ) ;
#92 = EDGE_CURVE ( 'NONE', #102, #39, #2, .T. ) ;
#93 = LINE ( 'NONE', #326, #26 ) ;
#94 = PRESENTATION_LAYER_ASSIGNMENT (  '', '', ( #74 ) ) ;
#95 =( LENGTH_UNIT ( ) NAMED_UNIT ( * ) SI_UNIT ( $, .METRE. ) );
#96 = LINE ( 'NONE', #36, #283 ) ;
#97 = CLOSED_SHELL ( 'NONE', ( #355, #318, #219, #177, #367 ) ) ;
#98 = EDGE_CURVE ( 'NONE', #72, #297, #52, .T. ) ;
#99 = ORIENTED_EDGE ( 'NONE', *, *, #146, .T. ) ;
#100 = CARTESIAN_POINT ( 'NONE',  ( 0.000000000000000000, 0.2500000000000000000, 0.000000000000000000 ) ) ;
#101 = VERTEX_POINT ( 'NONE', #41 ) ;
#102 = VERTEX_POINT ( 'NONE', #159 ) ;
#103 = DIRECTION ( 'NONE',  ( 1.000000000000000000, 0.000000000000000000, 0.000000000000000000 ) ) ;
#104 = LENGTH_MEASURE_WITH_UNIT ( LENGTH_MEASURE( 0.02539999999999999897 ), #143 );
#105 = MECHANICAL_DESIGN_GEOMETRIC_PRESENTATION_REPRESENTATION (  '', ( #220 ), #233 ) ;
#106 = EDGE_CURVE ( 'NONE', #27, #101, #254, .T. ) ;
#107 = FILL_AREA_STYLE_COLOUR ( '', #371 ) ;
#108 = ORIENTED_EDGE ( 'NONE', *, *, #106, .F. ) ;
#109 = AXIS2_PLACEMENT_3D ( 'NONE', #100, #339, #310 ) ;
#110 = SURFACE_SIDE_STYLE ('',( #193 ) ) ;
#111 = DIRECTION ( 'NONE',  ( -0.000000000000000000, -1.000000000000000000, -0.000000000000000000 ) ) ;
#112 = DIMENSIONAL_EXPONENTS ( 1.000000000000000000, 0.000000000000000000, 0.000000000000000000, 0.000000000000000000, 0.000000000000000000, 0.000000000000000000, 0.000000000000000000 ) ;
#113 =( LENGTH_UNIT ( ) NAMED_UNIT ( * ) SI_UNIT ( $, .METRE. ) );
#114 = FILL_AREA_STYLE ('',( #120 ) ) ;
#115 = AXIS2_PLACEMENT_3D ( 'NONE', #331, #214, #175 ) ;
#116 = VERTEX_POINT ( 'NONE', #280 ) ;
#117 = EDGE_CURVE ( 'NONE', #334, #178, #351, .T. ) ;
#118 = DIRECTION ( 'NONE',  ( 0.000000000000000000, 0.000000000000000000, -1.000000000000000000 ) ) ;
#119 = ORIENTED_EDGE ( 'NONE', *, *, #106, .T. ) ;
#120 = FILL_AREA_STYLE_COLOUR ( '', #32 ) ;
#121 =( NAMED_UNIT ( * ) PLANE_ANGLE_UNIT ( ) SI_UNIT ( $, .RADIAN. ) );
#122 = UNCERTAINTY_MEASURE_WITH_UNIT (LENGTH_MEASURE( 1.000000000000000082E-05 ), #282, 'distance_accuracy_value', 'NONE');
#123 = STYLED_ITEM ( 'NONE', ( #232 ), #355 ) ;
#124 = SURFACE_STYLE_FILL_AREA ( #88 ) ;
#125 = CIRCLE ( 'NONE', #166, 0.2499999999999999722 ) ;
#126 =( NAMED_UNIT ( * ) PLANE_ANGLE_UNIT ( ) SI_UNIT ( $, .RADIAN. ) );
#127 =( NAMED_UNIT ( * ) PLANE_ANGLE_UNIT ( ) SI_UNIT ( $, .RADIAN. ) );
#128 = DIRECTION ( 'NONE',  ( -0.000000000000000000, -1.000000000000000000, -0.000000000000000000 ) ) ;
#129 = STYLED_ITEM ( 'NONE', ( #236 ), #335 ) ;
#130 = DIRECTION ( 'NONE',  ( -1.224646799147353700E-16, 1.000000000000000000, -0.000000000000000000 ) ) ;
#131 = CARTESIAN_POINT ( 'NONE',  ( -1.530808498934191509E-17, 0.000000000000000000, 0.000000000000000000 ) ) ;
#132 = ORIENTED_EDGE ( 'NONE', *, *, #117, .F. ) ;
#133 = MECHANICAL_DESIGN_GEOMETRIC_PRESENTATION_REPRESENTATION (  '', ( #74 ), #189 ) ;
#134 =( CONVERSION_BASED_UNIT ( 'INCH', #20 ) LENGTH_UNIT ( ) NAMED_UNIT ( #316 ) );
#135 = DIRECTION ( 'NONE',  ( -0.000000000000000000, -1.000000000000000000, -0.000000000000000000 ) ) ;
#136 =( NAMED_UNIT ( * ) PLANE_ANGLE_UNIT ( ) SI_UNIT ( $, .RADIAN. ) );
#137 =( NAMED_UNIT ( * ) SI_UNIT ( $, .STERADIAN. ) SOLID_ANGLE_UNIT ( ) );
#138 = CARTESIAN_POINT ( 'NONE',  ( 1.836970198721030427E-16, 1.000000000000000000, 0.000000000000000000 ) ) ;
#139 = COLOUR_RGB ( '',1.000000000000000000, 0.000000000000000000, 0.000000000000000000 ) ;
#140 = DIRECTION ( 'NONE',  ( -1.224646799147353700E-16, 1.000000000000000000, -0.000000000000000000 ) ) ;
#141 = VECTOR ( 'NONE', #187, 39.37007874015748143 ) ;
#142 =( GEOMETRIC_REPRESENTATION_CONTEXT ( 3 ) GLOBAL_UNCERTAINTY_ASSIGNED_CONTEXT ( ( #176 ) ) GLOBAL_UNIT_ASSIGNED_CONTEXT ( ( #223, #341, #197 ) ) REPRESENTATION_CONTEXT ( 'NONE', 'WORKASPACE' ) );
#143 =( LENGTH_UNIT ( ) NAMED_UNIT ( * ) SI_UNIT ( $, .METRE. ) );
#144 = DIMENSIONAL_EXPONENTS ( 1.000000000000000000, 0.000000000000000000, 0.000000000000000000, 0.000000000000000000, 0.000000000000000000, 0.000000000000000000, 0.000000000000000000 ) ;
#145 = FILL_AREA_STYLE ('',( #107 ) ) ;
#146 = EDGE_CURVE ( 'NONE', #178, #334, #237, .T. ) ;
#147 = CYLINDRICAL_SURFACE ( 'NONE', #149, 0.2499999999999998612 ) ;
#148 = DIRECTION ( 'NONE',  ( -1.224646799147353700E-16, 1.000000000000000000, -0.000000000000000000 ) ) ;
#149 = AXIS2_PLACEMENT_3D ( 'NONE', #54, #148, #262 ) ;
#150 = AXIS2_PLACEMENT_3D ( 'NONE', #269, #130, #362 ) ;
#151 = FILL_AREA_STYLE ('',( #67 ) ) ;
#152 = EDGE_LOOP ( 'NONE', ( #14, #160, #278, #306 ) ) ;
#153 = ORIENTED_EDGE ( 'NONE', *, *, #98, .T. ) ;
#154 = PRODUCT_DEFINITION_CONTEXT ( 'detailed design', #253, 'design' ) ;
#155 = CARTESIAN_POINT ( 'NONE',  ( 0.000000000000000000, 1.000000000000000000, 0.000000000000000000 ) ) ;
#156 =( NAMED_UNIT ( * ) SI_UNIT ( $, .STERADIAN. ) SOLID_ANGLE_UNIT ( ) );
#157 = DIRECTION ( 'NONE',  ( -0.000000000000000000, -1.000000000000000000, -0.000000000000000000 ) ) ;
#158 = MECHANICAL_DESIGN_GEOMETRIC_PRESENTATION_REPRESENTATION (  '', ( #59 ), #322 ) ;
#159 = CARTESIAN_POINT ( 'NONE',  ( 0.000000000000000000, 1.000000000000000000, -0.2499999999999998890 ) ) ;
#160 = ORIENTED_EDGE ( 'NONE', *, *, #206, .T. ) ;
#161 = PRESENTATION_LAYER_ASSIGNMENT (  '', '', ( #123 ) ) ;
#162 = ORIENTED_EDGE ( 'NONE', *, *, #252, .T. ) ;
#163 = LENGTH_MEASURE_WITH_UNIT ( LENGTH_MEASURE( 0.02539999999999999897 ), #113 );
#164 = FILL_AREA_STYLE ('',( #46 ) ) ;
#165 = CARTESIAN_POINT ( 'NONE',  ( -3.061616997868383018E-17, 0.2500000000000000000, 0.000000000000000000 ) ) ;
#166 = AXIS2_PLACEMENT_3D ( 'NONE', #209, #332, #63 ) ;
#167 = FACE_OUTER_BOUND ( 'NONE', #255, .T. ) ;
#168 =( LENGTH_UNIT ( ) NAMED_UNIT ( * ) SI_UNIT ( $, .METRE. ) );
#169 = ORIENTED_EDGE ( 'NONE', *, *, #206, .F. ) ;
#170 = MECHANICAL_DESIGN_GEOMETRIC_PRESENTATION_REPRESENTATION (  '', ( #325 ), #142 ) ;
#171 =( NAMED_UNIT ( * ) SI_UNIT ( $, .STERADIAN. ) SOLID_ANGLE_UNIT ( ) );
#172 = SURFACE_STYLE_USAGE ( .BOTH. , #205 ) ;
#173 = STYLED_ITEM ( 'NONE', ( #286 ), #219 ) ;
#174 = UNCERTAINTY_MEASURE_WITH_UNIT (LENGTH_MEASURE( 1.000000000000000082E-05 ), #222, 'distance_accuracy_value', 'NONE');
#175 = DIRECTION ( 'NONE',  ( 1.000000000000000000, 1.224646799147353700E-16, 0.000000000000000000 ) ) ;
#176 = UNCERTAINTY_MEASURE_WITH_UNIT (LENGTH_MEASURE( 1.000000000000000082E-05 ), #223, 'distance_accuracy_value', 'NONE');
#177 = ADVANCED_FACE ( 'NONE', ( #345 ), #308, .T. ) ;
#178 = VERTEX_POINT ( 'NONE', #256 ) ;
#179 =( CONVERSION_BASED_UNIT ( 'INCH', #8 ) LENGTH_UNIT ( ) NAMED_UNIT ( #144 ) );
#180 = ORIENTED_EDGE ( 'NONE', *, *, #37, .T. ) ;
#181 = CARTESIAN_POINT ( 'NONE',  ( 0.000000000000000000, 0.2500000000000000000, 0.000000000000000000 ) ) ;
#182 =( GEOMETRIC_REPRESENTATION_CONTEXT ( 3 ) GLOBAL_UNCERTAINTY_ASSIGNED_CONTEXT ( ( #235 ) ) GLOBAL_UNIT_ASSIGNED_CONTEXT ( ( #333, #126, #336 ) ) REPRESENTATION_CONTEXT ( 'NONE', 'WORKASPACE' ) );
#183 = EDGE_CURVE ( 'NONE', #116, #42, #29, .T. ) ;
#184 = FILL_AREA_STYLE_COLOUR ( '', #328 ) ;
#185 = ORIENTED_EDGE ( 'NONE', *, *, #37, .F. ) ;
#186 =( LENGTH_UNIT ( ) NAMED_UNIT ( * ) SI_UNIT ( $, .METRE. ) );
#187 = DIRECTION ( 'NONE',  ( -1.224646799147353700E-16, 1.000000000000000000, -0.000000000000000000 ) ) ;
#188 = SURFACE_STYLE_USAGE ( .BOTH. , #110 ) ;
#189 =( GEOMETRIC_REPRESENTATION_CONTEXT ( 3 ) GLOBAL_UNCERTAINTY_ASSIGNED_CONTEXT ( ( #295 ) ) GLOBAL_UNIT_ASSIGNED_CONTEXT ( ( #134, #136, #49 ) ) REPRESENTATION_CONTEXT ( 'NONE', 'WORKASPACE' ) );
#190 = DIRECTION ( 'NONE',  ( 0.000000000000000000, 0.000000000000000000, 1.000000000000000000 ) ) ;
#191 = DIRECTION ( 'NONE',  ( -1.224646799147353700E-16, 1.000000000000000000, -0.000000000000000000 ) ) ;
#192 = ADVANCED_FACE ( 'NONE', ( #217 ), #285, .T. ) ;
#193 = SURFACE_STYLE_FILL_AREA ( #164 ) ;
#194 = PRESENTATION_STYLE_ASSIGNMENT (( #17 ) ) ;
#195 = FILL_AREA_STYLE ('',( #23 ) ) ;
#196 = DIMENSIONAL_EXPONENTS ( 1.000000000000000000, 0.000000000000000000, 0.000000000000000000, 0.000000000000000000, 0.000000000000000000, 0.000000000000000000, 0.000000000000000000 ) ;
#197 =( NAMED_UNIT ( * ) SI_UNIT ( $, .STERADIAN. ) SOLID_ANGLE_UNIT ( ) );
#198 = FACE_OUTER_BOUND ( 'NONE', #79, .T. ) ;
#199 = SURFACE_STYLE_USAGE ( .BOTH. , #347 ) ;
#200 = ORIENTED_EDGE ( 'NONE', *, *, #146, .F. ) ;
#201 = MANIFOLD_SOLID_BREP ( 'Revolve - Tool Body (Straight Shanked)', #303 ) ;
#202 = DIRECTION ( 'NONE',  ( 0.000000000000000000, -0.000000000000000000, 1.000000000000000000 ) ) ;
#203 = PRESENTATION_LAYER_ASSIGNMENT (  '', '', ( #129 ) ) ;
#204 = AXIS2_PLACEMENT_3D ( 'NONE', #138, #249, #82 ) ;
#205 = SURFACE_SIDE_STYLE ('',( #228 ) ) ;
#206 = EDGE_CURVE ( 'NONE', #116, #64, #38, .T. ) ;
#207 = FACE_OUTER_BOUND ( 'NONE', #152, .T. ) ;
#208 = MECHANICAL_DESIGN_GEOMETRIC_PRESENTATION_REPRESENTATION (  '', ( #173 ), #229 ) ;
#209 = CARTESIAN_POINT ( 'NONE',  ( -6.123233995736772199E-17, 3.000000000000000444, 0.000000000000000000 ) ) ;
#210 = ORIENTED_EDGE ( 'NONE', *, *, #78, .T. ) ;
#211 = APPLICATION_CONTEXT ( 'automotive_design' ) ;
#212 = LENGTH_MEASURE_WITH_UNIT ( LENGTH_MEASURE( 0.02539999999999999897 ), #186 );
#213 = CARTESIAN_POINT ( 'NONE',  ( -0.2499999999999999167, 3.000000000000000444, 0.000000000000000000 ) ) ;
#214 = DIRECTION ( 'NONE',  ( 1.224646799147353700E-16, -1.000000000000000000, 0.000000000000000000 ) ) ;
#215 = ORIENTED_EDGE ( 'NONE', *, *, #92, .F. ) ;
#216 = AXIS2_PLACEMENT_3D ( 'NONE', #155, #157, #305 ) ;
#217 = FACE_OUTER_BOUND ( 'NONE', #24, .T. ) ;
#218 = DIRECTION ( 'NONE',  ( 0.000000000000000000, 0.000000000000000000, 1.000000000000000000 ) ) ;
#219 = ADVANCED_FACE ( 'NONE', ( #167 ), #289, .T. ) ;
#220 = STYLED_ITEM ( 'NONE', ( #320 ), #318 ) ;
#221 = CARTESIAN_POINT ( 'NONE',  ( 0.000000000000000000, 0.2500000000000000000, 0.000000000000000000 ) ) ;
#222 =( CONVERSION_BASED_UNIT ( 'INCH', #163 ) LENGTH_UNIT ( ) NAMED_UNIT ( #356 ) );
#223 =( CONVERSION_BASED_UNIT ( 'INCH', #104 ) LENGTH_UNIT ( ) NAMED_UNIT ( #112 ) );
#224 = SURFACE_STYLE_USAGE ( .BOTH. , #48 ) ;
#225 = AXIS2_PLACEMENT_3D ( 'NONE', #1, #261, #202 ) ;
#226 = FILL_AREA_STYLE_COLOUR ( '', #139 ) ;
#227 = LENGTH_MEASURE_WITH_UNIT ( LENGTH_MEASURE( 0.02539999999999999897 ), #168 );
#228 = SURFACE_STYLE_FILL_AREA ( #114 ) ;
#229 =( GEOMETRIC_REPRESENTATION_CONTEXT ( 3 ) GLOBAL_UNCERTAINTY_ASSIGNED_CONTEXT ( ( #33 ) ) GLOBAL_UNIT_ASSIGNED_CONTEXT ( ( #291, #121, #171 ) ) REPRESENTATION_CONTEXT ( 'NONE', 'WORKASPACE' ) );
#230 = DIRECTION ( 'NONE',  ( -0.000000000000000000, -1.000000000000000000, -0.000000000000000000 ) ) ;
#231 = FACE_OUTER_BOUND ( 'NONE', #309, .T. ) ;
#232 = PRESENTATION_STYLE_ASSIGNMENT (( #353 ) ) ;
#233 =( GEOMETRIC_REPRESENTATION_CONTEXT ( 3 ) GLOBAL_UNCERTAINTY_ASSIGNED_CONTEXT ( ( #327 ) ) GLOBAL_UNIT_ASSIGNED_CONTEXT ( ( #268, #127, #156 ) ) REPRESENTATION_CONTEXT ( 'NONE', 'WORKASPACE' ) );
#234 = DIRECTION ( 'NONE',  ( 0.000000000000000000, 0.000000000000000000, -1.000000000000000000 ) ) ;
#235 = UNCERTAINTY_MEASURE_WITH_UNIT (LENGTH_MEASURE( 1.000000000000000082E-05 ), #333, 'distance_accuracy_value', 'NONE');
#236 = PRESENTATION_STYLE_ASSIGNMENT (( #357 ) ) ;
#237 = CIRCLE ( 'NONE', #91, 0.2499999999999997224 ) ;
#238 = EDGE_LOOP ( 'NONE', ( #265, #361, #162, #169, #330 ) ) ;
#239 = DIRECTION ( 'NONE',  ( -0.000000000000000000, -1.000000000000000000, -0.000000000000000000 ) ) ;
#240 = EDGE_LOOP ( 'NONE', ( #153, #35 ) ) ;
#241 = SURFACE_STYLE_FILL_AREA ( #40 ) ;
#242 = DIRECTION ( 'NONE',  ( -0.000000000000000000, -1.000000000000000000, -0.000000000000000000 ) ) ;
#243 = CIRCLE ( 'NONE', #337, 0.2499999999999998890 ) ;
#244 = CARTESIAN_POINT ( 'NONE',  ( 0.000000000000000000, 0.2500000000000000000, -0.2500000000000000000 ) ) ;
#245 = EDGE_CURVE ( 'NONE', #334, #297, #348, .T. ) ;
#246 = ORIENTED_EDGE ( 'NONE', *, *, #245, .F. ) ;
#247 = DIRECTION ( 'NONE',  ( 1.000000000000000000, 0.000000000000000000, 0.000000000000000000 ) ) ;
#248 = DIRECTION ( 'NONE',  ( 1.000000000000000000, 0.000000000000000000, -1.224646799147353207E-16 ) ) ;
#249 = DIRECTION ( 'NONE',  ( -1.224646799147353700E-16, 1.000000000000000000, -0.000000000000000000 ) ) ;
#250 = AXIS2_PLACEMENT_3D ( 'NONE', #221, #230, #260 ) ;
#251 = PRODUCT_CONTEXT ( 'NONE', #211, 'mechanical' ) ;
#252 = EDGE_CURVE ( 'NONE', #102, #64, #93, .T. ) ;
#253 = APPLICATION_CONTEXT ( 'automotive_design' ) ;
#254 = CIRCLE ( 'NONE', #109, 0.2500000000000000000 ) ;
#255 = EDGE_LOOP ( 'NONE', ( #215, #321 ) ) ;
#256 = CARTESIAN_POINT ( 'NONE',  ( -0.2499999999999995559, 1.000000000000000000, 0.000000000000000000 ) ) ;
#257 = DIMENSIONAL_EXPONENTS ( 1.000000000000000000, 0.000000000000000000, 0.000000000000000000, 0.000000000000000000, 0.000000000000000000, 0.000000000000000000, 0.000000000000000000 ) ;
#258 = COLOUR_RGB ( '',1.000000000000000000, 0.000000000000000000, 0.000000000000000000 ) ;
#259 = CYLINDRICAL_SURFACE ( 'NONE', #83, 0.2499999999999999167 ) ;
#260 = DIRECTION ( 'NONE',  ( 0.000000000000000000, 0.000000000000000000, -1.000000000000000000 ) ) ;
#261 = DIRECTION ( 'NONE',  ( 0.000000000000000000, 1.000000000000000000, 0.000000000000000000 ) ) ;
#262 = DIRECTION ( 'NONE',  ( -1.000000000000000000, 0.000000000000000000, 0.000000000000000000 ) ) ;
#263 = AXIS2_PLACEMENT_3D ( 'NONE', #43, #190, #103 ) ;
#264 = PLANE ( 'NONE',  #61 ) ;
#265 = ORIENTED_EDGE ( 'NONE', *, *, #78, .F. ) ;
#266 = SURFACE_STYLE_FILL_AREA ( #151 ) ;
#267 = ORIENTED_EDGE ( 'NONE', *, *, #117, .T. ) ;
#268 =( CONVERSION_BASED_UNIT ( 'INCH', #273 ) LENGTH_UNIT ( ) NAMED_UNIT ( #284 ) );
#269 = CARTESIAN_POINT ( 'NONE',  ( -6.123233995736772199E-17, 3.000000000000000444, 0.000000000000000000 ) ) ;
#270 = CARTESIAN_POINT ( 'NONE',  ( 0.2499999999999999167, 1.000000000000000000, 3.061616997868382402E-17 ) ) ;
#271 = PRESENTATION_LAYER_ASSIGNMENT (  '', '', ( #59 ) ) ;
#272 = ORIENTED_EDGE ( 'NONE', *, *, #252, .F. ) ;
#273 = LENGTH_MEASURE_WITH_UNIT ( LENGTH_MEASURE( 0.02539999999999999897 ), #28 );
#274 = CARTESIAN_POINT ( 'NONE',  ( -3.061616997868383018E-17, 0.2500000000000000000, 0.000000000000000000 ) ) ;
#275 = CARTESIAN_POINT ( 'NONE',  ( 0.2500000000000000000, 0.2500000000000000000, 0.000000000000000000 ) ) ;
#276 = EDGE_CURVE ( 'NONE', #39, #102, #243, .T. ) ;
#277 = PRESENTATION_LAYER_ASSIGNMENT (  '', '', ( #220 ) ) ;
#278 = ORIENTED_EDGE ( 'NONE', *, *, #65, .T. ) ;
#279 = APPLICATION_PROTOCOL_DEFINITION ( 'draft international standard', 'automotive_design', 1998, #211 ) ;
#280 = CARTESIAN_POINT ( 'NONE',  ( -0.2500000000000000000, 0.2500000000000000000, 3.061616997868382402E-17 ) ) ;
#281 =( NAMED_UNIT ( * ) PLANE_ANGLE_UNIT ( ) SI_UNIT ( $, .RADIAN. ) );
#282 =( CONVERSION_BASED_UNIT ( 'INCH', #45 ) LENGTH_UNIT ( ) NAMED_UNIT ( #84 ) );
#283 = VECTOR ( 'NONE', #242, 39.37007874015748143 ) ;
#284 = DIMENSIONAL_EXPONENTS ( 1.000000000000000000, 0.000000000000000000, 0.000000000000000000, 0.000000000000000000, 0.000000000000000000, 0.000000000000000000, 0.000000000000000000 ) ;
#285 = CYLINDRICAL_SURFACE ( 'NONE', #10, 0.2499999999999998612 ) ;
#286 = PRESENTATION_STYLE_ASSIGNMENT (( #172 ) ) ;
#287 = ADVANCED_FACE ( 'NONE', ( #60 ), #264, .F. ) ;
#288 = AXIS2_PLACEMENT_3D ( 'NONE', #47, #340, #51 ) ;
#289 = PLANE ( 'NONE',  #225 ) ;
#290 = AXIS2_PLACEMENT_3D ( 'NONE', #165, #370, #248 ) ;
#291 =( CONVERSION_BASED_UNIT ( 'INCH', #227 ) LENGTH_UNIT ( ) NAMED_UNIT ( #257 ) );
#292 = DIRECTION ( 'NONE',  ( -0.000000000000000000, -1.000000000000000000, -0.000000000000000000 ) ) ;
#293 = MECHANICAL_DESIGN_GEOMETRIC_PRESENTATION_REPRESENTATION (  '', ( #129 ), #182 ) ;
#294 = DIRECTION ( 'NONE',  ( -1.000000000000000000, 0.000000000000000000, 0.000000000000000000 ) ) ;
#295 = UNCERTAINTY_MEASURE_WITH_UNIT (LENGTH_MEASURE( 1.000000000000000082E-05 ), #134, 'distance_accuracy_value', 'NONE');
#296 =( NAMED_UNIT ( * ) PLANE_ANGLE_UNIT ( ) SI_UNIT ( $, .RADIAN. ) );
#297 = VERTEX_POINT ( 'NONE', #319 ) ;
#298 = ADVANCED_FACE ( 'NONE', ( #198 ), #147, .T. ) ;
#299 = PRODUCT ( '56512', '56512', '', ( #251 ) ) ;
#300 =( NAMED_UNIT ( * ) SI_UNIT ( $, .STERADIAN. ) SOLID_ANGLE_UNIT ( ) );
#301 = LINE ( 'NONE', #213, #141 ) ;
#302 = AXIS2_PLACEMENT_3D ( 'NONE', #16, #218, #247 ) ;
#303 = CLOSED_SHELL ( 'NONE', ( #192, #287, #298, #349 ) ) ;
#304 = AXIS2_PLACEMENT_3D ( 'NONE', #22, #111, #315 ) ;
#305 = DIRECTION ( 'NONE',  ( 0.000000000000000000, 0.000000000000000000, -1.000000000000000000 ) ) ;
#306 = ORIENTED_EDGE ( 'NONE', *, *, #55, .T. ) ;
#307 = ORIENTED_EDGE ( 'NONE', *, *, #183, .T. ) ;
#308 = CYLINDRICAL_SURFACE ( 'NONE', #304, 0.2499999999999999167 ) ;
#309 = EDGE_LOOP ( 'NONE', ( #15, #307, #86, #119 ) ) ;
#310 = DIRECTION ( 'NONE',  ( 0.000000000000000000, 0.000000000000000000, -1.000000000000000000 ) ) ;
#311 = CIRCLE ( 'NONE', #342, 0.2500000000000000000 ) ;
#312 = CARTESIAN_POINT ( 'NONE',  ( 1.836970198721030427E-16, 1.000000000000000000, 0.000000000000000000 ) ) ;
#313 =( LENGTH_UNIT ( ) NAMED_UNIT ( * ) SI_UNIT ( $, .METRE. ) );
#314 = PRESENTATION_STYLE_ASSIGNMENT (( #188 ) ) ;
#315 = DIRECTION ( 'NONE',  ( 0.000000000000000000, 0.000000000000000000, -1.000000000000000000 ) ) ;
#316 = DIMENSIONAL_EXPONENTS ( 1.000000000000000000, 0.000000000000000000, 0.000000000000000000, 0.000000000000000000, 0.000000000000000000, 0.000000000000000000, 0.000000000000000000 ) ;
#317 = CIRCLE ( 'NONE', #350, 0.2500000000000000000 ) ;
#318 = ADVANCED_FACE ( 'NONE', ( #323 ), #259, .T. ) ;
#319 = CARTESIAN_POINT ( 'NONE',  ( 0.2499999999999999167, 3.000000000000000444, 3.061616997868382402E-17 ) ) ;
#320 = PRESENTATION_STYLE_ASSIGNMENT (( #199 ) ) ;
#321 = ORIENTED_EDGE ( 'NONE', *, *, #276, .F. ) ;
#322 =( GEOMETRIC_REPRESENTATION_CONTEXT ( 3 ) GLOBAL_UNCERTAINTY_ASSIGNED_CONTEXT ( ( #122 ) ) GLOBAL_UNIT_ASSIGNED_CONTEXT ( ( #282, #73, #137 ) ) REPRESENTATION_CONTEXT ( 'NONE', 'WORKASPACE' ) );
#323 = FACE_OUTER_BOUND ( 'NONE', #359, .T. ) ;
#324 = ADVANCED_BREP_SHAPE_REPRESENTATION ( '56512', ( #335, #201, #302 ), #56 ) ;
#325 = STYLED_ITEM ( 'NONE', ( #53 ), #177 ) ;
#326 = CARTESIAN_POINT ( 'NONE',  ( 0.000000000000000000, 0.000000000000000000, -0.2499999999999999167 ) ) ;
#327 = UNCERTAINTY_MEASURE_WITH_UNIT (LENGTH_MEASURE( 1.000000000000000082E-05 ), #268, 'distance_accuracy_value', 'NONE');
#328 = COLOUR_RGB ( '',1.000000000000000000, 0.000000000000000000, 0.000000000000000000 ) ;
#329 = VECTOR ( 'NONE', #352, 39.37007874015748143 ) ;
#330 = ORIENTED_EDGE ( 'NONE', *, *, #21, .F. ) ;
#331 = CARTESIAN_POINT ( 'NONE',  ( 0.2499999999999998890, 3.000000000000000444, 0.000000000000000000 ) ) ;
#332 = DIRECTION ( 'NONE',  ( -1.224646799147353700E-16, 1.000000000000000000, -0.000000000000000000 ) ) ;
#333 =( CONVERSION_BASED_UNIT ( 'INCH', #212 ) LENGTH_UNIT ( ) NAMED_UNIT ( #196 ) );
#334 = VERTEX_POINT ( 'NONE', #270 ) ;
#335 = MANIFOLD_SOLID_BREP ( 'Revolve - Cutting Edge', #97 ) ;
#336 =( NAMED_UNIT ( * ) SI_UNIT ( $, .STERADIAN. ) SOLID_ANGLE_UNIT ( ) );
#337 = AXIS2_PLACEMENT_3D ( 'NONE', #346, #292, #118 ) ;
#338 = CARTESIAN_POINT ( 'NONE',  ( 3.061616997868381785E-17, 1.000000000000000000, 0.2499999999999998890 ) ) ;
#339 = DIRECTION ( 'NONE',  ( -0.000000000000000000, -1.000000000000000000, -0.000000000000000000 ) ) ;
#340 = DIRECTION ( 'NONE',  ( 0.000000000000000000, 0.000000000000000000, 1.000000000000000000 ) ) ;
#341 =( NAMED_UNIT ( * ) PLANE_ANGLE_UNIT ( ) SI_UNIT ( $, .RADIAN. ) );
#342 = AXIS2_PLACEMENT_3D ( 'NONE', #181, #135, #68 ) ;
#343 = SURFACE_STYLE_FILL_AREA ( #195 ) ;
#344 = COLOUR_RGB ( '',0.7921568627450980005, 0.8196078431372548767, 0.9333333333333333481 ) ;
#345 = FACE_OUTER_BOUND ( 'NONE', #238, .T. ) ;
#346 = CARTESIAN_POINT ( 'NONE',  ( 0.000000000000000000, 1.000000000000000000, 0.000000000000000000 ) ) ;
#347 = SURFACE_SIDE_STYLE ('',( #124 ) ) ;
#348 = LINE ( 'NONE', #89, #329 ) ;
#349 = ADVANCED_FACE ( 'NONE', ( #13 ), #3, .F. ) ;
#350 = AXIS2_PLACEMENT_3D ( 'NONE', #274, #71, #294 ) ;
#351 = CIRCLE ( 'NONE', #204, 0.2499999999999997224 ) ;
#352 = DIRECTION ( 'NONE',  ( -1.224646799147353700E-16, 1.000000000000000000, -0.000000000000000000 ) ) ;
#353 = SURFACE_STYLE_USAGE ( .BOTH. , #5 ) ;
#354 = UNCERTAINTY_MEASURE_WITH_UNIT (LENGTH_MEASURE( 1.000000000000000082E-05 ), #179, 'distance_accuracy_value', 'NONE');
#355 = ADVANCED_FACE ( 'NONE', ( #231 ), #76, .T. ) ;
#356 = DIMENSIONAL_EXPONENTS ( 1.000000000000000000, 0.000000000000000000, 0.000000000000000000, 0.000000000000000000, 0.000000000000000000, 0.000000000000000000, 0.000000000000000000 ) ;
#357 = SURFACE_STYLE_USAGE ( .BOTH. , #34 ) ;
#358 = CARTESIAN_POINT ( 'NONE',  ( -0.2500000000000000555, 3.000000000000000444, 0.000000000000000000 ) ) ;
#359 = EDGE_LOOP ( 'NONE', ( #364, #210, #108, #4, #272 ) ) ;
#360 = DIRECTION ( 'NONE',  ( 0.000000000000000000, 0.000000000000000000, -1.000000000000000000 ) ) ;
#361 = ORIENTED_EDGE ( 'NONE', *, *, #276, .T. ) ;
#362 = DIRECTION ( 'NONE',  ( -1.000000000000000000, 0.000000000000000000, 0.000000000000000000 ) ) ;
#363 =( LENGTH_UNIT ( ) NAMED_UNIT ( * ) SI_UNIT ( $, .METRE. ) );
#364 = ORIENTED_EDGE ( 'NONE', *, *, #92, .T. ) ;
#365 = EDGE_LOOP ( 'NONE', ( #200, #132 ) ) ;
#366 = SHAPE_DEFINITION_REPRESENTATION ( #7, #324 ) ;
#367 = ADVANCED_FACE ( 'NONE', ( #207 ), #369, .T. ) ;
#368 = DIRECTION ( 'NONE',  ( -1.000000000000000000, 0.000000000000000000, 0.000000000000000000 ) ) ;
#369 = SPHERICAL_SURFACE ( 'NONE', #288, 0.2500000000000000000 ) ;
#370 = DIRECTION ( 'NONE',  ( 1.224646799147353207E-16, -0.000000000000000000, 1.000000000000000000 ) ) ;
#371 = COLOUR_RGB ( '',1.000000000000000000, 0.000000000000000000, 0.000000000000000000 ) ;
#372 = SURFACE_STYLE_FILL_AREA ( #145 ) ;
#373 = MECHANICAL_DESIGN_GEOMETRIC_PRESENTATION_REPRESENTATION (  '', ( #123 ), #44 ) ;
ENDSEC;
END-ISO-10303-21;
