ISO-10303-21;
HEADER;
FILE_DESCRIPTION (( 'STEP AP214' ),
    '1' );
FILE_NAME ('Micro_BEM-187-03.STEP',
    '2021-09-03T13:05:06',
    ( '' ),
    ( '' ),
    'SwSTEP 2.0',
    'SolidWorks 2020',
    '' );
FILE_SCHEMA (( 'AUTOMOTIVE_DESIGN' ));
ENDSEC;

DATA;
#1 = ORIENTED_EDGE ( 'NONE', *, *, #318, .T. ) ;
#2 = DIRECTION ( 'NONE',  ( -0.0000000000000000000, -0.0000000000000000000, -1.000000000000000000 ) ) ;
#3 = ORIENTED_EDGE ( 'NONE', *, *, #183, .T. ) ;
#4 = CARTESIAN_POINT ( 'NONE',  ( -0.09374999999999994449, 0.0000000000000000000, 0.6255316826705892286 ) ) ;
#5 = CARTESIAN_POINT ( 'NONE',  ( 0.0000000000000000000, 0.0000000000000000000, 2.000000000000000000 ) ) ;
#6 = EDGE_LOOP ( 'NONE', ( #29, #132, #26, #248 ) ) ;
#7 =( NAMED_UNIT ( * ) PLANE_ANGLE_UNIT ( ) SI_UNIT ( $, .RADIAN. ) );
#8 = ORIENTED_EDGE ( 'NONE', *, *, #183, .F. ) ;
#9 = CARTESIAN_POINT ( 'NONE',  ( 0.0000000000000000000, 0.0000000000000000000, 0.0000000000000000000 ) ) ;
#10 = DIMENSIONAL_EXPONENTS ( 1.000000000000000000, 0.0000000000000000000, 0.0000000000000000000, 0.0000000000000000000, 0.0000000000000000000, 0.0000000000000000000, 0.0000000000000000000 ) ;
#11 = EDGE_CURVE ( 'NONE', #226, #233, #51, .T. ) ;
#12 = DIRECTION ( 'NONE',  ( -1.224646799147353207E-16, -0.0000000000000000000, -1.000000000000000000 ) ) ;
#13 = SURFACE_STYLE_USAGE ( .BOTH. , #186 ) ;
#14 = VERTEX_POINT ( 'NONE', #134 ) ;
#15 =( CONVERSION_BASED_UNIT ( 'INCH', #62 ) LENGTH_UNIT ( ) NAMED_UNIT ( #10 ) );
#16 = EDGE_CURVE ( 'NONE', #14, #247, #90, .T. ) ;
#17 = AXIS2_PLACEMENT_3D ( 'NONE', #181, #220, #231 ) ;
#18 = CARTESIAN_POINT ( 'NONE',  ( 0.09375000000000006939, 1.148106374200644633E-17, 0.6255316826705892286 ) ) ;
#19 = PRODUCT_RELATED_PRODUCT_CATEGORY ( 'part', '', ( #140 ) ) ;
#20 = CARTESIAN_POINT ( 'NONE',  ( 1.146958267826442798E-17, 0.0000000000000000000, 0.09365624999999999645 ) ) ;
#21 = CONICAL_SURFACE ( 'NONE', #190, 0.09365624999999999645, 0.1745329251994338637 ) ;
#22 = DIRECTION ( 'NONE',  ( -1.000000000000000000, 0.0000000000000000000, 0.0000000000000000000 ) ) ;
#23 = CARTESIAN_POINT ( 'NONE',  ( 1.146958267826442798E-17, 0.0000000000000000000, 0.09365624999999999645 ) ) ;
#24 = AXIS2_PLACEMENT_3D ( 'NONE', #5, #203, #52 ) ;
#25 = DIRECTION ( 'NONE',  ( 0.1736481776669313581, 0.0000000000000000000, 0.9848077530122077983 ) ) ;
#26 = ORIENTED_EDGE ( 'NONE', *, *, #165, .T. ) ;
#27 = DIRECTION ( 'NONE',  ( 1.224646799147353207E-16, 0.0000000000000000000, 1.000000000000000000 ) ) ;
#28 = CARTESIAN_POINT ( 'NONE',  ( 0.09365625000000006584, 0.0000000000000000000, 0.6250000000000000000 ) ) ;
#29 = ORIENTED_EDGE ( 'NONE', *, *, #86, .F. ) ;
#30 = PRESENTATION_LAYER_ASSIGNMENT (  '', '', ( #171 ) ) ;
#31 = CARTESIAN_POINT ( 'NONE',  ( -0.09365624999999992706, 1.147532321013543253E-17, 0.6250000000000000000 ) ) ;
#32 = ORIENTED_EDGE ( 'NONE', *, *, #16, .T. ) ;
#33 = PRESENTATION_STYLE_ASSIGNMENT (( #13 ) ) ;
#34 = DIMENSIONAL_EXPONENTS ( 1.000000000000000000, 0.0000000000000000000, 0.0000000000000000000, 0.0000000000000000000, 0.0000000000000000000, 0.0000000000000000000, 0.0000000000000000000 ) ;
#35 = ORIENTED_EDGE ( 'NONE', *, *, #232, .F. ) ;
#36 =( NAMED_UNIT ( * ) SI_UNIT ( $, .STERADIAN. ) SOLID_ANGLE_UNIT ( ) );
#37 = CARTESIAN_POINT ( 'NONE',  ( 1.146958267826442798E-17, 0.0000000000000000000, 0.09365624999999999645 ) ) ;
#38 = CARTESIAN_POINT ( 'NONE',  ( 0.0000000000000000000, 0.0000000000000000000, 2.000000000000000000 ) ) ;
#39 = EDGE_CURVE ( 'NONE', #197, #233, #216, .T. ) ;
#40 = ADVANCED_FACE ( 'NONE', ( #280 ), #89, .T. ) ;
#41 = DIRECTION ( 'NONE',  ( 0.0000000000000000000, 0.0000000000000000000, 1.000000000000000000 ) ) ;
#42 = ORIENTED_EDGE ( 'NONE', *, *, #86, .T. ) ;
#43 = CARTESIAN_POINT ( 'NONE',  ( 0.0000000000000000000, 0.0000000000000000000, 2.000000000000000000 ) ) ;
#44 =( LENGTH_UNIT ( ) NAMED_UNIT ( * ) SI_UNIT ( $, .METRE. ) );
#45 = AXIS2_PLACEMENT_3D ( 'NONE', #123, #131, #156 ) ;
#46 =( NAMED_UNIT ( * ) PLANE_ANGLE_UNIT ( ) SI_UNIT ( $, .RADIAN. ) );
#47 = CARTESIAN_POINT ( 'NONE',  ( -0.09365624999999999645, 0.0000000000000000000, 1.146958267826442798E-17 ) ) ;
#48 = FACE_OUTER_BOUND ( 'NONE', #200, .T. ) ;
#49 = AXIS2_PLACEMENT_3D ( 'NONE', #185, #264, #236 ) ;
#50 = ORIENTED_EDGE ( 'NONE', *, *, #69, .F. ) ;
#51 = CIRCLE ( 'NONE', #199, 0.09365624999999999645 ) ;
#52 = DIRECTION ( 'NONE',  ( 1.000000000000000000, 0.0000000000000000000, 0.0000000000000000000 ) ) ;
#53 = ADVANCED_FACE ( 'NONE', ( #158 ), #91, .T. ) ;
#54 = DIRECTION ( 'NONE',  ( 1.000000000000000000, 0.0000000000000000000, 0.0000000000000000000 ) ) ;
#55 = EDGE_LOOP ( 'NONE', ( #270, #127, #310, #108 ) ) ;
#56 = ORIENTED_EDGE ( 'NONE', *, *, #150, .F. ) ;
#57 = CARTESIAN_POINT ( 'NONE',  ( 0.09375000000000001388, 1.148106374200643863E-17, 2.000000000000000000 ) ) ;
#58 = VERTEX_POINT ( 'NONE', #18 ) ;
#59 = AXIS2_PLACEMENT_3D ( 'NONE', #195, #225, #283 ) ;
#60 = DIRECTION ( 'NONE',  ( -1.224646799147353207E-16, -0.0000000000000000000, -1.000000000000000000 ) ) ;
#61 = EDGE_CURVE ( 'NONE', #58, #294, #218, .T. ) ;
#62 = LENGTH_MEASURE_WITH_UNIT ( LENGTH_MEASURE( 0.02539999999999999897 ), #304 );
#63 =( CONVERSION_BASED_UNIT ( 'INCH', #88 ) LENGTH_UNIT ( ) NAMED_UNIT ( #34 ) );
#64 = ORIENTED_EDGE ( 'NONE', *, *, #292, .T. ) ;
#65 = ADVANCED_FACE ( 'NONE', ( #194 ), #67, .T. ) ;
#66 = CARTESIAN_POINT ( 'NONE',  ( -0.07874999999999980627, 0.0000000000000000000, 2.000000000000000000 ) ) ;
#67 = PLANE ( 'NONE',  #121 ) ;
#68 = FILL_AREA_STYLE_COLOUR ( '', #282 ) ;
#69 = EDGE_CURVE ( 'NONE', #302, #294, #70, .T. ) ;
#70 = LINE ( 'NONE', #113, #305 ) ;
#71 =( GEOMETRIC_REPRESENTATION_CONTEXT ( 3 ) GLOBAL_UNCERTAINTY_ASSIGNED_CONTEXT ( ( #258 ) ) GLOBAL_UNIT_ASSIGNED_CONTEXT ( ( #15, #256, #36 ) ) REPRESENTATION_CONTEXT ( 'NONE', 'WORKASPACE' ) );
#72 = EDGE_CURVE ( 'NONE', #247, #14, #166, .T. ) ;
#73 = DIRECTION ( 'NONE',  ( 1.224646799147353207E-16, 1.000000000000000000, -0.0000000000000000000 ) ) ;
#74 = SPHERICAL_SURFACE ( 'NONE', #77, 0.09365624999999999645 ) ;
#75 = DIRECTION ( 'NONE',  ( 0.0000000000000000000, 1.000000000000000000, 0.0000000000000000000 ) ) ;
#76 = ORIENTED_EDGE ( 'NONE', *, *, #72, .F. ) ;
#77 = AXIS2_PLACEMENT_3D ( 'NONE', #23, #75, #174 ) ;
#78 = CARTESIAN_POINT ( 'NONE',  ( 0.09365625000000001033, 1.146958267826442798E-17, 0.09365624999999996869 ) ) ;
#79 = DIRECTION ( 'NONE',  ( 0.7071067811865463515, 8.659560562354916834E-17, -0.7071067811865486830 ) ) ;
#80 = ORIENTED_EDGE ( 'NONE', *, *, #61, .T. ) ;
#81 = ORIENTED_EDGE ( 'NONE', *, *, #284, .F. ) ;
#82 = CARTESIAN_POINT ( 'NONE',  ( -0.09375000000000001388, 0.0000000000000000000, 2.000000000000000000 ) ) ;
#83 = EDGE_CURVE ( 'NONE', #302, #159, #192, .T. ) ;
#84 = CARTESIAN_POINT ( 'NONE',  ( 0.09365624999999999645, 1.146958267826442798E-17, -1.146958267826442798E-17 ) ) ;
#85 = CIRCLE ( 'NONE', #122, 0.09365624999999999645 ) ;
#86 = EDGE_CURVE ( 'NONE', #302, #197, #241, .T. ) ;
#87 = DIRECTION ( 'NONE',  ( 0.0000000000000000000, 0.0000000000000000000, -1.000000000000000000 ) ) ;
#88 = LENGTH_MEASURE_WITH_UNIT ( LENGTH_MEASURE( 0.02539999999999999897 ), #188 );
#89 = CYLINDRICAL_SURFACE ( 'NONE', #267, 0.09375000000000001388 ) ;
#90 = CIRCLE ( 'NONE', #49, 0.09375000000000001388 ) ;
#91 = CONICAL_SURFACE ( 'NONE', #135, 0.07874999999999980627, 0.7853981633974466137 ) ;
#92 = FILL_AREA_STYLE ('',( #68 ) ) ;
#93 = DIRECTION ( 'NONE',  ( -1.224646799147353207E-16, -0.0000000000000000000, -1.000000000000000000 ) ) ;
#94 = PRESENTATION_LAYER_ASSIGNMENT (  '', '', ( #154 ) ) ;
#95 = SURFACE_STYLE_FILL_AREA ( #92 ) ;
#96 = SURFACE_SIDE_STYLE ('',( #95 ) ) ;
#97 =( NAMED_UNIT ( * ) SI_UNIT ( $, .STERADIAN. ) SOLID_ANGLE_UNIT ( ) );
#98 = CYLINDRICAL_SURFACE ( 'NONE', #59, 0.09365624999999999645 ) ;
#99 = LINE ( 'NONE', #28, #323 ) ;
#100 = ORIENTED_EDGE ( 'NONE', *, *, #314, .F. ) ;
#101 = ADVANCED_FACE ( 'NONE', ( #269 ), #298, .T. ) ;
#102 = LINE ( 'NONE', #82, #313 ) ;
#103 = EDGE_LOOP ( 'NONE', ( #8, #180, #251, #300 ) ) ;
#104 = CONICAL_SURFACE ( 'NONE', #235, 0.09365624999999999645, 0.1745329251994338637 ) ;
#105 = LINE ( 'NONE', #277, #245 ) ;
#106 = ORIENTED_EDGE ( 'NONE', *, *, #150, .T. ) ;
#107 = CARTESIAN_POINT ( 'NONE',  ( 0.09375000000000001388, 1.148106374200643863E-17, 1.984999999999999654 ) ) ;
#108 = ORIENTED_EDGE ( 'NONE', *, *, #295, .F. ) ;
#109 = DIRECTION ( 'NONE',  ( 0.0000000000000000000, 0.0000000000000000000, 1.000000000000000000 ) ) ;
#110 = VERTEX_POINT ( 'NONE', #265 ) ;
#111 = ORIENTED_EDGE ( 'NONE', *, *, #318, .F. ) ;
#112 = AXIS2_PLACEMENT_3D ( 'NONE', #242, #285, #146 ) ;
#113 = CARTESIAN_POINT ( 'NONE',  ( -0.09365624999999992706, 1.146958267826442798E-17, 0.6250000000000000000 ) ) ;
#114 = FACE_OUTER_BOUND ( 'NONE', #223, .T. ) ;
#115 = EDGE_LOOP ( 'NONE', ( #42, #206, #1, #169 ) ) ;
#116 = DIRECTION ( 'NONE',  ( 0.0000000000000000000, 0.0000000000000000000, -1.000000000000000000 ) ) ;
#117 = AXIS2_PLACEMENT_3D ( 'NONE', #182, #198, #178 ) ;
#118 = CARTESIAN_POINT ( 'NONE',  ( 7.654042494670957853E-17, 0.0000000000000000000, 0.6250000000000000000 ) ) ;
#119 = SURFACE_STYLE_USAGE ( .BOTH. , #96 ) ;
#120 = CYLINDRICAL_SURFACE ( 'NONE', #17, 0.09365624999999999645 ) ;
#121 = AXIS2_PLACEMENT_3D ( 'NONE', #243, #41, #287 ) ;
#122 = AXIS2_PLACEMENT_3D ( 'NONE', #151, #27, #296 ) ;
#123 = CARTESIAN_POINT ( 'NONE',  ( 1.146958267826442798E-17, 0.0000000000000000000, 0.09365624999999999645 ) ) ;
#124 = EDGE_LOOP ( 'NONE', ( #297, #64 ) ) ;
#125 = FACE_OUTER_BOUND ( 'NONE', #207, .T. ) ;
#126 = DIRECTION ( 'NONE',  ( -0.0000000000000000000, -0.0000000000000000000, -1.000000000000000000 ) ) ;
#127 = ORIENTED_EDGE ( 'NONE', *, *, #314, .T. ) ;
#128 = CIRCLE ( 'NONE', #204, 0.07874999999999980627 ) ;
#129 = ORIENTED_EDGE ( 'NONE', *, *, #295, .T. ) ;
#130 =( GEOMETRIC_REPRESENTATION_CONTEXT ( 3 ) GLOBAL_UNCERTAINTY_ASSIGNED_CONTEXT ( ( #202 ) ) GLOBAL_UNIT_ASSIGNED_CONTEXT ( ( #320, #46, #97 ) ) REPRESENTATION_CONTEXT ( 'NONE', 'WORKASPACE' ) );
#131 = DIRECTION ( 'NONE',  ( 1.224646799147353207E-16, 0.0000000000000000000, 1.000000000000000000 ) ) ;
#132 = ORIENTED_EDGE ( 'NONE', *, *, #69, .T. ) ;
#133 = ADVANCED_FACE ( 'NONE', ( #114 ), #104, .T. ) ;
#134 = CARTESIAN_POINT ( 'NONE',  ( -0.09375000000000001388, 0.0000000000000000000, 1.984999999999999654 ) ) ;
#135 = AXIS2_PLACEMENT_3D ( 'NONE', #38, #116, #167 ) ;
#136 = CIRCLE ( 'NONE', #219, 0.09365624999999999645 ) ;
#137 = DIMENSIONAL_EXPONENTS ( 1.000000000000000000, 0.0000000000000000000, 0.0000000000000000000, 0.0000000000000000000, 0.0000000000000000000, 0.0000000000000000000, 0.0000000000000000000 ) ;
#138 = ORIENTED_EDGE ( 'NONE', *, *, #189, .T. ) ;
#139 = SURFACE_STYLE_FILL_AREA ( #162 ) ;
#140 = PRODUCT ( 'Micro_BEM-187-03', 'Micro_BEM-187-03', '', ( #281 ) ) ;
#141 = AXIS2_PLACEMENT_3D ( 'NONE', #118, #93, #22 ) ;
#142 = DIRECTION ( 'NONE',  ( 1.224646799147353207E-16, 0.0000000000000000000, 1.000000000000000000 ) ) ;
#143 = DIRECTION ( 'NONE',  ( 0.0000000000000000000, 0.0000000000000000000, -1.000000000000000000 ) ) ;
#144 = ORIENTED_EDGE ( 'NONE', *, *, #224, .F. ) ;
#145 = PRODUCT_DEFINITION_FORMATION_WITH_SPECIFIED_SOURCE ( 'ANY', '', #140, .NOT_KNOWN. ) ;
#146 = DIRECTION ( 'NONE',  ( 1.000000000000000000, 0.0000000000000000000, 0.0000000000000000000 ) ) ;
#147 = FACE_OUTER_BOUND ( 'NONE', #163, .T. ) ;
#148 = ADVANCED_FACE ( 'NONE', ( #268 ), #21, .T. ) ;
#149 = SPHERICAL_SURFACE ( 'NONE', #117, 0.09365624999999999645 ) ;
#150 = EDGE_CURVE ( 'NONE', #226, #159, #306, .T. ) ;
#151 = CARTESIAN_POINT ( 'NONE',  ( 1.146958267826442798E-17, 0.0000000000000000000, 0.09365624999999999645 ) ) ;
#152 = ORIENTED_EDGE ( 'NONE', *, *, #11, .F. ) ;
#153 = PRODUCT_DEFINITION_CONTEXT ( 'detailed design', #210, 'design' ) ;
#154 = STYLED_ITEM ( 'NONE', ( #286 ), #173 ) ;
#155 = EDGE_LOOP ( 'NONE', ( #100, #35, #129, #76 ) ) ;
#156 = DIRECTION ( 'NONE',  ( -1.000000000000000000, 0.0000000000000000000, 1.823055050827002517E-16 ) ) ;
#157 = APPLICATION_CONTEXT ( 'automotive_design' ) ;
#158 = FACE_OUTER_BOUND ( 'NONE', #55, .T. ) ;
#159 = VERTEX_POINT ( 'NONE', #319 ) ;
#160 = APPLICATION_PROTOCOL_DEFINITION ( 'draft international standard', 'automotive_design', 1998, #210 ) ;
#161 = CIRCLE ( 'NONE', #45, 0.09365624999999999645 ) ;
#162 = FILL_AREA_STYLE ('',( #307 ) ) ;
#163 = EDGE_LOOP ( 'NONE', ( #152, #106, #111 ) ) ;
#164 = VERTEX_POINT ( 'NONE', #66 ) ;
#165 = EDGE_CURVE ( 'NONE', #294, #58, #211, .T. ) ;
#166 = CIRCLE ( 'NONE', #112, 0.09375000000000001388 ) ;
#167 = DIRECTION ( 'NONE',  ( -1.000000000000000000, 0.0000000000000000000, 0.0000000000000000000 ) ) ;
#168 = DIRECTION ( 'NONE',  ( -1.224646799147353207E-16, -0.0000000000000000000, -1.000000000000000000 ) ) ;
#169 = ORIENTED_EDGE ( 'NONE', *, *, #83, .F. ) ;
#170 = DIRECTION ( 'NONE',  ( 1.000000000000000000, 0.0000000000000000000, 0.0000000000000000000 ) ) ;
#171 = STYLED_ITEM ( 'NONE', ( #33 ), #228 ) ;
#172 = CARTESIAN_POINT ( 'NONE',  ( 7.660553729477949085E-17, 0.0000000000000000000, 0.6255316826705892286 ) ) ;
#173 = MANIFOLD_SOLID_BREP ( 'Fillet1', #221 ) ;
#174 = DIRECTION ( 'NONE',  ( 1.000000000000000000, 0.0000000000000000000, 0.0000000000000000000 ) ) ;
#175 = DIRECTION ( 'NONE',  ( -0.0000000000000000000, -0.0000000000000000000, -1.000000000000000000 ) ) ;
#176 = AXIS2_PLACEMENT_3D ( 'NONE', #43, #143, #212 ) ;
#177 = ORIENTED_EDGE ( 'NONE', *, *, #11, .T. ) ;
#178 = DIRECTION ( 'NONE',  ( 1.000000000000000000, 0.0000000000000000000, 0.0000000000000000000 ) ) ;
#179 = ORIENTED_EDGE ( 'NONE', *, *, #83, .T. ) ;
#180 = ORIENTED_EDGE ( 'NONE', *, *, #72, .T. ) ;
#181 = CARTESIAN_POINT ( 'NONE',  ( 0.0000000000000000000, 0.0000000000000000000, 0.0000000000000000000 ) ) ;
#182 = CARTESIAN_POINT ( 'NONE',  ( 1.146958267826442798E-17, 0.0000000000000000000, 0.09365624999999999645 ) ) ;
#183 = EDGE_CURVE ( 'NONE', #247, #58, #288, .T. ) ;
#184 = DIRECTION ( 'NONE',  ( 1.000000000000000000, 0.0000000000000000000, 0.0000000000000000000 ) ) ;
#185 = CARTESIAN_POINT ( 'NONE',  ( 0.0000000000000000000, 0.0000000000000000000, 1.984999999999999654 ) ) ;
#186 = SURFACE_SIDE_STYLE ('',( #139 ) ) ;
#187 = COLOUR_RGB ( '',0.7921568627450980005, 0.8196078431372548767, 0.9333333333333333481 ) ;
#188 =( LENGTH_UNIT ( ) NAMED_UNIT ( * ) SI_UNIT ( $, .METRE. ) );
#189 = EDGE_CURVE ( 'NONE', #197, #302, #136, .T. ) ;
#190 = AXIS2_PLACEMENT_3D ( 'NONE', #215, #142, #244 ) ;
#191 = DIRECTION ( 'NONE',  ( 1.000000000000000000, 0.0000000000000000000, 0.0000000000000000000 ) ) ;
#192 = LINE ( 'NONE', #47, #278 ) ;
#193 =( GEOMETRIC_REPRESENTATION_CONTEXT ( 3 ) GLOBAL_UNCERTAINTY_ASSIGNED_CONTEXT ( ( #250 ) ) GLOBAL_UNIT_ASSIGNED_CONTEXT ( ( #63, #7, #255 ) ) REPRESENTATION_CONTEXT ( 'NONE', 'WORKASPACE' ) );
#194 = FACE_OUTER_BOUND ( 'NONE', #124, .T. ) ;
#195 = CARTESIAN_POINT ( 'NONE',  ( 0.0000000000000000000, 0.0000000000000000000, 0.0000000000000000000 ) ) ;
#196 = ADVANCED_FACE ( 'NONE', ( #147 ), #74, .T. ) ;
#197 = VERTEX_POINT ( 'NONE', #222 ) ;
#198 = DIRECTION ( 'NONE',  ( 0.0000000000000000000, 1.000000000000000000, 0.0000000000000000000 ) ) ;
#199 = AXIS2_PLACEMENT_3D ( 'NONE', #37, #311, #87 ) ;
#200 = EDGE_LOOP ( 'NONE', ( #56, #177, #81 ) ) ;
#201 = LINE ( 'NONE', #301, #312 ) ;
#202 = UNCERTAINTY_MEASURE_WITH_UNIT (LENGTH_MEASURE( 1.000000000000000082E-05 ), #320, 'distance_accuracy_value', 'NONE');
#203 = DIRECTION ( 'NONE',  ( 0.0000000000000000000, 0.0000000000000000000, 1.000000000000000000 ) ) ;
#204 = AXIS2_PLACEMENT_3D ( 'NONE', #227, #299, #54 ) ;
#205 = DIRECTION ( 'NONE',  ( -0.0000000000000000000, -0.0000000000000000000, -1.000000000000000000 ) ) ;
#206 = ORIENTED_EDGE ( 'NONE', *, *, #39, .T. ) ;
#207 = EDGE_LOOP ( 'NONE', ( #260, #138, #179, #253 ) ) ;
#208 = SHAPE_DEFINITION_REPRESENTATION ( #289, #228 ) ;
#209 = ADVANCED_FACE ( 'NONE', ( #293 ), #246, .T. ) ;
#210 = APPLICATION_CONTEXT ( 'automotive_design' ) ;
#211 = CIRCLE ( 'NONE', #317, 0.09375000000000001388 ) ;
#212 = DIRECTION ( 'NONE',  ( -1.000000000000000000, 0.0000000000000000000, 0.0000000000000000000 ) ) ;
#213 = DIRECTION ( 'NONE',  ( -1.000000000000000000, 1.224646799147352961E-16, 0.0000000000000000000 ) ) ;
#214 = VECTOR ( 'NONE', #2, 39.37007874015748143 ) ;
#215 = CARTESIAN_POINT ( 'NONE',  ( 7.654042494670957853E-17, 0.0000000000000000000, 0.6250000000000000000 ) ) ;
#216 = LINE ( 'NONE', #84, #234 ) ;
#217 = LENGTH_MEASURE_WITH_UNIT ( LENGTH_MEASURE( 0.02539999999999999897 ), #44 );
#218 = CIRCLE ( 'NONE', #271, 0.09375000000000001388 ) ;
#219 = AXIS2_PLACEMENT_3D ( 'NONE', #275, #60, #276 ) ;
#220 = DIRECTION ( 'NONE',  ( -1.224646799147353207E-16, -0.0000000000000000000, -1.000000000000000000 ) ) ;
#221 = CLOSED_SHELL ( 'NONE', ( #196, #325, #148, #53, #40, #209, #65, #101, #133, #322, #254 ) ) ;
#222 = CARTESIAN_POINT ( 'NONE',  ( 0.09365625000000006584, 0.0000000000000000000, 0.6250000000000000000 ) ) ;
#223 = EDGE_LOOP ( 'NONE', ( #50, #308, #279, #80 ) ) ;
#224 = EDGE_CURVE ( 'NONE', #14, #294, #102, .T. ) ;
#225 = DIRECTION ( 'NONE',  ( -1.224646799147353207E-16, -0.0000000000000000000, -1.000000000000000000 ) ) ;
#226 = VERTEX_POINT ( 'NONE', #249 ) ;
#227 = CARTESIAN_POINT ( 'NONE',  ( 0.0000000000000000000, 0.0000000000000000000, 2.000000000000000000 ) ) ;
#228 = ADVANCED_BREP_SHAPE_REPRESENTATION ( 'Micro_BEM-187-03', ( #173, #237 ), #193 ) ;
#229 = MECHANICAL_DESIGN_GEOMETRIC_PRESENTATION_REPRESENTATION (  '', ( #171 ), #71 ) ;
#230 = ORIENTED_EDGE ( 'NONE', *, *, #165, .F. ) ;
#231 = DIRECTION ( 'NONE',  ( -1.000000000000000000, 0.0000000000000000000, 1.224646799147352961E-16 ) ) ;
#232 = EDGE_CURVE ( 'NONE', #164, #110, #290, .T. ) ;
#233 = VERTEX_POINT ( 'NONE', #78 ) ;
#234 = VECTOR ( 'NONE', #12, 39.37007874015748143 ) ;
#235 = AXIS2_PLACEMENT_3D ( 'NONE', #240, #321, #170 ) ;
#236 = DIRECTION ( 'NONE',  ( 1.000000000000000000, 0.0000000000000000000, 0.0000000000000000000 ) ) ;
#237 = AXIS2_PLACEMENT_3D ( 'NONE', #9, #109, #184 ) ;
#238 = CARTESIAN_POINT ( 'NONE',  ( 7.660553729477949085E-17, 0.0000000000000000000, 0.6255316826705892286 ) ) ;
#239 = CARTESIAN_POINT ( 'NONE',  ( 0.0000000000000000000, 0.0000000000000000000, 2.000000000000000000 ) ) ;
#240 = CARTESIAN_POINT ( 'NONE',  ( 7.654042494670957853E-17, 0.0000000000000000000, 0.6250000000000000000 ) ) ;
#241 = CIRCLE ( 'NONE', #141, 0.09365624999999999645 ) ;
#242 = CARTESIAN_POINT ( 'NONE',  ( 0.0000000000000000000, 0.0000000000000000000, 1.984999999999999654 ) ) ;
#243 = CARTESIAN_POINT ( 'NONE',  ( 0.0000000000000000000, 0.0000000000000000000, 2.000000000000000000 ) ) ;
#244 = DIRECTION ( 'NONE',  ( 1.000000000000000000, 0.0000000000000000000, 0.0000000000000000000 ) ) ;
#245 = VECTOR ( 'NONE', #252, 39.37007874015748143 ) ;
#246 = CYLINDRICAL_SURFACE ( 'NONE', #259, 0.09375000000000001388 ) ;
#247 = VERTEX_POINT ( 'NONE', #107 ) ;
#248 = ORIENTED_EDGE ( 'NONE', *, *, #266, .F. ) ;
#249 = CARTESIAN_POINT ( 'NONE',  ( 1.720437401739664274E-17, 0.0000000000000000000, 0.0000000000000000000 ) ) ;
#250 = UNCERTAINTY_MEASURE_WITH_UNIT (LENGTH_MEASURE( 1.000000000000000082E-05 ), #63, 'distance_accuracy_value', 'NONE');
#251 = ORIENTED_EDGE ( 'NONE', *, *, #224, .T. ) ;
#252 = DIRECTION ( 'NONE',  ( -0.7071067811865463515, 0.0000000000000000000, -0.7071067811865486830 ) ) ;
#253 = ORIENTED_EDGE ( 'NONE', *, *, #284, .T. ) ;
#254 = ADVANCED_FACE ( 'NONE', ( #48 ), #149, .T. ) ;
#255 =( NAMED_UNIT ( * ) SI_UNIT ( $, .STERADIAN. ) SOLID_ANGLE_UNIT ( ) );
#256 =( NAMED_UNIT ( * ) PLANE_ANGLE_UNIT ( ) SI_UNIT ( $, .RADIAN. ) );
#257 = DIRECTION ( 'NONE',  ( -1.000000000000000000, 0.0000000000000000000, 0.0000000000000000000 ) ) ;
#258 = UNCERTAINTY_MEASURE_WITH_UNIT (LENGTH_MEASURE( 1.000000000000000082E-05 ), #15, 'distance_accuracy_value', 'NONE');
#259 = AXIS2_PLACEMENT_3D ( 'NONE', #303, #175, #273 ) ;
#260 = ORIENTED_EDGE ( 'NONE', *, *, #39, .F. ) ;
#261 = AXIS2_PLACEMENT_3D ( 'NONE', #20, #73, #213 ) ;
#262 = PRODUCT_DEFINITION ( 'UNKNOWN', '', #145, #153 ) ;
#263 = DIRECTION ( 'NONE',  ( -0.1736481776669311639, 2.126576849575783008E-17, 0.9848077530122080203 ) ) ;
#264 = DIRECTION ( 'NONE',  ( 0.0000000000000000000, 0.0000000000000000000, -1.000000000000000000 ) ) ;
#265 = CARTESIAN_POINT ( 'NONE',  ( 0.07874999999999980627, 1.056257864264590573E-17, 2.000000000000000000 ) ) ;
#266 = EDGE_CURVE ( 'NONE', #197, #58, #99, .T. ) ;
#267 = AXIS2_PLACEMENT_3D ( 'NONE', #239, #205, #257 ) ;
#268 = FACE_OUTER_BOUND ( 'NONE', #6, .T. ) ;
#269 = FACE_OUTER_BOUND ( 'NONE', #155, .T. ) ;
#270 = ORIENTED_EDGE ( 'NONE', *, *, #292, .F. ) ;
#271 = AXIS2_PLACEMENT_3D ( 'NONE', #238, #168, #191 ) ;
#272 = MECHANICAL_DESIGN_GEOMETRIC_PRESENTATION_REPRESENTATION (  '', ( #154 ), #130 ) ;
#273 = DIRECTION ( 'NONE',  ( -1.000000000000000000, 0.0000000000000000000, 0.0000000000000000000 ) ) ;
#274 = EDGE_LOOP ( 'NONE', ( #32, #3, #230, #144 ) ) ;
#275 = CARTESIAN_POINT ( 'NONE',  ( 7.654042494670957853E-17, 0.0000000000000000000, 0.6250000000000000000 ) ) ;
#276 = DIRECTION ( 'NONE',  ( -1.000000000000000000, 0.0000000000000000000, 0.0000000000000000000 ) ) ;
#277 = CARTESIAN_POINT ( 'NONE',  ( -0.07874999999999980627, 0.0000000000000000000, 2.000000000000000000 ) ) ;
#278 = VECTOR ( 'NONE', #291, 39.37007874015748143 ) ;
#279 = ORIENTED_EDGE ( 'NONE', *, *, #266, .T. ) ;
#280 = FACE_OUTER_BOUND ( 'NONE', #274, .T. ) ;
#281 = PRODUCT_CONTEXT ( 'NONE', #157, 'mechanical' ) ;
#282 = COLOUR_RGB ( '',0.7921568627450980005, 0.8196078431372548767, 0.9333333333333333481 ) ;
#283 = DIRECTION ( 'NONE',  ( -1.000000000000000000, 0.0000000000000000000, 1.224646799147352961E-16 ) ) ;
#284 = EDGE_CURVE ( 'NONE', #159, #233, #85, .T. ) ;
#285 = DIRECTION ( 'NONE',  ( 0.0000000000000000000, 0.0000000000000000000, -1.000000000000000000 ) ) ;
#286 = PRESENTATION_STYLE_ASSIGNMENT (( #119 ) ) ;
#287 = DIRECTION ( 'NONE',  ( 1.000000000000000000, 0.0000000000000000000, -0.0000000000000000000 ) ) ;
#288 = LINE ( 'NONE', #57, #214 ) ;
#289 = PRODUCT_DEFINITION_SHAPE ( 'NONE', 'NONE',  #262 ) ;
#290 = CIRCLE ( 'NONE', #24, 0.07874999999999980627 ) ;
#291 = DIRECTION ( 'NONE',  ( -1.224646799147353207E-16, -0.0000000000000000000, -1.000000000000000000 ) ) ;
#292 = EDGE_CURVE ( 'NONE', #110, #164, #128, .T. ) ;
#293 = FACE_OUTER_BOUND ( 'NONE', #103, .T. ) ;
#294 = VERTEX_POINT ( 'NONE', #4 ) ;
#295 = EDGE_CURVE ( 'NONE', #164, #14, #105, .T. ) ;
#296 = DIRECTION ( 'NONE',  ( -1.000000000000000000, 0.0000000000000000000, 1.823055050827002517E-16 ) ) ;
#297 = ORIENTED_EDGE ( 'NONE', *, *, #232, .T. ) ;
#298 = CONICAL_SURFACE ( 'NONE', #176, 0.07874999999999980627, 0.7853981633974466137 ) ;
#299 = DIRECTION ( 'NONE',  ( 0.0000000000000000000, 0.0000000000000000000, 1.000000000000000000 ) ) ;
#300 = ORIENTED_EDGE ( 'NONE', *, *, #61, .F. ) ;
#301 = CARTESIAN_POINT ( 'NONE',  ( 0.07874999999999980627, 9.644093543285380530E-18, 2.000000000000000000 ) ) ;
#302 = VERTEX_POINT ( 'NONE', #31 ) ;
#303 = CARTESIAN_POINT ( 'NONE',  ( 0.0000000000000000000, 0.0000000000000000000, 2.000000000000000000 ) ) ;
#304 =( LENGTH_UNIT ( ) NAMED_UNIT ( * ) SI_UNIT ( $, .METRE. ) );
#305 = VECTOR ( 'NONE', #263, 39.37007874015747433 ) ;
#306 = CIRCLE ( 'NONE', #261, 0.09365624999999999645 ) ;
#307 = FILL_AREA_STYLE_COLOUR ( '', #187 ) ;
#308 = ORIENTED_EDGE ( 'NONE', *, *, #189, .F. ) ;
#309 = APPLICATION_PROTOCOL_DEFINITION ( 'draft international standard', 'automotive_design', 1998, #157 ) ;
#310 = ORIENTED_EDGE ( 'NONE', *, *, #16, .F. ) ;
#311 = DIRECTION ( 'NONE',  ( 0.0000000000000000000, -1.000000000000000000, 0.0000000000000000000 ) ) ;
#312 = VECTOR ( 'NONE', #79, 39.37007874015748143 ) ;
#313 = VECTOR ( 'NONE', #126, 39.37007874015748143 ) ;
#314 = EDGE_CURVE ( 'NONE', #110, #247, #201, .T. ) ;
#315 = DIRECTION ( 'NONE',  ( 1.000000000000000000, 0.0000000000000000000, 0.0000000000000000000 ) ) ;
#316 = DIRECTION ( 'NONE',  ( -1.224646799147353207E-16, -0.0000000000000000000, -1.000000000000000000 ) ) ;
#317 = AXIS2_PLACEMENT_3D ( 'NONE', #172, #316, #315 ) ;
#318 = EDGE_CURVE ( 'NONE', #233, #159, #161, .T. ) ;
#319 = CARTESIAN_POINT ( 'NONE',  ( -0.09365624999999996869, 0.0000000000000000000, 0.09365625000000001033 ) ) ;
#320 =( CONVERSION_BASED_UNIT ( 'INCH', #217 ) LENGTH_UNIT ( ) NAMED_UNIT ( #137 ) );
#321 = DIRECTION ( 'NONE',  ( 1.224646799147353207E-16, 0.0000000000000000000, 1.000000000000000000 ) ) ;
#322 = ADVANCED_FACE ( 'NONE', ( #125 ), #120, .T. ) ;
#323 = VECTOR ( 'NONE', #25, 39.37007874015748143 ) ;
#324 = FACE_OUTER_BOUND ( 'NONE', #115, .T. ) ;
#325 = ADVANCED_FACE ( 'NONE', ( #324 ), #98, .T. ) ;
ENDSEC;
END-ISO-10303-21;
