ISO-10303-21;
HEADER;
FILE_DESCRIPTION (( 'STEP AP214' ),
    '1' );
FILE_NAME ('Micro_SEM-500-04X.STEP',
    '2021-09-02T03:31:05',
    ( '' ),
    ( '' ),
    'SwSTEP 2.0',
    'SolidWorks 2020',
    '' );
FILE_SCHEMA (( 'AUTOMOTIVE_DESIGN' ));
ENDSEC;

DATA;
#1 = VECTOR ( 'NONE', #83, 39.37007874015747433 ) ;
#2 = EDGE_LOOP ( 'NONE', ( #175, #46, #298, #74 ) ) ;
#3 = ORIENTED_EDGE ( 'NONE', *, *, #238, .F. ) ;
#4 = SHAPE_DEFINITION_REPRESENTATION ( #31, #72 ) ;
#5 = EDGE_CURVE ( 'NONE', #178, #156, #261, .T. ) ;
#6 = EDGE_LOOP ( 'NONE', ( #67, #86, #190, #109 ) ) ;
#7 = CONICAL_SURFACE ( 'NONE', #139, 0.2350000000000003753, 0.7853981633974278509 ) ;
#8 = CYLINDRICAL_SURFACE ( 'NONE', #172, 0.2500000000000000000 ) ;
#9 = LENGTH_MEASURE_WITH_UNIT ( LENGTH_MEASURE( 0.02539999999999999897 ), #121 );
#10 = EDGE_CURVE ( 'NONE', #153, #73, #71, .T. ) ;
#11 = MECHANICAL_DESIGN_GEOMETRIC_PRESENTATION_REPRESENTATION (  '', ( #226 ), #183 ) ;
#12 = FACE_OUTER_BOUND ( 'NONE', #23, .T. ) ;
#13 = DIRECTION ( 'NONE',  ( -1.000000000000000000, 0.0000000000000000000, 0.0000000000000000000 ) ) ;
#14 = LINE ( 'NONE', #106, #217 ) ;
#15 = DIRECTION ( 'NONE',  ( 0.0000000000000000000, 0.0000000000000000000, 1.000000000000000000 ) ) ;
#16 = DIRECTION ( 'NONE',  ( -1.224646799147353207E-16, -0.0000000000000000000, -1.000000000000000000 ) ) ;
#17 = CARTESIAN_POINT ( 'NONE',  ( 7.654042494670957853E-17, 0.0000000000000000000, 0.6250000000000000000 ) ) ;
#18 = ORIENTED_EDGE ( 'NONE', *, *, #99, .T. ) ;
#19 = CIRCLE ( 'NONE', #221, 0.2500000000000000000 ) ;
#20 = CARTESIAN_POINT ( 'NONE',  ( 3.745650057197989622E-33, 0.0000000000000000000, 3.058555380870514950E-17 ) ) ;
#21 = ORIENTED_EDGE ( 'NONE', *, *, #10, .T. ) ;
#22 = ADVANCED_FACE ( 'NONE', ( #141 ), #47, .T. ) ;
#23 = EDGE_LOOP ( 'NONE', ( #278, #272, #275, #233 ) ) ;
#24 = AXIS2_PLACEMENT_3D ( 'NONE', #249, #108, #181 ) ;
#25 = ORIENTED_EDGE ( 'NONE', *, *, #222, .T. ) ;
#26 =( NAMED_UNIT ( * ) SI_UNIT ( $, .STERADIAN. ) SOLID_ANGLE_UNIT ( ) );
#27 = APPLICATION_CONTEXT ( 'automotive_design' ) ;
#28 = DIRECTION ( 'NONE',  ( 1.000000000000000000, 0.0000000000000000000, 0.0000000000000000000 ) ) ;
#29 = EDGE_CURVE ( 'NONE', #178, #160, #32, .T. ) ;
#30 = ORIENTED_EDGE ( 'NONE', *, *, #5, .F. ) ;
#31 = PRODUCT_DEFINITION_SHAPE ( 'NONE', 'NONE',  #131 ) ;
#32 = LINE ( 'NONE', #283, #286 ) ;
#33 = CIRCLE ( 'NONE', #53, 0.2500000000000000000 ) ;
#34 = EDGE_CURVE ( 'NONE', #164, #248, #211, .T. ) ;
#35 = CARTESIAN_POINT ( 'NONE',  ( 0.0000000000000000000, 0.0000000000000000000, 2.500000000000000000 ) ) ;
#36 = CARTESIAN_POINT ( 'NONE',  ( 7.654042494670957853E-17, 0.0000000000000000000, 0.6250000000000000000 ) ) ;
#37 = CARTESIAN_POINT ( 'NONE',  ( 0.0000000000000000000, 0.0000000000000000000, 2.484999999999999876 ) ) ;
#38 = DIRECTION ( 'NONE',  ( -1.000000000000000000, 0.0000000000000000000, 0.0000000000000000000 ) ) ;
#39 = DIRECTION ( 'NONE',  ( -1.000000000000000000, 0.0000000000000000000, 1.224646799147353454E-16 ) ) ;
#40 = DIRECTION ( 'NONE',  ( -0.0000000000000000000, -0.0000000000000000000, -1.000000000000000000 ) ) ;
#41 = CYLINDRICAL_SURFACE ( 'NONE', #110, 0.2500000000000000000 ) ;
#42 = DIRECTION ( 'NONE',  ( -0.0000000000000000000, -0.0000000000000000000, -1.000000000000000000 ) ) ;
#43 = EDGE_CURVE ( 'NONE', #117, #185, #120, .T. ) ;
#44 = FILL_AREA_STYLE ('',( #48 ) ) ;
#45 = CARTESIAN_POINT ( 'NONE',  ( 0.2500000000000000000, 3.061616997868383018E-17, 2.484999999999999876 ) ) ;
#46 = ORIENTED_EDGE ( 'NONE', *, *, #112, .F. ) ;
#47 = CONICAL_SURFACE ( 'NONE', #251, 0.2497499999999999998, 0.1745329251994339192 ) ;
#48 = FILL_AREA_STYLE_COLOUR ( '', #205 ) ;
#49 = AXIS2_PLACEMENT_3D ( 'NONE', #225, #247, #150 ) ;
#50 = ORIENTED_EDGE ( 'NONE', *, *, #43, .F. ) ;
#51 = CARTESIAN_POINT ( 'NONE',  ( 0.2350000000000003753, 2.877919977996284141E-17, 2.500000000000000000 ) ) ;
#52 = CARTESIAN_POINT ( 'NONE',  ( 7.654042494670957853E-17, 0.0000000000000000000, 0.6250000000000000000 ) ) ;
#53 = AXIS2_PLACEMENT_3D ( 'NONE', #37, #292, #241 ) ;
#54 = DIRECTION ( 'NONE',  ( -1.000000000000000000, 0.0000000000000000000, 0.0000000000000000000 ) ) ;
#55 = DIRECTION ( 'NONE',  ( 1.000000000000000000, 0.0000000000000000000, 0.0000000000000000000 ) ) ;
#56 = CIRCLE ( 'NONE', #258, 0.2350000000000003753 ) ;
#57 = DIRECTION ( 'NONE',  ( -1.224646799147353207E-16, -0.0000000000000000000, -1.000000000000000000 ) ) ;
#58 = DIRECTION ( 'NONE',  ( -1.000000000000000000, 0.0000000000000000000, 0.0000000000000000000 ) ) ;
#59 = EDGE_LOOP ( 'NONE', ( #229, #84, #207, #113 ) ) ;
#60 = CIRCLE ( 'NONE', #177, 0.2497499999999999998 ) ;
#61 = PRODUCT_DEFINITION_FORMATION_WITH_SPECIFIED_SOURCE ( 'ANY', '', #218, .NOT_KNOWN. ) ;
#62 = ADVANCED_FACE ( 'NONE', ( #182 ), #281, .T. ) ;
#63 = FACE_OUTER_BOUND ( 'NONE', #202, .T. ) ;
#64 = EDGE_LOOP ( 'NONE', ( #76, #223 ) ) ;
#65 = CARTESIAN_POINT ( 'NONE',  ( -0.2497499999999999998, 0.0000000000000000000, 6.117110761741029900E-17 ) ) ;
#66 = UNCERTAINTY_MEASURE_WITH_UNIT (LENGTH_MEASURE( 1.000000000000000082E-05 ), #82, 'distance_accuracy_value', 'NONE');
#67 = ORIENTED_EDGE ( 'NONE', *, *, #29, .F. ) ;
#68 = CIRCLE ( 'NONE', #188, 0.2497499999999999998 ) ;
#69 = CIRCLE ( 'NONE', #163, 0.2497499999999999998 ) ;
#70 = CARTESIAN_POINT ( 'NONE',  ( 0.0000000000000000000, 0.0000000000000000000, 0.0000000000000000000 ) ) ;
#71 = LINE ( 'NONE', #51, #134 ) ;
#72 = ADVANCED_BREP_SHAPE_REPRESENTATION ( 'Micro_SEM-500-04X', ( #208, #291 ), #259 ) ;
#73 = VERTEX_POINT ( 'NONE', #45 ) ;
#74 = ORIENTED_EDGE ( 'NONE', *, *, #238, .T. ) ;
#75 =( NAMED_UNIT ( * ) SI_UNIT ( $, .STERADIAN. ) SOLID_ANGLE_UNIT ( ) );
#76 = ORIENTED_EDGE ( 'NONE', *, *, #255, .T. ) ;
#77 = FILL_AREA_STYLE ('',( #191 ) ) ;
#78 = DIRECTION ( 'NONE',  ( 1.000000000000000000, 0.0000000000000000000, 0.0000000000000000000 ) ) ;
#79 = CARTESIAN_POINT ( 'NONE',  ( 0.2497500000000000830, 0.0000000000000000000, 0.6250000000000000000 ) ) ;
#80 = EDGE_CURVE ( 'NONE', #92, #117, #136, .T. ) ;
#81 = ADVANCED_FACE ( 'NONE', ( #12 ), #7, .T. ) ;
#82 =( CONVERSION_BASED_UNIT ( 'INCH', #295 ) LENGTH_UNIT ( ) NAMED_UNIT ( #197 ) );
#83 = DIRECTION ( 'NONE',  ( -0.1736481776669312194, 2.126576849575783625E-17, 0.9848077530122080203 ) ) ;
#84 = ORIENTED_EDGE ( 'NONE', *, *, #29, .T. ) ;
#85 = AXIS2_PLACEMENT_3D ( 'NONE', #128, #16, #176 ) ;
#86 = ORIENTED_EDGE ( 'NONE', *, *, #112, .T. ) ;
#87 = CARTESIAN_POINT ( 'NONE',  ( 3.745650057197989622E-33, 0.0000000000000000000, 3.058555380870514950E-17 ) ) ;
#88 = DIRECTION ( 'NONE',  ( -0.0000000000000000000, -0.0000000000000000000, -1.000000000000000000 ) ) ;
#89 = AXIS2_PLACEMENT_3D ( 'NONE', #36, #122, #38 ) ;
#90 = SURFACE_STYLE_USAGE ( .BOTH. , #140 ) ;
#91 = ORIENTED_EDGE ( 'NONE', *, *, #80, .F. ) ;
#92 = VERTEX_POINT ( 'NONE', #240 ) ;
#93 = DIRECTION ( 'NONE',  ( 1.224646799147353207E-16, 0.0000000000000000000, 1.000000000000000000 ) ) ;
#94 = APPLICATION_PROTOCOL_DEFINITION ( 'draft international standard', 'automotive_design', 1998, #27 ) ;
#95 =( GEOMETRIC_REPRESENTATION_CONTEXT ( 3 ) GLOBAL_UNCERTAINTY_ASSIGNED_CONTEXT ( ( #260 ) ) GLOBAL_UNIT_ASSIGNED_CONTEXT ( ( #135, #137, #75 ) ) REPRESENTATION_CONTEXT ( 'NONE', 'WORKASPACE' ) );
#96 = CARTESIAN_POINT ( 'NONE',  ( -0.2497499999999999998, 0.0000000000000000000, 3.058555380870514950E-17 ) ) ;
#97 = APPLICATION_CONTEXT ( 'automotive_design' ) ;
#98 = CARTESIAN_POINT ( 'NONE',  ( -0.2497499999999999443, 3.060086189369449292E-17, 0.6250000000000000000 ) ) ;
#99 = EDGE_CURVE ( 'NONE', #73, #117, #19, .T. ) ;
#100 =( CONVERSION_BASED_UNIT ( 'INCH', #9 ) LENGTH_UNIT ( ) NAMED_UNIT ( #104 ) );
#101 = DIRECTION ( 'NONE',  ( 0.0000000000000000000, 0.0000000000000000000, 1.000000000000000000 ) ) ;
#102 = CARTESIAN_POINT ( 'NONE',  ( -0.2350000000000003753, 0.0000000000000000000, 2.500000000000000000 ) ) ;
#103 = DIRECTION ( 'NONE',  ( 0.0000000000000000000, 0.0000000000000000000, -1.000000000000000000 ) ) ;
#104 = DIMENSIONAL_EXPONENTS ( 1.000000000000000000, 0.0000000000000000000, 0.0000000000000000000, 0.0000000000000000000, 0.0000000000000000000, 0.0000000000000000000, 0.0000000000000000000 ) ;
#105 = FACE_OUTER_BOUND ( 'NONE', #64, .T. ) ;
#106 = CARTESIAN_POINT ( 'NONE',  ( 0.2500000000000000000, 3.061616997868383018E-17, 2.500000000000000000 ) ) ;
#107 = DIRECTION ( 'NONE',  ( -1.224646799147353207E-16, -0.0000000000000000000, -1.000000000000000000 ) ) ;
#108 = DIRECTION ( 'NONE',  ( -1.224646799147353207E-16, -0.0000000000000000000, -1.000000000000000000 ) ) ;
#109 = ORIENTED_EDGE ( 'NONE', *, *, #266, .F. ) ;
#110 = AXIS2_PLACEMENT_3D ( 'NONE', #242, #200, #250 ) ;
#111 =( LENGTH_UNIT ( ) NAMED_UNIT ( * ) SI_UNIT ( $, .METRE. ) );
#112 = EDGE_CURVE ( 'NONE', #178, #164, #68, .T. ) ;
#113 = ORIENTED_EDGE ( 'NONE', *, *, #34, .F. ) ;
#114 = PRODUCT_CONTEXT ( 'NONE', #27, 'mechanical' ) ;
#115 = DIRECTION ( 'NONE',  ( 0.7071067811865330288, 8.659560562354755364E-17, -0.7071067811865618946 ) ) ;
#116 = ADVANCED_FACE ( 'NONE', ( #195 ), #270, .T. ) ;
#117 = VERTEX_POINT ( 'NONE', #237 ) ;
#118 = EDGE_CURVE ( 'NONE', #92, #153, #56, .T. ) ;
#119 = CIRCLE ( 'NONE', #157, 0.2350000000000003753 ) ;
#120 = LINE ( 'NONE', #214, #204 ) ;
#121 =( LENGTH_UNIT ( ) NAMED_UNIT ( * ) SI_UNIT ( $, .METRE. ) );
#122 = DIRECTION ( 'NONE',  ( -1.224646799147353207E-16, -0.0000000000000000000, -1.000000000000000000 ) ) ;
#123 = PRESENTATION_LAYER_ASSIGNMENT (  '', '', ( #244 ) ) ;
#124 = EDGE_CURVE ( 'NONE', #153, #92, #119, .T. ) ;
#125 = CARTESIAN_POINT ( 'NONE',  ( -0.2499999999999999167, 0.0000000000000000000, 0.6264178204549043505 ) ) ;
#126 = CARTESIAN_POINT ( 'NONE',  ( 0.0000000000000000000, 0.0000000000000000000, 2.500000000000000000 ) ) ;
#127 = FACE_OUTER_BOUND ( 'NONE', #228, .T. ) ;
#128 = CARTESIAN_POINT ( 'NONE',  ( 7.671405787489599085E-17, 0.0000000000000000000, 0.6264178204549043505 ) ) ;
#129 = ORIENTED_EDGE ( 'NONE', *, *, #169, .T. ) ;
#130 = DIRECTION ( 'NONE',  ( 1.000000000000000000, 0.0000000000000000000, -0.0000000000000000000 ) ) ;
#131 = PRODUCT_DEFINITION ( 'UNKNOWN', '', #61, #268 ) ;
#132 = VECTOR ( 'NONE', #171, 39.37007874015748854 ) ;
#133 = VECTOR ( 'NONE', #184, 39.37007874015748143 ) ;
#134 = VECTOR ( 'NONE', #115, 39.37007874015748854 ) ;
#135 =( CONVERSION_BASED_UNIT ( 'INCH', #252 ) LENGTH_UNIT ( ) NAMED_UNIT ( #293 ) );
#136 = LINE ( 'NONE', #102, #132 ) ;
#137 =( NAMED_UNIT ( * ) PLANE_ANGLE_UNIT ( ) SI_UNIT ( $, .RADIAN. ) );
#138 = DIRECTION ( 'NONE',  ( -1.224646799147353207E-16, -0.0000000000000000000, -1.000000000000000000 ) ) ;
#139 = AXIS2_PLACEMENT_3D ( 'NONE', #194, #219, #13 ) ;
#140 = SURFACE_SIDE_STYLE ('',( #159 ) ) ;
#141 = FACE_OUTER_BOUND ( 'NONE', #2, .T. ) ;
#142 = DIRECTION ( 'NONE',  ( -1.224646799147353207E-16, -0.0000000000000000000, -1.000000000000000000 ) ) ;
#143 = PRESENTATION_LAYER_ASSIGNMENT (  '', '', ( #226 ) ) ;
#144 = CONICAL_SURFACE ( 'NONE', #49, 0.2350000000000003753, 0.7853981633974278509 ) ;
#145 = DIRECTION ( 'NONE',  ( 0.0000000000000000000, 0.0000000000000000000, 1.000000000000000000 ) ) ;
#146 = DIRECTION ( 'NONE',  ( -1.000000000000000000, 0.0000000000000000000, 1.224646799147353454E-16 ) ) ;
#147 = CARTESIAN_POINT ( 'NONE',  ( 0.2500000000000000555, 3.061616997868383634E-17, 0.6264178204549043505 ) ) ;
#148 = MECHANICAL_DESIGN_GEOMETRIC_PRESENTATION_REPRESENTATION (  '', ( #244 ), #95 ) ;
#149 = CARTESIAN_POINT ( 'NONE',  ( 0.2497499999999999998, 3.058555380870514950E-17, 0.0000000000000000000 ) ) ;
#150 = DIRECTION ( 'NONE',  ( -1.000000000000000000, 0.0000000000000000000, 0.0000000000000000000 ) ) ;
#151 = CIRCLE ( 'NONE', #24, 0.2500000000000000000 ) ;
#152 = FACE_OUTER_BOUND ( 'NONE', #165, .T. ) ;
#153 = VERTEX_POINT ( 'NONE', #168 ) ;
#154 = FACE_OUTER_BOUND ( 'NONE', #262, .T. ) ;
#155 = CARTESIAN_POINT ( 'NONE',  ( -0.2497499999999999443, 3.058555380870514950E-17, 0.6250000000000000000 ) ) ;
#156 = VERTEX_POINT ( 'NONE', #147 ) ;
#157 = AXIS2_PLACEMENT_3D ( 'NONE', #35, #236, #78 ) ;
#158 = DIRECTION ( 'NONE',  ( -1.224646799147353207E-16, -0.0000000000000000000, -1.000000000000000000 ) ) ;
#159 = SURFACE_STYLE_FILL_AREA ( #44 ) ;
#160 = VERTEX_POINT ( 'NONE', #149 ) ;
#161 = CARTESIAN_POINT ( 'NONE',  ( 0.2497500000000000830, 0.0000000000000000000, 0.6250000000000000000 ) ) ;
#162 = COLOUR_RGB ( '',0.7921568627450980005, 0.8196078431372548767, 0.9333333333333333481 ) ;
#163 = AXIS2_PLACEMENT_3D ( 'NONE', #20, #107, #39 ) ;
#164 = VERTEX_POINT ( 'NONE', #98 ) ;
#165 = EDGE_LOOP ( 'NONE', ( #213, #18, #257, #3 ) ) ;
#166 = SURFACE_STYLE_FILL_AREA ( #77 ) ;
#167 = AXIS2_PLACEMENT_3D ( 'NONE', #17, #277, #199 ) ;
#168 = CARTESIAN_POINT ( 'NONE',  ( 0.2350000000000003753, 2.969768487932332963E-17, 2.500000000000000000 ) ) ;
#169 = EDGE_CURVE ( 'NONE', #117, #73, #33, .T. ) ;
#170 = FACE_OUTER_BOUND ( 'NONE', #234, .T. ) ;
#171 = DIRECTION ( 'NONE',  ( -0.7071067811865330288, 0.0000000000000000000, -0.7071067811865618946 ) ) ;
#172 = AXIS2_PLACEMENT_3D ( 'NONE', #245, #40, #58 ) ;
#173 = EDGE_CURVE ( 'NONE', #164, #178, #198, .T. ) ;
#174 = DIRECTION ( 'NONE',  ( 1.000000000000000000, 0.0000000000000000000, 0.0000000000000000000 ) ) ;
#175 = ORIENTED_EDGE ( 'NONE', *, *, #222, .F. ) ;
#176 = DIRECTION ( 'NONE',  ( 1.000000000000000000, 0.0000000000000000000, 0.0000000000000000000 ) ) ;
#177 = AXIS2_PLACEMENT_3D ( 'NONE', #87, #201, #274 ) ;
#178 = VERTEX_POINT ( 'NONE', #79 ) ;
#179 =( NAMED_UNIT ( * ) PLANE_ANGLE_UNIT ( ) SI_UNIT ( $, .RADIAN. ) );
#180 = UNCERTAINTY_MEASURE_WITH_UNIT (LENGTH_MEASURE( 1.000000000000000082E-05 ), #100, 'distance_accuracy_value', 'NONE');
#181 = DIRECTION ( 'NONE',  ( 1.000000000000000000, 0.0000000000000000000, 0.0000000000000000000 ) ) ;
#182 = FACE_OUTER_BOUND ( 'NONE', #59, .T. ) ;
#183 =( GEOMETRIC_REPRESENTATION_CONTEXT ( 3 ) GLOBAL_UNCERTAINTY_ASSIGNED_CONTEXT ( ( #180 ) ) GLOBAL_UNIT_ASSIGNED_CONTEXT ( ( #100, #220, #224 ) ) REPRESENTATION_CONTEXT ( 'NONE', 'WORKASPACE' ) );
#184 = DIRECTION ( 'NONE',  ( 0.1736481776669314137, 0.0000000000000000000, 0.9848077530122077983 ) ) ;
#185 = VERTEX_POINT ( 'NONE', #125 ) ;
#186 = ADVANCED_FACE ( 'NONE', ( #170 ), #289, .T. ) ;
#187 = ORIENTED_EDGE ( 'NONE', *, *, #173, .F. ) ;
#188 = AXIS2_PLACEMENT_3D ( 'NONE', #196, #239, #54 ) ;
#189 = PRODUCT_RELATED_PRODUCT_CATEGORY ( 'part', '', ( #218 ) ) ;
#190 = ORIENTED_EDGE ( 'NONE', *, *, #34, .T. ) ;
#191 = FILL_AREA_STYLE_COLOUR ( '', #162 ) ;
#192 = SURFACE_STYLE_USAGE ( .BOTH. , #216 ) ;
#193 = AXIS2_PLACEMENT_3D ( 'NONE', #299, #15, #130 ) ;
#194 = CARTESIAN_POINT ( 'NONE',  ( 0.0000000000000000000, 0.0000000000000000000, 2.500000000000000000 ) ) ;
#195 = FACE_OUTER_BOUND ( 'NONE', #6, .T. ) ;
#196 = CARTESIAN_POINT ( 'NONE',  ( 7.654042494670957853E-17, 0.0000000000000000000, 0.6250000000000000000 ) ) ;
#197 = DIMENSIONAL_EXPONENTS ( 1.000000000000000000, 0.0000000000000000000, 0.0000000000000000000, 0.0000000000000000000, 0.0000000000000000000, 0.0000000000000000000, 0.0000000000000000000 ) ;
#198 = CIRCLE ( 'NONE', #89, 0.2497499999999999998 ) ;
#199 = DIRECTION ( 'NONE',  ( 1.000000000000000000, 0.0000000000000000000, 0.0000000000000000000 ) ) ;
#200 = DIRECTION ( 'NONE',  ( -0.0000000000000000000, -0.0000000000000000000, -1.000000000000000000 ) ) ;
#201 = DIRECTION ( 'NONE',  ( -1.224646799147353207E-16, -0.0000000000000000000, -1.000000000000000000 ) ) ;
#202 = EDGE_LOOP ( 'NONE', ( #288, #21, #206, #91 ) ) ;
#203 =( LENGTH_UNIT ( ) NAMED_UNIT ( * ) SI_UNIT ( $, .METRE. ) );
#204 = VECTOR ( 'NONE', #88, 39.37007874015748143 ) ;
#205 = COLOUR_RGB ( '',0.7921568627450980005, 0.8196078431372548767, 0.9333333333333333481 ) ;
#206 = ORIENTED_EDGE ( 'NONE', *, *, #169, .F. ) ;
#207 = ORIENTED_EDGE ( 'NONE', *, *, #255, .F. ) ;
#208 = MANIFOLD_SOLID_BREP ( 'Cut-Revolve1', #231 ) ;
#209 = ORIENTED_EDGE ( 'NONE', *, *, #235, .T. ) ;
#210 = ADVANCED_FACE ( 'NONE', ( #152 ), #8, .T. ) ;
#211 = LINE ( 'NONE', #96, #276 ) ;
#212 = DIRECTION ( 'NONE',  ( 1.000000000000000000, 0.0000000000000000000, 0.0000000000000000000 ) ) ;
#213 = ORIENTED_EDGE ( 'NONE', *, *, #235, .F. ) ;
#214 = CARTESIAN_POINT ( 'NONE',  ( -0.2500000000000000000, 0.0000000000000000000, 2.500000000000000000 ) ) ;
#215 = ADVANCED_FACE ( 'NONE', ( #127 ), #290, .T. ) ;
#216 = SURFACE_SIDE_STYLE ('',( #166 ) ) ;
#217 = VECTOR ( 'NONE', #42, 39.37007874015748143 ) ;
#218 = PRODUCT ( 'Micro_SEM-500-04X', 'Micro_SEM-500-04X', '', ( #114 ) ) ;
#219 = DIRECTION ( 'NONE',  ( 0.0000000000000000000, 0.0000000000000000000, -1.000000000000000000 ) ) ;
#220 =( NAMED_UNIT ( * ) PLANE_ANGLE_UNIT ( ) SI_UNIT ( $, .RADIAN. ) );
#221 = AXIS2_PLACEMENT_3D ( 'NONE', #267, #103, #174 ) ;
#222 = EDGE_CURVE ( 'NONE', #164, #185, #296, .T. ) ;
#223 = ORIENTED_EDGE ( 'NONE', *, *, #266, .T. ) ;
#224 =( NAMED_UNIT ( * ) SI_UNIT ( $, .STERADIAN. ) SOLID_ANGLE_UNIT ( ) );
#225 = CARTESIAN_POINT ( 'NONE',  ( 0.0000000000000000000, 0.0000000000000000000, 2.500000000000000000 ) ) ;
#226 = STYLED_ITEM ( 'NONE', ( #264 ), #208 ) ;
#227 = DIRECTION ( 'NONE',  ( 0.0000000000000000000, 0.0000000000000000000, 1.000000000000000000 ) ) ;
#228 = EDGE_LOOP ( 'NONE', ( #187, #25, #232, #30 ) ) ;
#229 = ORIENTED_EDGE ( 'NONE', *, *, #173, .T. ) ;
#230 = CIRCLE ( 'NONE', #85, 0.2500000000000000000 ) ;
#231 = CLOSED_SHELL ( 'NONE', ( #62, #215, #273, #279, #210, #186, #81, #22, #116, #246 ) ) ;
#232 = ORIENTED_EDGE ( 'NONE', *, *, #263, .T. ) ;
#233 = ORIENTED_EDGE ( 'NONE', *, *, #99, .F. ) ;
#234 = EDGE_LOOP ( 'NONE', ( #285, #254 ) ) ;
#235 = EDGE_CURVE ( 'NONE', #73, #156, #14, .T. ) ;
#236 = DIRECTION ( 'NONE',  ( 0.0000000000000000000, 0.0000000000000000000, 1.000000000000000000 ) ) ;
#237 = CARTESIAN_POINT ( 'NONE',  ( -0.2500000000000000000, 0.0000000000000000000, 2.484999999999999876 ) ) ;
#238 = EDGE_CURVE ( 'NONE', #156, #185, #151, .T. ) ;
#239 = DIRECTION ( 'NONE',  ( -1.224646799147353207E-16, -0.0000000000000000000, -1.000000000000000000 ) ) ;
#240 = CARTESIAN_POINT ( 'NONE',  ( -0.2350000000000003753, 0.0000000000000000000, 2.500000000000000000 ) ) ;
#241 = DIRECTION ( 'NONE',  ( 1.000000000000000000, 0.0000000000000000000, 0.0000000000000000000 ) ) ;
#242 = CARTESIAN_POINT ( 'NONE',  ( 0.0000000000000000000, 0.0000000000000000000, 2.500000000000000000 ) ) ;
#243 = AXIS2_PLACEMENT_3D ( 'NONE', #294, #57, #146 ) ;
#244 = STYLED_ITEM ( 'NONE', ( #282 ), #72 ) ;
#245 = CARTESIAN_POINT ( 'NONE',  ( 0.0000000000000000000, 0.0000000000000000000, 2.500000000000000000 ) ) ;
#246 = ADVANCED_FACE ( 'NONE', ( #105 ), #297, .F. ) ;
#247 = DIRECTION ( 'NONE',  ( 0.0000000000000000000, 0.0000000000000000000, -1.000000000000000000 ) ) ;
#248 = VERTEX_POINT ( 'NONE', #65 ) ;
#249 = CARTESIAN_POINT ( 'NONE',  ( 7.671405787489599085E-17, 0.0000000000000000000, 0.6264178204549043505 ) ) ;
#250 = DIRECTION ( 'NONE',  ( -1.000000000000000000, 0.0000000000000000000, 0.0000000000000000000 ) ) ;
#251 = AXIS2_PLACEMENT_3D ( 'NONE', #52, #93, #28 ) ;
#252 = LENGTH_MEASURE_WITH_UNIT ( LENGTH_MEASURE( 0.02539999999999999897 ), #111 );
#253 = DIRECTION ( 'NONE',  ( -1.000000000000000000, 0.0000000000000000000, 1.224646799147353454E-16 ) ) ;
#254 = ORIENTED_EDGE ( 'NONE', *, *, #124, .T. ) ;
#255 = EDGE_CURVE ( 'NONE', #248, #160, #60, .T. ) ;
#256 = CARTESIAN_POINT ( 'NONE',  ( 0.0000000000000000000, 0.0000000000000000000, 0.0000000000000000000 ) ) ;
#257 = ORIENTED_EDGE ( 'NONE', *, *, #43, .T. ) ;
#258 = AXIS2_PLACEMENT_3D ( 'NONE', #271, #145, #55 ) ;
#259 =( GEOMETRIC_REPRESENTATION_CONTEXT ( 3 ) GLOBAL_UNCERTAINTY_ASSIGNED_CONTEXT ( ( #66 ) ) GLOBAL_UNIT_ASSIGNED_CONTEXT ( ( #82, #179, #26 ) ) REPRESENTATION_CONTEXT ( 'NONE', 'WORKASPACE' ) );
#260 = UNCERTAINTY_MEASURE_WITH_UNIT (LENGTH_MEASURE( 1.000000000000000082E-05 ), #135, 'distance_accuracy_value', 'NONE');
#261 = LINE ( 'NONE', #161, #133 ) ;
#262 = EDGE_LOOP ( 'NONE', ( #129, #209, #284, #50 ) ) ;
#263 = EDGE_CURVE ( 'NONE', #185, #156, #230, .T. ) ;
#264 = PRESENTATION_STYLE_ASSIGNMENT (( #192 ) ) ;
#265 = AXIS2_PLACEMENT_3D ( 'NONE', #70, #158, #253 ) ;
#266 = EDGE_CURVE ( 'NONE', #160, #248, #69, .T. ) ;
#267 = CARTESIAN_POINT ( 'NONE',  ( 0.0000000000000000000, 0.0000000000000000000, 2.484999999999999876 ) ) ;
#268 = PRODUCT_DEFINITION_CONTEXT ( 'detailed design', #97, 'design' ) ;
#269 = DIRECTION ( 'NONE',  ( 1.000000000000000000, 0.0000000000000000000, -0.0000000000000000000 ) ) ;
#270 = CYLINDRICAL_SURFACE ( 'NONE', #243, 0.2497499999999999998 ) ;
#271 = CARTESIAN_POINT ( 'NONE',  ( 0.0000000000000000000, 0.0000000000000000000, 2.500000000000000000 ) ) ;
#272 = ORIENTED_EDGE ( 'NONE', *, *, #118, .F. ) ;
#273 = ADVANCED_FACE ( 'NONE', ( #63 ), #144, .T. ) ;
#274 = DIRECTION ( 'NONE',  ( -1.000000000000000000, 0.0000000000000000000, 1.224646799147353454E-16 ) ) ;
#275 = ORIENTED_EDGE ( 'NONE', *, *, #80, .T. ) ;
#276 = VECTOR ( 'NONE', #142, 39.37007874015748143 ) ;
#277 = DIRECTION ( 'NONE',  ( 1.224646799147353207E-16, 0.0000000000000000000, 1.000000000000000000 ) ) ;
#278 = ORIENTED_EDGE ( 'NONE', *, *, #10, .F. ) ;
#279 = ADVANCED_FACE ( 'NONE', ( #154 ), #41, .T. ) ;
#280 = AXIS2_PLACEMENT_3D ( 'NONE', #126, #101, #269 ) ;
#281 = CYLINDRICAL_SURFACE ( 'NONE', #265, 0.2497499999999999998 ) ;
#282 = PRESENTATION_STYLE_ASSIGNMENT (( #90 ) ) ;
#283 = CARTESIAN_POINT ( 'NONE',  ( 0.2497499999999999998, 3.058555380870514950E-17, -3.058555380870514950E-17 ) ) ;
#284 = ORIENTED_EDGE ( 'NONE', *, *, #263, .F. ) ;
#285 = ORIENTED_EDGE ( 'NONE', *, *, #118, .T. ) ;
#286 = VECTOR ( 'NONE', #138, 39.37007874015748143 ) ;
#287 = APPLICATION_PROTOCOL_DEFINITION ( 'draft international standard', 'automotive_design', 1998, #97 ) ;
#288 = ORIENTED_EDGE ( 'NONE', *, *, #124, .F. ) ;
#289 = PLANE ( 'NONE',  #280 ) ;
#290 = CONICAL_SURFACE ( 'NONE', #167, 0.2497499999999999998, 0.1745329251994339192 ) ;
#291 = AXIS2_PLACEMENT_3D ( 'NONE', #256, #227, #212 ) ;
#292 = DIRECTION ( 'NONE',  ( 0.0000000000000000000, 0.0000000000000000000, -1.000000000000000000 ) ) ;
#293 = DIMENSIONAL_EXPONENTS ( 1.000000000000000000, 0.0000000000000000000, 0.0000000000000000000, 0.0000000000000000000, 0.0000000000000000000, 0.0000000000000000000, 0.0000000000000000000 ) ;
#294 = CARTESIAN_POINT ( 'NONE',  ( 0.0000000000000000000, 0.0000000000000000000, 0.0000000000000000000 ) ) ;
#295 = LENGTH_MEASURE_WITH_UNIT ( LENGTH_MEASURE( 0.02539999999999999897 ), #203 );
#296 = LINE ( 'NONE', #155, #1 ) ;
#297 = PLANE ( 'NONE',  #193 ) ;
#298 = ORIENTED_EDGE ( 'NONE', *, *, #5, .T. ) ;
#299 = CARTESIAN_POINT ( 'NONE',  ( 0.0000000000000000000, 0.0000000000000000000, 0.0000000000000000000 ) ) ;
ENDSEC;
END-ISO-10303-21;
