ISO-10303-21;
HEADER;
FILE_DESCRIPTION (( 'STEP AP214' ),
    '1' );
FILE_NAME ('Micro_SFLM-010-10.STEP',
    '2021-09-02T05:09:14',
    ( '' ),
    ( '' ),
    'SwSTEP 2.0',
    'SolidWorks 2020',
    '' );
FILE_SCHEMA (( 'AUTOMOTIVE_DESIGN' ));
ENDSEC;

DATA;
#1 = DIRECTION ( 'NONE',  ( -1.224646799147353207E-16, -0.0000000000000000000, -1.000000000000000000 ) ) ;
#2 = EDGE_LOOP ( 'NONE', ( #162, #160, #29, #4 ) ) ;
#3 = CIRCLE ( 'NONE', #202, 0.01966531500000000265 ) ;
#4 = ORIENTED_EDGE ( 'NONE', *, *, #184, .F. ) ;
#5 = CYLINDRICAL_SURFACE ( 'NONE', #191, 0.01966531500000000612 ) ;
#6 = SURFACE_STYLE_USAGE ( .BOTH. , #31 ) ;
#7 = DIRECTION ( 'NONE',  ( 1.000000000000000000, 0.0000000000000000000, 0.0000000000000000000 ) ) ;
#8 = ADVANCED_FACE ( 'NONE', ( #263 ), #76, .T. ) ;
#9 = CARTESIAN_POINT ( 'NONE',  ( 5.146455762878069340E-17, 0.0000000000000000000, 0.4202400044209671504 ) ) ;
#10 = DIRECTION ( 'NONE',  ( -1.224646799147353207E-16, -0.0000000000000000000, -1.000000000000000000 ) ) ;
#11 = VECTOR ( 'NONE', #227, 39.37007874015748143 ) ;
#12 = LINE ( 'NONE', #111, #95 ) ;
#13 = ADVANCED_FACE ( 'NONE', ( #256 ), #5, .T. ) ;
#14 = PLANE ( 'NONE',  #262 ) ;
#15 = DIRECTION ( 'NONE',  ( -1.000000000000000000, 0.0000000000000000000, 1.224646799147353207E-16 ) ) ;
#16 = STYLED_ITEM ( 'NONE', ( #187 ), #193 ) ;
#17 = VECTOR ( 'NONE', #180, 39.37007874015748143 ) ;
#18 = DIRECTION ( 'NONE',  ( 0.0000000000000000000, 0.0000000000000000000, 1.000000000000000000 ) ) ;
#19 = DIRECTION ( 'NONE',  ( -0.0000000000000000000, -0.0000000000000000000, -1.000000000000000000 ) ) ;
#20 = EDGE_CURVE ( 'NONE', #44, #48, #56, .T. ) ;
#21 = PRODUCT ( 'Micro_SFLM-010-10', 'Micro_SFLM-010-10', '', ( #116 ) ) ;
#22 = ORIENTED_EDGE ( 'NONE', *, *, #171, .F. ) ;
#23 = SURFACE_STYLE_USAGE ( .BOTH. , #233 ) ;
#24 = VERTEX_POINT ( 'NONE', #51 ) ;
#25 = FACE_OUTER_BOUND ( 'NONE', #281, .T. ) ;
#26 = ORIENTED_EDGE ( 'NONE', *, *, #277, .F. ) ;
#27 = PRODUCT_DEFINITION_FORMATION_WITH_SPECIFIED_SOURCE ( 'ANY', '', #21, .NOT_KNOWN. ) ;
#28 = DIRECTION ( 'NONE',  ( 1.000000000000000000, 0.0000000000000000000, 0.0000000000000000000 ) ) ;
#29 = ORIENTED_EDGE ( 'NONE', *, *, #84, .T. ) ;
#30 = CARTESIAN_POINT ( 'NONE',  ( 5.146455762878069340E-17, 0.0000000000000000000, 0.4202400044209671504 ) ) ;
#31 = SURFACE_SIDE_STYLE ('',( #287 ) ) ;
#32 = EDGE_CURVE ( 'NONE', #235, #73, #260, .T. ) ;
#33 =( CONVERSION_BASED_UNIT ( 'INCH', #241 ) LENGTH_UNIT ( ) NAMED_UNIT ( #213 ) );
#34 = PRESENTATION_LAYER_ASSIGNMENT (  '', '', ( #16 ) ) ;
#35 = FACE_OUTER_BOUND ( 'NONE', #135, .T. ) ;
#36 = DIRECTION ( 'NONE',  ( 0.0000000000000000000, 0.0000000000000000000, -1.000000000000000000 ) ) ;
#37 = DIRECTION ( 'NONE',  ( -1.000000000000000000, 0.0000000000000000000, 1.224646799147353207E-16 ) ) ;
#38 = CARTESIAN_POINT ( 'NONE',  ( -0.04405499999999960142, 0.0000000000000000000, 2.244094000000000033 ) ) ;
#39 = CARTESIAN_POINT ( 'NONE',  ( 0.01966531500000000612, 2.408306506897443871E-18, -2.408306506897443871E-18 ) ) ;
#40 = FACE_OUTER_BOUND ( 'NONE', #99, .T. ) ;
#41 = PLANE ( 'NONE',  #70 ) ;
#42 = ADVANCED_FACE ( 'NONE', ( #284 ), #170, .T. ) ;
#43 =( NAMED_UNIT ( * ) SI_UNIT ( $, .STERADIAN. ) SOLID_ANGLE_UNIT ( ) );
#44 = VERTEX_POINT ( 'NONE', #126 ) ;
#45 = EDGE_CURVE ( 'NONE', #73, #138, #133, .T. ) ;
#46 = SHAPE_DEFINITION_REPRESENTATION ( #265, #193 ) ;
#47 = ORIENTED_EDGE ( 'NONE', *, *, #268, .F. ) ;
#48 = VERTEX_POINT ( 'NONE', #77 ) ;
#49 = PRESENTATION_LAYER_ASSIGNMENT (  '', '', ( #57 ) ) ;
#50 = VECTOR ( 'NONE', #149, 39.37007874015748143 ) ;
#51 = CARTESIAN_POINT ( 'NONE',  ( -0.01966531500000000265, 0.0000000000000000000, 4.816613013794886973E-18 ) ) ;
#52 = CARTESIAN_POINT ( 'NONE',  ( -0.05905500000000001720, 0.0000000000000000000, 2.244094000000000033 ) ) ;
#53 = PRODUCT_DEFINITION ( 'UNKNOWN', '', #27, #158 ) ;
#54 = MECHANICAL_DESIGN_GEOMETRIC_PRESENTATION_REPRESENTATION (  '', ( #57 ), #228 ) ;
#55 = DIRECTION ( 'NONE',  ( -0.0000000000000000000, -0.0000000000000000000, -1.000000000000000000 ) ) ;
#56 = CIRCLE ( 'NONE', #232, 0.05905500000000001720 ) ;
#57 = STYLED_ITEM ( 'NONE', ( #125 ), #91 ) ;
#58 = DIRECTION ( 'NONE',  ( 0.7071067811865449082, 8.659560562354900811E-17, -0.7071067811865501263 ) ) ;
#59 = CARTESIAN_POINT ( 'NONE',  ( 2.949324855037697299E-34, 0.0000000000000000000, 2.408306506897443486E-18 ) ) ;
#60 = DIRECTION ( 'NONE',  ( 1.224646799147353207E-16, 0.0000000000000000000, 1.000000000000000000 ) ) ;
#61 = AXIS2_PLACEMENT_3D ( 'NONE', #175, #55, #218 ) ;
#62 = CARTESIAN_POINT ( 'NONE',  ( 0.0000000000000000000, 0.0000000000000000000, 2.229093999999999465 ) ) ;
#63 = EDGE_CURVE ( 'NONE', #237, #235, #271, .T. ) ;
#64 = CARTESIAN_POINT ( 'NONE',  ( 0.01966531500000000265, 2.408306506897443871E-18, 0.0000000000000000000 ) ) ;
#65 = EDGE_CURVE ( 'NONE', #138, #48, #78, .T. ) ;
#66 = DIRECTION ( 'NONE',  ( -1.224646799147353207E-16, -0.0000000000000000000, -1.000000000000000000 ) ) ;
#67 = EDGE_CURVE ( 'NONE', #71, #72, #221, .T. ) ;
#68 = ORIENTED_EDGE ( 'NONE', *, *, #268, .T. ) ;
#69 = CIRCLE ( 'NONE', #166, 0.05905500000000001720 ) ;
#70 = AXIS2_PLACEMENT_3D ( 'NONE', #246, #18, #108 ) ;
#71 = VERTEX_POINT ( 'NONE', #243 ) ;
#72 = VERTEX_POINT ( 'NONE', #145 ) ;
#73 = VERTEX_POINT ( 'NONE', #198 ) ;
#74 = ADVANCED_FACE ( 'NONE', ( #35 ), #209, .T. ) ;
#75 = VECTOR ( 'NONE', #58, 39.37007874015748143 ) ;
#76 = CYLINDRICAL_SURFACE ( 'NONE', #61, 0.05905500000000001720 ) ;
#77 = CARTESIAN_POINT ( 'NONE',  ( -0.05905499999999996169, 0.0000000000000000000, 0.4202400044209671504 ) ) ;
#78 = LINE ( 'NONE', #52, #50 ) ;
#79 = CIRCLE ( 'NONE', #286, 0.01966531500000000265 ) ;
#80 = CARTESIAN_POINT ( 'NONE',  ( 2.949324855037697299E-34, 0.0000000000000000000, 2.408306506897443486E-18 ) ) ;
#81 = AXIS2_PLACEMENT_3D ( 'NONE', #105, #220, #148 ) ;
#82 = FACE_OUTER_BOUND ( 'NONE', #2, .T. ) ;
#83 = FACE_OUTER_BOUND ( 'NONE', #234, .T. ) ;
#84 = EDGE_CURVE ( 'NONE', #48, #44, #167, .T. ) ;
#85 = DIRECTION ( 'NONE',  ( 0.1736481776669314414, 0.0000000000000000000, 0.9848077530122077983 ) ) ;
#86 = CARTESIAN_POINT ( 'NONE',  ( -0.01966531499999998531, 2.408306506897444257E-18, 0.1968499999999999694 ) ) ;
#87 = CYLINDRICAL_SURFACE ( 'NONE', #296, 0.01966531500000000612 ) ;
#88 = VECTOR ( 'NONE', #19, 39.37007874015748143 ) ;
#89 = AXIS2_PLACEMENT_3D ( 'NONE', #196, #10, #106 ) ;
#90 = UNCERTAINTY_MEASURE_WITH_UNIT (LENGTH_MEASURE( 1.000000000000000082E-05 ), #33, 'distance_accuracy_value', 'NONE');
#91 = MANIFOLD_SOLID_BREP ( 'Cut-Revolve1', #164 ) ;
#92 = APPLICATION_PROTOCOL_DEFINITION ( 'draft international standard', 'automotive_design', 1998, #248 ) ;
#93 =( NAMED_UNIT ( * ) SI_UNIT ( $, .STERADIAN. ) SOLID_ANGLE_UNIT ( ) );
#94 = EDGE_LOOP ( 'NONE', ( #298, #101, #188, #123 ) ) ;
#95 = VECTOR ( 'NONE', #85, 39.37007874015748143 ) ;
#96 = AXIS2_PLACEMENT_3D ( 'NONE', #165, #244, #168 ) ;
#97 = CONICAL_SURFACE ( 'NONE', #236, 0.01966531500000000959, 0.1745329251994339470 ) ;
#98 = FILL_AREA_STYLE ('',( #207 ) ) ;
#99 = EDGE_LOOP ( 'NONE', ( #251, #102 ) ) ;
#100 = EDGE_CURVE ( 'NONE', #161, #24, #79, .T. ) ;
#101 = ORIENTED_EDGE ( 'NONE', *, *, #129, .F. ) ;
#102 = ORIENTED_EDGE ( 'NONE', *, *, #216, .T. ) ;
#103 = DIRECTION ( 'NONE',  ( 0.0000000000000000000, 0.0000000000000000000, -1.000000000000000000 ) ) ;
#104 = ORIENTED_EDGE ( 'NONE', *, *, #45, .T. ) ;
#105 = CARTESIAN_POINT ( 'NONE',  ( 0.0000000000000000000, 0.0000000000000000000, 2.244094000000000033 ) ) ;
#106 = DIRECTION ( 'NONE',  ( -1.000000000000000000, 0.0000000000000000000, 0.0000000000000000000 ) ) ;
#107 = CARTESIAN_POINT ( 'NONE',  ( 2.410717224121564319E-17, 0.0000000000000000000, 0.1968499999999999694 ) ) ;
#108 = DIRECTION ( 'NONE',  ( 1.000000000000000000, 0.0000000000000000000, -0.0000000000000000000 ) ) ;
#109 = CARTESIAN_POINT ( 'NONE',  ( -0.01966531500000000612, 0.0000000000000000000, 2.408306506897443871E-18 ) ) ;
#110 = VECTOR ( 'NONE', #245, 39.37007874015748143 ) ;
#111 = CARTESIAN_POINT ( 'NONE',  ( 0.01966531500000003735, 0.0000000000000000000, 0.1968499999999999694 ) ) ;
#112 = FACE_OUTER_BOUND ( 'NONE', #192, .T. ) ;
#113 = CARTESIAN_POINT ( 'NONE',  ( 0.0000000000000000000, 0.0000000000000000000, 0.0000000000000000000 ) ) ;
#114 = EDGE_LOOP ( 'NONE', ( #194, #124, #119, #190 ) ) ;
#115 = ADVANCED_FACE ( 'NONE', ( #112 ), #41, .F. ) ;
#116 = PRODUCT_CONTEXT ( 'NONE', #183, 'mechanical' ) ;
#117 = ORIENTED_EDGE ( 'NONE', *, *, #100, .F. ) ;
#118 = LENGTH_MEASURE_WITH_UNIT ( LENGTH_MEASURE( 0.02539999999999999897 ), #297 );
#119 = ORIENTED_EDGE ( 'NONE', *, *, #84, .F. ) ;
#120 = EDGE_CURVE ( 'NONE', #71, #48, #179, .T. ) ;
#121 = EDGE_LOOP ( 'NONE', ( #208, #68, #140, #250 ) ) ;
#122 = AXIS2_PLACEMENT_3D ( 'NONE', #266, #60, #176 ) ;
#123 = ORIENTED_EDGE ( 'NONE', *, *, #20, .T. ) ;
#124 = ORIENTED_EDGE ( 'NONE', *, *, #277, .T. ) ;
#125 = PRESENTATION_STYLE_ASSIGNMENT (( #6 ) ) ;
#126 = CARTESIAN_POINT ( 'NONE',  ( 0.05905500000000006577, 7.232151672364703126E-18, 0.4202400044209671504 ) ) ;
#127 = CARTESIAN_POINT ( 'NONE',  ( 0.04405499999999960142, 5.395181473643616524E-18, 2.244094000000000033 ) ) ;
#128 =( GEOMETRIC_REPRESENTATION_CONTEXT ( 3 ) GLOBAL_UNCERTAINTY_ASSIGNED_CONTEXT ( ( #289 ) ) GLOBAL_UNIT_ASSIGNED_CONTEXT ( ( #272, #159, #43 ) ) REPRESENTATION_CONTEXT ( 'NONE', 'WORKASPACE' ) );
#129 = EDGE_CURVE ( 'NONE', #72, #71, #242, .T. ) ;
#130 = DIRECTION ( 'NONE',  ( 0.0000000000000000000, 0.0000000000000000000, 1.000000000000000000 ) ) ;
#131 = DIRECTION ( 'NONE',  ( 0.0000000000000000000, 0.0000000000000000000, 1.000000000000000000 ) ) ;
#132 = AXIS2_PLACEMENT_3D ( 'NONE', #153, #130, #264 ) ;
#133 = CIRCLE ( 'NONE', #173, 0.05905500000000001720 ) ;
#134 = CARTESIAN_POINT ( 'NONE',  ( 0.0000000000000000000, 0.0000000000000000000, 2.244094000000000033 ) ) ;
#135 = EDGE_LOOP ( 'NONE', ( #276, #142, #280, #211 ) ) ;
#136 = DIMENSIONAL_EXPONENTS ( 1.000000000000000000, 0.0000000000000000000, 0.0000000000000000000, 0.0000000000000000000, 0.0000000000000000000, 0.0000000000000000000, 0.0000000000000000000 ) ;
#137 = CARTESIAN_POINT ( 'NONE',  ( 0.0000000000000000000, 0.0000000000000000000, 0.0000000000000000000 ) ) ;
#138 = VERTEX_POINT ( 'NONE', #201 ) ;
#139 = UNCERTAINTY_MEASURE_WITH_UNIT (LENGTH_MEASURE( 1.000000000000000082E-05 ), #185, 'distance_accuracy_value', 'NONE');
#140 = ORIENTED_EDGE ( 'NONE', *, *, #224, .F. ) ;
#141 = LENGTH_MEASURE_WITH_UNIT ( LENGTH_MEASURE( 0.02539999999999999897 ), #230 );
#142 = ORIENTED_EDGE ( 'NONE', *, *, #63, .F. ) ;
#143 = ORIENTED_EDGE ( 'NONE', *, *, #65, .T. ) ;
#144 = DIRECTION ( 'NONE',  ( 1.000000000000000000, 0.0000000000000000000, 0.0000000000000000000 ) ) ;
#145 = CARTESIAN_POINT ( 'NONE',  ( 0.01966531500000003735, 0.0000000000000000000, 0.1968499999999999694 ) ) ;
#146 =( GEOMETRIC_REPRESENTATION_CONTEXT ( 3 ) GLOBAL_UNCERTAINTY_ASSIGNED_CONTEXT ( ( #139 ) ) GLOBAL_UNIT_ASSIGNED_CONTEXT ( ( #185, #249, #93 ) ) REPRESENTATION_CONTEXT ( 'NONE', 'WORKASPACE' ) );
#147 = AXIS2_PLACEMENT_3D ( 'NONE', #30, #219, #285 ) ;
#148 = DIRECTION ( 'NONE',  ( 1.000000000000000000, 0.0000000000000000000, 0.0000000000000000000 ) ) ;
#149 = DIRECTION ( 'NONE',  ( -0.0000000000000000000, -0.0000000000000000000, -1.000000000000000000 ) ) ;
#150 = FACE_OUTER_BOUND ( 'NONE', #94, .T. ) ;
#151 = DIRECTION ( 'NONE',  ( 0.0000000000000000000, 0.0000000000000000000, -1.000000000000000000 ) ) ;
#152 = DIRECTION ( 'NONE',  ( 1.224646799147353207E-16, 0.0000000000000000000, 1.000000000000000000 ) ) ;
#153 = CARTESIAN_POINT ( 'NONE',  ( 0.0000000000000000000, 0.0000000000000000000, 2.244094000000000033 ) ) ;
#154 = CARTESIAN_POINT ( 'NONE',  ( 2.410717224121564319E-17, 0.0000000000000000000, 0.1968499999999999694 ) ) ;
#155 = AXIS2_PLACEMENT_3D ( 'NONE', #137, #279, #28 ) ;
#156 = COLOUR_RGB ( '',0.7921568627450980005, 0.8196078431372548767, 0.9333333333333333481 ) ;
#157 = CARTESIAN_POINT ( 'NONE',  ( -0.04405499999999960142, 0.0000000000000000000, 2.244094000000000033 ) ) ;
#158 = PRODUCT_DEFINITION_CONTEXT ( 'detailed design', #248, 'design' ) ;
#159 =( NAMED_UNIT ( * ) PLANE_ANGLE_UNIT ( ) SI_UNIT ( $, .RADIAN. ) );
#160 = ORIENTED_EDGE ( 'NONE', *, *, #120, .T. ) ;
#161 = VERTEX_POINT ( 'NONE', #64 ) ;
#162 = ORIENTED_EDGE ( 'NONE', *, *, #67, .F. ) ;
#163 = APPLICATION_PROTOCOL_DEFINITION ( 'draft international standard', 'automotive_design', 1998, #183 ) ;
#164 = CLOSED_SHELL ( 'NONE', ( #13, #210, #195, #42, #8, #253, #74, #240, #288, #115 ) ) ;
#165 = CARTESIAN_POINT ( 'NONE',  ( 0.0000000000000000000, 0.0000000000000000000, 2.244094000000000033 ) ) ;
#166 = AXIS2_PLACEMENT_3D ( 'NONE', #62, #178, #291 ) ;
#167 = CIRCLE ( 'NONE', #147, 0.05905500000000001720 ) ;
#168 = DIRECTION ( 'NONE',  ( -1.000000000000000000, 0.0000000000000000000, 0.0000000000000000000 ) ) ;
#169 =( LENGTH_UNIT ( ) NAMED_UNIT ( * ) SI_UNIT ( $, .METRE. ) );
#170 = CYLINDRICAL_SURFACE ( 'NONE', #96, 0.05905500000000001720 ) ;
#171 = EDGE_CURVE ( 'NONE', #138, #73, #69, .T. ) ;
#172 = AXIS2_PLACEMENT_3D ( 'NONE', #107, #290, #270 ) ;
#173 = AXIS2_PLACEMENT_3D ( 'NONE', #258, #103, #144 ) ;
#174 = CONICAL_SURFACE ( 'NONE', #122, 0.01966531500000000959, 0.1745329251994339470 ) ;
#175 = CARTESIAN_POINT ( 'NONE',  ( 0.0000000000000000000, 0.0000000000000000000, 2.244094000000000033 ) ) ;
#176 = DIRECTION ( 'NONE',  ( 1.000000000000000000, 0.0000000000000000000, 0.0000000000000000000 ) ) ;
#177 = CARTESIAN_POINT ( 'NONE',  ( 0.0000000000000000000, 0.0000000000000000000, 2.244094000000000033 ) ) ;
#178 = DIRECTION ( 'NONE',  ( 0.0000000000000000000, 0.0000000000000000000, -1.000000000000000000 ) ) ;
#179 = LINE ( 'NONE', #86, #226 ) ;
#180 = DIRECTION ( 'NONE',  ( -0.7071067811865449082, 0.0000000000000000000, -0.7071067811865501263 ) ) ;
#181 = AXIS2_PLACEMENT_3D ( 'NONE', #177, #151, #267 ) ;
#182 = DIMENSIONAL_EXPONENTS ( 1.000000000000000000, 0.0000000000000000000, 0.0000000000000000000, 0.0000000000000000000, 0.0000000000000000000, 0.0000000000000000000, 0.0000000000000000000 ) ;
#183 = APPLICATION_CONTEXT ( 'automotive_design' ) ;
#184 = EDGE_CURVE ( 'NONE', #72, #44, #12, .T. ) ;
#185 =( CONVERSION_BASED_UNIT ( 'INCH', #141 ) LENGTH_UNIT ( ) NAMED_UNIT ( #136 ) );
#186 = EDGE_LOOP ( 'NONE', ( #26, #104, #143, #215 ) ) ;
#187 = PRESENTATION_STYLE_ASSIGNMENT (( #23 ) ) ;
#188 = ORIENTED_EDGE ( 'NONE', *, *, #184, .T. ) ;
#189 = LINE ( 'NONE', #157, #17 ) ;
#190 = ORIENTED_EDGE ( 'NONE', *, *, #65, .F. ) ;
#191 = AXIS2_PLACEMENT_3D ( 'NONE', #197, #239, #283 ) ;
#192 = EDGE_LOOP ( 'NONE', ( #274, #212 ) ) ;
#193 = ADVANCED_BREP_SHAPE_REPRESENTATION ( 'Micro_SFLM-010-10', ( #91, #155 ), #146 ) ;
#194 = ORIENTED_EDGE ( 'NONE', *, *, #171, .T. ) ;
#195 = ADVANCED_FACE ( 'NONE', ( #83 ), #261, .T. ) ;
#196 = CARTESIAN_POINT ( 'NONE',  ( 2.410717224121564319E-17, 0.0000000000000000000, 0.1968499999999999694 ) ) ;
#197 = CARTESIAN_POINT ( 'NONE',  ( 0.0000000000000000000, 0.0000000000000000000, 0.0000000000000000000 ) ) ;
#198 = CARTESIAN_POINT ( 'NONE',  ( 0.05905500000000001720, 7.232151672364695422E-18, 2.229093999999999465 ) ) ;
#199 = FILL_AREA_STYLE ('',( #217 ) ) ;
#200 =( NAMED_UNIT ( * ) PLANE_ANGLE_UNIT ( ) SI_UNIT ( $, .RADIAN. ) );
#201 = CARTESIAN_POINT ( 'NONE',  ( -0.05905500000000001720, 0.0000000000000000000, 2.229093999999999465 ) ) ;
#202 = AXIS2_PLACEMENT_3D ( 'NONE', #59, #66, #15 ) ;
#203 = LINE ( 'NONE', #293, #88 ) ;
#204 = LINE ( 'NONE', #109, #110 ) ;
#205 = PRODUCT_RELATED_PRODUCT_CATEGORY ( 'part', '', ( #21 ) ) ;
#206 = CARTESIAN_POINT ( 'NONE',  ( 0.04405499999999960142, 6.313666573004155588E-18, 2.244094000000000033 ) ) ;
#207 = FILL_AREA_STYLE_COLOUR ( '', #214 ) ;
#208 = ORIENTED_EDGE ( 'NONE', *, *, #67, .T. ) ;
#209 = CONICAL_SURFACE ( 'NONE', #255, 0.04405499999999960142, 0.7853981633974446153 ) ;
#210 = ADVANCED_FACE ( 'NONE', ( #82 ), #174, .T. ) ;
#211 = ORIENTED_EDGE ( 'NONE', *, *, #45, .F. ) ;
#212 = ORIENTED_EDGE ( 'NONE', *, *, #100, .T. ) ;
#213 = DIMENSIONAL_EXPONENTS ( 1.000000000000000000, 0.0000000000000000000, 0.0000000000000000000, 0.0000000000000000000, 0.0000000000000000000, 0.0000000000000000000, 0.0000000000000000000 ) ;
#214 = COLOUR_RGB ( '',0.7921568627450980005, 0.8196078431372548767, 0.9333333333333333481 ) ;
#215 = ORIENTED_EDGE ( 'NONE', *, *, #20, .F. ) ;
#216 = EDGE_CURVE ( 'NONE', #235, #237, #278, .T. ) ;
#217 = FILL_AREA_STYLE_COLOUR ( '', #156 ) ;
#218 = DIRECTION ( 'NONE',  ( -1.000000000000000000, 0.0000000000000000000, 0.0000000000000000000 ) ) ;
#219 = DIRECTION ( 'NONE',  ( -1.224646799147353207E-16, -0.0000000000000000000, -1.000000000000000000 ) ) ;
#220 = DIRECTION ( 'NONE',  ( 0.0000000000000000000, 0.0000000000000000000, 1.000000000000000000 ) ) ;
#221 = CIRCLE ( 'NONE', #89, 0.01966531500000000959 ) ;
#222 = DIRECTION ( 'NONE',  ( -0.1736481776669312194, 2.126576849575783625E-17, 0.9848077530122077983 ) ) ;
#223 = DIRECTION ( 'NONE',  ( 1.000000000000000000, 0.0000000000000000000, 0.0000000000000000000 ) ) ;
#224 = EDGE_CURVE ( 'NONE', #24, #161, #3, .T. ) ;
#225 = DIRECTION ( 'NONE',  ( 1.000000000000000000, 0.0000000000000000000, -0.0000000000000000000 ) ) ;
#226 = VECTOR ( 'NONE', #222, 39.37007874015748143 ) ;
#227 = DIRECTION ( 'NONE',  ( -1.224646799147353207E-16, -0.0000000000000000000, -1.000000000000000000 ) ) ;
#228 =( GEOMETRIC_REPRESENTATION_CONTEXT ( 3 ) GLOBAL_UNCERTAINTY_ASSIGNED_CONTEXT ( ( #90 ) ) GLOBAL_UNIT_ASSIGNED_CONTEXT ( ( #33, #200, #269 ) ) REPRESENTATION_CONTEXT ( 'NONE', 'WORKASPACE' ) );
#229 = LINE ( 'NONE', #39, #11 ) ;
#230 =( LENGTH_UNIT ( ) NAMED_UNIT ( * ) SI_UNIT ( $, .METRE. ) );
#231 = ORIENTED_EDGE ( 'NONE', *, *, #32, .T. ) ;
#232 = AXIS2_PLACEMENT_3D ( 'NONE', #9, #282, #7 ) ;
#233 = SURFACE_SIDE_STYLE ('',( #275 ) ) ;
#234 = EDGE_LOOP ( 'NONE', ( #254, #231, #22, #252 ) ) ;
#235 = VERTEX_POINT ( 'NONE', #206 ) ;
#236 = AXIS2_PLACEMENT_3D ( 'NONE', #154, #152, #223 ) ;
#237 = VERTEX_POINT ( 'NONE', #38 ) ;
#238 = CARTESIAN_POINT ( 'NONE',  ( 0.0000000000000000000, 0.0000000000000000000, 2.244094000000000033 ) ) ;
#239 = DIRECTION ( 'NONE',  ( -1.224646799147353207E-16, -0.0000000000000000000, -1.000000000000000000 ) ) ;
#240 = ADVANCED_FACE ( 'NONE', ( #150 ), #97, .T. ) ;
#241 = LENGTH_MEASURE_WITH_UNIT ( LENGTH_MEASURE( 0.02539999999999999897 ), #169 );
#242 = CIRCLE ( 'NONE', #172, 0.01966531500000000959 ) ;
#243 = CARTESIAN_POINT ( 'NONE',  ( -0.01966531499999998531, 4.820229089631069840E-18, 0.1968499999999999694 ) ) ;
#244 = DIRECTION ( 'NONE',  ( -0.0000000000000000000, -0.0000000000000000000, -1.000000000000000000 ) ) ;
#245 = DIRECTION ( 'NONE',  ( -1.224646799147353207E-16, -0.0000000000000000000, -1.000000000000000000 ) ) ;
#246 = CARTESIAN_POINT ( 'NONE',  ( 0.0000000000000000000, 0.0000000000000000000, 0.0000000000000000000 ) ) ;
#247 = MECHANICAL_DESIGN_GEOMETRIC_PRESENTATION_REPRESENTATION (  '', ( #16 ), #128 ) ;
#248 = APPLICATION_CONTEXT ( 'automotive_design' ) ;
#249 =( NAMED_UNIT ( * ) PLANE_ANGLE_UNIT ( ) SI_UNIT ( $, .RADIAN. ) );
#250 = ORIENTED_EDGE ( 'NONE', *, *, #257, .F. ) ;
#251 = ORIENTED_EDGE ( 'NONE', *, *, #63, .T. ) ;
#252 = ORIENTED_EDGE ( 'NONE', *, *, #295, .F. ) ;
#253 = ADVANCED_FACE ( 'NONE', ( #40 ), #14, .T. ) ;
#254 = ORIENTED_EDGE ( 'NONE', *, *, #216, .F. ) ;
#255 = AXIS2_PLACEMENT_3D ( 'NONE', #238, #36, #259 ) ;
#256 = FACE_OUTER_BOUND ( 'NONE', #121, .T. ) ;
#257 = EDGE_CURVE ( 'NONE', #71, #24, #204, .T. ) ;
#258 = CARTESIAN_POINT ( 'NONE',  ( 0.0000000000000000000, 0.0000000000000000000, 2.229093999999999465 ) ) ;
#259 = DIRECTION ( 'NONE',  ( -1.000000000000000000, 0.0000000000000000000, 0.0000000000000000000 ) ) ;
#260 = LINE ( 'NONE', #127, #75 ) ;
#261 = CONICAL_SURFACE ( 'NONE', #181, 0.04405499999999960142, 0.7853981633974446153 ) ;
#262 = AXIS2_PLACEMENT_3D ( 'NONE', #134, #131, #225 ) ;
#263 = FACE_OUTER_BOUND ( 'NONE', #186, .T. ) ;
#264 = DIRECTION ( 'NONE',  ( 1.000000000000000000, 0.0000000000000000000, 0.0000000000000000000 ) ) ;
#265 = PRODUCT_DEFINITION_SHAPE ( 'NONE', 'NONE',  #53 ) ;
#266 = CARTESIAN_POINT ( 'NONE',  ( 2.410717224121564319E-17, 0.0000000000000000000, 0.1968499999999999694 ) ) ;
#267 = DIRECTION ( 'NONE',  ( -1.000000000000000000, 0.0000000000000000000, 0.0000000000000000000 ) ) ;
#268 = EDGE_CURVE ( 'NONE', #72, #161, #229, .T. ) ;
#269 =( NAMED_UNIT ( * ) SI_UNIT ( $, .STERADIAN. ) SOLID_ANGLE_UNIT ( ) );
#270 = DIRECTION ( 'NONE',  ( -1.000000000000000000, 0.0000000000000000000, 0.0000000000000000000 ) ) ;
#271 = CIRCLE ( 'NONE', #81, 0.04405499999999960142 ) ;
#272 =( CONVERSION_BASED_UNIT ( 'INCH', #118 ) LENGTH_UNIT ( ) NAMED_UNIT ( #182 ) );
#273 = ORIENTED_EDGE ( 'NONE', *, *, #129, .T. ) ;
#274 = ORIENTED_EDGE ( 'NONE', *, *, #224, .T. ) ;
#275 = SURFACE_STYLE_FILL_AREA ( #98 ) ;
#276 = ORIENTED_EDGE ( 'NONE', *, *, #32, .F. ) ;
#277 = EDGE_CURVE ( 'NONE', #73, #44, #203, .T. ) ;
#278 = CIRCLE ( 'NONE', #132, 0.04405499999999960142 ) ;
#279 = DIRECTION ( 'NONE',  ( 0.0000000000000000000, 0.0000000000000000000, 1.000000000000000000 ) ) ;
#280 = ORIENTED_EDGE ( 'NONE', *, *, #295, .T. ) ;
#281 = EDGE_LOOP ( 'NONE', ( #47, #273, #299, #117 ) ) ;
#282 = DIRECTION ( 'NONE',  ( -1.224646799147353207E-16, -0.0000000000000000000, -1.000000000000000000 ) ) ;
#283 = DIRECTION ( 'NONE',  ( -1.000000000000000000, 0.0000000000000000000, 1.224646799147353207E-16 ) ) ;
#284 = FACE_OUTER_BOUND ( 'NONE', #114, .T. ) ;
#285 = DIRECTION ( 'NONE',  ( 1.000000000000000000, 0.0000000000000000000, 0.0000000000000000000 ) ) ;
#286 = AXIS2_PLACEMENT_3D ( 'NONE', #80, #292, #37 ) ;
#287 = SURFACE_STYLE_FILL_AREA ( #199 ) ;
#288 = ADVANCED_FACE ( 'NONE', ( #25 ), #87, .T. ) ;
#289 = UNCERTAINTY_MEASURE_WITH_UNIT (LENGTH_MEASURE( 1.000000000000000082E-05 ), #272, 'distance_accuracy_value', 'NONE');
#290 = DIRECTION ( 'NONE',  ( -1.224646799147353207E-16, -0.0000000000000000000, -1.000000000000000000 ) ) ;
#291 = DIRECTION ( 'NONE',  ( 1.000000000000000000, 0.0000000000000000000, 0.0000000000000000000 ) ) ;
#292 = DIRECTION ( 'NONE',  ( -1.224646799147353207E-16, -0.0000000000000000000, -1.000000000000000000 ) ) ;
#293 = CARTESIAN_POINT ( 'NONE',  ( 0.05905500000000001720, 7.232151672364695422E-18, 2.244094000000000033 ) ) ;
#294 = DIRECTION ( 'NONE',  ( -1.000000000000000000, 0.0000000000000000000, 1.224646799147353207E-16 ) ) ;
#295 = EDGE_CURVE ( 'NONE', #237, #138, #189, .T. ) ;
#296 = AXIS2_PLACEMENT_3D ( 'NONE', #113, #1, #294 ) ;
#297 =( LENGTH_UNIT ( ) NAMED_UNIT ( * ) SI_UNIT ( $, .METRE. ) );
#298 = ORIENTED_EDGE ( 'NONE', *, *, #120, .F. ) ;
#299 = ORIENTED_EDGE ( 'NONE', *, *, #257, .T. ) ;
ENDSEC;
END-ISO-10303-21;
