ISO-10303-21;
HEADER;
FILE_DESCRIPTION (( 'STEP AP214' ),
    '1' );
FILE_NAME ('23190.STEP',
    '2023-06-22T16:39:31',
    ( '' ),
    ( '' ),
    'SwSTEP 2.0',
    'SolidWorks 2023',
    '' );
FILE_SCHEMA (( 'AUTOMOTIVE_DESIGN' ));
ENDSEC;

DATA;
#1 = FACE_OUTER_BOUND ( 'NONE', #277, .T. ) ;
#2 = EDGE_CURVE ( 'NONE', #262, #44, #280, .T. ) ;
#3 = CLOSED_SHELL ( 'NONE', ( #246, #274, #216, #236 ) ) ;
#4 =( GEOMETRIC_REPRESENTATION_CONTEXT ( 3 ) GLOBAL_UNCERTAINTY_ASSIGNED_CONTEXT ( ( #252 ) ) GLOBAL_UNIT_ASSIGNED_CONTEXT ( ( #66, #214, #13 ) ) REPRESENTATION_CONTEXT ( 'NONE', 'WORKASPACE' ) );
#5 =( NAMED_UNIT ( * ) SI_UNIT ( $, .STERADIAN. ) SOLID_ANGLE_UNIT ( ) );
#6 = SURFACE_SIDE_STYLE ('',( #210 ) ) ;
#7 = ORIENTED_EDGE ( 'NONE', *, *, #78, .T. ) ;
#8 = ADVANCED_BREP_SHAPE_REPRESENTATION ( '23190', ( #229, #37, #304 ), #11 ) ;
#9 = DIMENSIONAL_EXPONENTS ( 1.000000000000000000, 0.000000000000000000, 0.000000000000000000, 0.000000000000000000, 0.000000000000000000, 0.000000000000000000, 0.000000000000000000 ) ;
#10 = ORIENTED_EDGE ( 'NONE', *, *, #186, .F. ) ;
#11 =( GEOMETRIC_REPRESENTATION_CONTEXT ( 3 ) GLOBAL_UNCERTAINTY_ASSIGNED_CONTEXT ( ( #73 ) ) GLOBAL_UNIT_ASSIGNED_CONTEXT ( ( #62, #105, #158 ) ) REPRESENTATION_CONTEXT ( 'NONE', 'WORKASPACE' ) );
#12 = VECTOR ( 'NONE', #96, 39.37007874015748143 ) ;
#13 =( NAMED_UNIT ( * ) SI_UNIT ( $, .STERADIAN. ) SOLID_ANGLE_UNIT ( ) );
#14 = AXIS2_PLACEMENT_3D ( 'NONE', #282, #42, #155 ) ;
#15 = STYLED_ITEM ( 'NONE', ( #240 ), #246 ) ;
#16 = SURFACE_STYLE_USAGE ( .BOTH. , #54 ) ;
#17 = ORIENTED_EDGE ( 'NONE', *, *, #2, .T. ) ;
#18 = PRODUCT_DEFINITION_SHAPE ( 'NONE', 'NONE',  #260 ) ;
#19 = LENGTH_MEASURE_WITH_UNIT ( LENGTH_MEASURE( 0.02539999999999999897 ), #40 );
#20 = DIRECTION ( 'NONE',  ( 0.000000000000000000, 0.000000000000000000, -1.000000000000000000 ) ) ;
#21 = EDGE_CURVE ( 'NONE', #262, #139, #302, .T. ) ;
#22 = DIRECTION ( 'NONE',  ( -1.000000000000000000, 0.000000000000000000, 0.000000000000000000 ) ) ;
#23 = COLOUR_RGB ( '',1.000000000000000000, 0.000000000000000000, 0.000000000000000000 ) ;
#24 = AXIS2_PLACEMENT_3D ( 'NONE', #291, #292, #143 ) ;
#25 = SURFACE_STYLE_USAGE ( .BOTH. , #6 ) ;
#26 = ORIENTED_EDGE ( 'NONE', *, *, #21, .T. ) ;
#27 = DIRECTION ( 'NONE',  ( 3.265724797726278260E-17, 1.000000000000000000, -0.000000000000000000 ) ) ;
#28 = VERTEX_POINT ( 'NONE', #41 ) ;
#29 = PLANE ( 'NONE',  #269 ) ;
#30 = PRESENTATION_LAYER_ASSIGNMENT (  '', '', ( #136 ) ) ;
#31 = CARTESIAN_POINT ( 'NONE',  ( 0.2500000000000000000, 2.500000000000000000, 3.061616997868382402E-17 ) ) ;
#32 = SURFACE_SIDE_STYLE ('',( #290 ) ) ;
#33 = DIMENSIONAL_EXPONENTS ( 1.000000000000000000, 0.000000000000000000, 0.000000000000000000, 0.000000000000000000, 0.000000000000000000, 0.000000000000000000, 0.000000000000000000 ) ;
#34 = PRESENTATION_LAYER_ASSIGNMENT (  '', '', ( #167 ) ) ;
#35 = EDGE_CURVE ( 'NONE', #28, #46, #303, .T. ) ;
#36 = SURFACE_STYLE_FILL_AREA ( #267 ) ;
#37 = MANIFOLD_SOLID_BREP ( 'Revolve - Tool Body (Straight Shanked)', #297 ) ;
#38 = DIRECTION ( 'NONE',  ( 0.000000000000000000, -0.000000000000000000, 1.000000000000000000 ) ) ;
#39 = SURFACE_SIDE_STYLE ('',( #154 ) ) ;
#40 =( LENGTH_UNIT ( ) NAMED_UNIT ( * ) SI_UNIT ( $, .METRE. ) );
#41 = CARTESIAN_POINT ( 'NONE',  ( 0.2500000000000000000, 0.6250000000000000000, 3.061616997868382402E-17 ) ) ;
#42 = DIRECTION ( 'NONE',  ( 3.265724797726278260E-17, 1.000000000000000000, -0.000000000000000000 ) ) ;
#43 = CARTESIAN_POINT ( 'NONE',  ( 0.000000000000000000, 0.000000000000000000, 0.000000000000000000 ) ) ;
#44 = VERTEX_POINT ( 'NONE', #160 ) ;
#45 = FILL_AREA_STYLE ('',( #307 ) ) ;
#46 = VERTEX_POINT ( 'NONE', #138 ) ;
#47 = CARTESIAN_POINT ( 'NONE',  ( 0.2500000000000000000, 2.500000000000000000, 0.000000000000000000 ) ) ;
#48 = ORIENTED_EDGE ( 'NONE', *, *, #284, .T. ) ;
#49 = PRESENTATION_LAYER_ASSIGNMENT (  '', '', ( #239 ) ) ;
#50 = ORIENTED_EDGE ( 'NONE', *, *, #78, .F. ) ;
#51 =( NAMED_UNIT ( * ) PLANE_ANGLE_UNIT ( ) SI_UNIT ( $, .RADIAN. ) );
#52 = EDGE_CURVE ( 'NONE', #46, #28, #191, .T. ) ;
#53 = UNCERTAINTY_MEASURE_WITH_UNIT (LENGTH_MEASURE( 1.000000000000000082E-05 ), #150, 'distance_accuracy_value', 'NONE');
#54 = SURFACE_SIDE_STYLE ('',( #36 ) ) ;
#55 =( CONVERSION_BASED_UNIT ( 'INCH', #19 ) LENGTH_UNIT ( ) NAMED_UNIT ( #9 ) );
#56 =( GEOMETRIC_REPRESENTATION_CONTEXT ( 3 ) GLOBAL_UNCERTAINTY_ASSIGNED_CONTEXT ( ( #53 ) ) GLOBAL_UNIT_ASSIGNED_CONTEXT ( ( #150, #205, #286 ) ) REPRESENTATION_CONTEXT ( 'NONE', 'WORKASPACE' ) );
#57 = COLOUR_RGB ( '',1.000000000000000000, 0.000000000000000000, 0.000000000000000000 ) ;
#58 = LENGTH_MEASURE_WITH_UNIT ( LENGTH_MEASURE( 0.02539999999999999897 ), #241 );
#59 = APPLICATION_CONTEXT ( 'automotive_design' ) ;
#60 = COLOUR_RGB ( '',0.7921568627450980005, 0.8196078431372548767, 0.9333333333333333481 ) ;
#61 = FILL_AREA_STYLE_COLOUR ( '', #293 ) ;
#62 =( CONVERSION_BASED_UNIT ( 'INCH', #305 ) LENGTH_UNIT ( ) NAMED_UNIT ( #33 ) );
#63 = CARTESIAN_POINT ( 'NONE',  ( 0.000000000000000000, 0.000000000000000000, -0.2500000000000000000 ) ) ;
#64 = ORIENTED_EDGE ( 'NONE', *, *, #215, .F. ) ;
#65 = CYLINDRICAL_SURFACE ( 'NONE', #79, 0.2499999999999999722 ) ;
#66 =( CONVERSION_BASED_UNIT ( 'INCH', #219 ) LENGTH_UNIT ( ) NAMED_UNIT ( #261 ) );
#67 = PRESENTATION_STYLE_ASSIGNMENT (( #283 ) ) ;
#68 = UNCERTAINTY_MEASURE_WITH_UNIT (LENGTH_MEASURE( 1.000000000000000082E-05 ), #89, 'distance_accuracy_value', 'NONE');
#69 = CARTESIAN_POINT ( 'NONE',  ( 0.000000000000000000, 0.000000000000000000, 0.000000000000000000 ) ) ;
#70 = EDGE_CURVE ( 'NONE', #28, #144, #288, .T. ) ;
#71 = PRODUCT_RELATED_PRODUCT_CATEGORY ( 'part', '', ( #147 ) ) ;
#72 = APPLICATION_CONTEXT ( 'automotive_design' ) ;
#73 = UNCERTAINTY_MEASURE_WITH_UNIT (LENGTH_MEASURE( 1.000000000000000082E-05 ), #62, 'distance_accuracy_value', 'NONE');
#74 = CARTESIAN_POINT ( 'NONE',  ( 3.061616997868383018E-17, 0.6250000000000000000, 0.2500000000000000000 ) ) ;
#75 = DIRECTION ( 'NONE',  ( -0.000000000000000000, -1.000000000000000000, -0.000000000000000000 ) ) ;
#76 = DIRECTION ( 'NONE',  ( 0.000000000000000000, 0.000000000000000000, -1.000000000000000000 ) ) ;
#77 = CARTESIAN_POINT ( 'NONE',  ( 0.000000000000000000, 0.6250000000000000000, 0.000000000000000000 ) ) ;
#78 = EDGE_CURVE ( 'NONE', #44, #108, #134, .T. ) ;
#79 = AXIS2_PLACEMENT_3D ( 'NONE', #131, #106, #81 ) ;
#80 = MECHANICAL_DESIGN_GEOMETRIC_PRESENTATION_REPRESENTATION (  '', ( #225 ), #254 ) ;
#81 = DIRECTION ( 'NONE',  ( -1.000000000000000000, 0.000000000000000000, 0.000000000000000000 ) ) ;
#82 = APPLICATION_PROTOCOL_DEFINITION ( 'draft international standard', 'automotive_design', 1998, #72 ) ;
#83 = VERTEX_POINT ( 'NONE', #182 ) ;
#84 = MECHANICAL_DESIGN_GEOMETRIC_PRESENTATION_REPRESENTATION (  '', ( #167 ), #56 ) ;
#85 = COLOUR_RGB ( '',1.000000000000000000, 0.000000000000000000, 0.000000000000000000 ) ;
#86 = CARTESIAN_POINT ( 'NONE',  ( 3.061616997868383018E-17, 0.000000000000000000, 0.2500000000000000000 ) ) ;
#87 = EDGE_LOOP ( 'NONE', ( #231, #203 ) ) ;
#88 = DIRECTION ( 'NONE',  ( -0.000000000000000000, -1.000000000000000000, -0.000000000000000000 ) ) ;
#89 =( CONVERSION_BASED_UNIT ( 'INCH', #165 ) LENGTH_UNIT ( ) NAMED_UNIT ( #115 ) );
#90 = ORIENTED_EDGE ( 'NONE', *, *, #299, .F. ) ;
#91 = PRESENTATION_LAYER_ASSIGNMENT (  '', '', ( #225 ) ) ;
#92 = EDGE_LOOP ( 'NONE', ( #259, #128 ) ) ;
#93 = DIRECTION ( 'NONE',  ( 0.000000000000000000, -1.000000000000000000, -0.000000000000000000 ) ) ;
#94 = MECHANICAL_DESIGN_GEOMETRIC_PRESENTATION_REPRESENTATION (  '', ( #136 ), #4 ) ;
#95 = PLANE ( 'NONE',  #146 ) ;
#96 = DIRECTION ( 'NONE',  ( 3.265724797726278260E-17, 1.000000000000000000, -0.000000000000000000 ) ) ;
#97 = VECTOR ( 'NONE', #127, 39.37007874015748143 ) ;
#98 =( GEOMETRIC_REPRESENTATION_CONTEXT ( 3 ) GLOBAL_UNCERTAINTY_ASSIGNED_CONTEXT ( ( #258 ) ) GLOBAL_UNIT_ASSIGNED_CONTEXT ( ( #117, #217, #169 ) ) REPRESENTATION_CONTEXT ( 'NONE', 'WORKASPACE' ) );
#99 = FILL_AREA_STYLE_COLOUR ( '', #185 ) ;
#100 = ADVANCED_FACE ( 'NONE', ( #285 ), #159, .T. ) ;
#101 = PLANE ( 'NONE',  #121 ) ;
#102 = DIRECTION ( 'NONE',  ( -0.000000000000000000, -1.000000000000000000, -0.000000000000000000 ) ) ;
#103 = CARTESIAN_POINT ( 'NONE',  ( 0.000000000000000000, 0.6250000000000000000, 0.000000000000000000 ) ) ;
#104 = AXIS2_PLACEMENT_3D ( 'NONE', #43, #88, #255 ) ;
#105 =( NAMED_UNIT ( * ) PLANE_ANGLE_UNIT ( ) SI_UNIT ( $, .RADIAN. ) );
#106 = DIRECTION ( 'NONE',  ( 3.265724797726278260E-17, 1.000000000000000000, -0.000000000000000000 ) ) ;
#107 = PLANE ( 'NONE',  #226 ) ;
#108 = VERTEX_POINT ( 'NONE', #233 ) ;
#109 = SURFACE_STYLE_FILL_AREA ( #256 ) ;
#110 = ORIENTED_EDGE ( 'NONE', *, *, #284, .F. ) ;
#111 = DIRECTION ( 'NONE',  ( 0.000000000000000000, 0.000000000000000000, -1.000000000000000000 ) ) ;
#112 = VECTOR ( 'NONE', #171, 39.37007874015748143 ) ;
#113 = EDGE_LOOP ( 'NONE', ( #209, #206, #10, #110 ) ) ;
#114 = FACE_OUTER_BOUND ( 'NONE', #163, .T. ) ;
#115 = DIMENSIONAL_EXPONENTS ( 1.000000000000000000, 0.000000000000000000, 0.000000000000000000, 0.000000000000000000, 0.000000000000000000, 0.000000000000000000, 0.000000000000000000 ) ;
#116 = PRODUCT_DEFINITION_FORMATION_WITH_SPECIFIED_SOURCE ( 'ANY', '', #147, .NOT_KNOWN. ) ;
#117 =( CONVERSION_BASED_UNIT ( 'INCH', #58 ) LENGTH_UNIT ( ) NAMED_UNIT ( #287 ) );
#118 = PRESENTATION_STYLE_ASSIGNMENT (( #16 ) ) ;
#119 = LINE ( 'NONE', #220, #12 ) ;
#120 =( LENGTH_UNIT ( ) NAMED_UNIT ( * ) SI_UNIT ( $, .METRE. ) );
#121 = AXIS2_PLACEMENT_3D ( 'NONE', #301, #93, #76 ) ;
#122 = FILL_AREA_STYLE ('',( #195 ) ) ;
#123 = SURFACE_STYLE_USAGE ( .BOTH. , #39 ) ;
#124 = PRESENTATION_LAYER_ASSIGNMENT (  '', '', ( #15 ) ) ;
#125 = CARTESIAN_POINT ( 'NONE',  ( 0.000000000000000000, 0.000000000000000000, 0.000000000000000000 ) ) ;
#126 = DIRECTION ( 'NONE',  ( -0.000000000000000000, -1.000000000000000000, -0.000000000000000000 ) ) ;
#127 = DIRECTION ( 'NONE',  ( 3.265724797726278260E-17, 1.000000000000000000, -0.000000000000000000 ) ) ;
#128 = ORIENTED_EDGE ( 'NONE', *, *, #215, .T. ) ;
#129 = EDGE_LOOP ( 'NONE', ( #90, #263 ) ) ;
#130 = ADVANCED_FACE ( 'NONE', ( #1 ), #29, .F. ) ;
#131 = CARTESIAN_POINT ( 'NONE',  ( 6.123233995736772199E-17, 2.500000000000000000, 0.000000000000000000 ) ) ;
#132 = UNCERTAINTY_MEASURE_WITH_UNIT (LENGTH_MEASURE( 1.000000000000000082E-05 ), #55, 'distance_accuracy_value', 'NONE');
#133 = ORIENTED_EDGE ( 'NONE', *, *, #142, .T. ) ;
#134 = LINE ( 'NONE', #63, #276 ) ;
#135 = CIRCLE ( 'NONE', #172, 0.2499999999999999167 ) ;
#136 = STYLED_ITEM ( 'NONE', ( #67 ), #229 ) ;
#137 = DIRECTION ( 'NONE',  ( 3.265724797726278260E-17, 1.000000000000000000, -0.000000000000000000 ) ) ;
#138 = CARTESIAN_POINT ( 'NONE',  ( -0.2500000000000000000, 0.6250000000000000000, 0.000000000000000000 ) ) ;
#139 = VERTEX_POINT ( 'NONE', #86 ) ;
#140 = SURFACE_STYLE_USAGE ( .BOTH. , #275 ) ;
#141 =( NAMED_UNIT ( * ) PLANE_ANGLE_UNIT ( ) SI_UNIT ( $, .RADIAN. ) );
#142 = EDGE_CURVE ( 'NONE', #144, #83, #135, .T. ) ;
#143 = DIRECTION ( 'NONE',  ( 0.000000000000000000, 0.000000000000000000, -1.000000000000000000 ) ) ;
#144 = VERTEX_POINT ( 'NONE', #31 ) ;
#145 = AXIS2_PLACEMENT_3D ( 'NONE', #69, #227, #111 ) ;
#146 = AXIS2_PLACEMENT_3D ( 'NONE', #148, #245, #38 ) ;
#147 = PRODUCT ( '23190', '23190', '', ( #152 ) ) ;
#148 = CARTESIAN_POINT ( 'NONE',  ( 0.000000000000000000, 0.6250000000000000000, 0.000000000000000000 ) ) ;
#149 = DIRECTION ( 'NONE',  ( 0.000000000000000000, 0.000000000000000000, -1.000000000000000000 ) ) ;
#150 =( CONVERSION_BASED_UNIT ( 'INCH', #273 ) LENGTH_UNIT ( ) NAMED_UNIT ( #211 ) );
#151 = DIRECTION ( 'NONE',  ( 3.265724797726278260E-17, 1.000000000000000000, -0.000000000000000000 ) ) ;
#152 = PRODUCT_CONTEXT ( 'NONE', #59, 'mechanical' ) ;
#153 = LENGTH_MEASURE_WITH_UNIT ( LENGTH_MEASURE( 0.02539999999999999897 ), #207 );
#154 = SURFACE_STYLE_FILL_AREA ( #194 ) ;
#155 = DIRECTION ( 'NONE',  ( -1.000000000000000000, 0.000000000000000000, 0.000000000000000000 ) ) ;
#156 = CARTESIAN_POINT ( 'NONE',  ( 0.2500000000000000555, 2.500000000000000000, 3.061616997868382402E-17 ) ) ;
#157 = AXIS2_PLACEMENT_3D ( 'NONE', #103, #151, #198 ) ;
#158 =( NAMED_UNIT ( * ) SI_UNIT ( $, .STERADIAN. ) SOLID_ANGLE_UNIT ( ) );
#159 = CYLINDRICAL_SURFACE ( 'NONE', #14, 0.2499999999999999722 ) ;
#160 = CARTESIAN_POINT ( 'NONE',  ( 0.000000000000000000, 0.6250000000000000000, -0.2500000000000000000 ) ) ;
#161 = EDGE_LOOP ( 'NONE', ( #228, #235, #48, #308 ) ) ;
#162 =( CONVERSION_BASED_UNIT ( 'INCH', #153 ) LENGTH_UNIT ( ) NAMED_UNIT ( #234 ) );
#163 = EDGE_LOOP ( 'NONE', ( #230, #17, #7, #64 ) ) ;
#164 =( LENGTH_UNIT ( ) NAMED_UNIT ( * ) SI_UNIT ( $, .METRE. ) );
#165 = LENGTH_MEASURE_WITH_UNIT ( LENGTH_MEASURE( 0.02539999999999999897 ), #266 );
#166 = SURFACE_STYLE_USAGE ( .BOTH. , #32 ) ;
#167 = STYLED_ITEM ( 'NONE', ( #189 ), #37 ) ;
#168 = FILL_AREA_STYLE_COLOUR ( '', #57 ) ;
#169 =( NAMED_UNIT ( * ) SI_UNIT ( $, .STERADIAN. ) SOLID_ANGLE_UNIT ( ) );
#170 = DIRECTION ( 'NONE',  ( -0.000000000000000000, -1.000000000000000000, -0.000000000000000000 ) ) ;
#171 = DIRECTION ( 'NONE',  ( -0.000000000000000000, -1.000000000000000000, -0.000000000000000000 ) ) ;
#172 = AXIS2_PLACEMENT_3D ( 'NONE', #278, #224, #22 ) ;
#173 = DIRECTION ( 'NONE',  ( 3.265724797726278260E-17, 1.000000000000000000, -0.000000000000000000 ) ) ;
#174 = DIRECTION ( 'NONE',  ( 1.000000000000000000, 0.000000000000000000, 0.000000000000000000 ) ) ;
#175 = DIRECTION ( 'NONE',  ( 1.000000000000000000, -3.265724797726278260E-17, 0.000000000000000000 ) ) ;
#176 = ADVANCED_FACE ( 'NONE', ( #250 ), #65, .T. ) ;
#177 = CARTESIAN_POINT ( 'NONE',  ( 6.123233995736772199E-17, 2.500000000000000000, 0.000000000000000000 ) ) ;
#178 = CARTESIAN_POINT ( 'NONE',  ( 1.333119806810542605E-34, 0.6250000000000000000, 0.000000000000000000 ) ) ;
#179 = UNCERTAINTY_MEASURE_WITH_UNIT (LENGTH_MEASURE( 1.000000000000000082E-05 ), #162, 'distance_accuracy_value', 'NONE');
#180 = FACE_OUTER_BOUND ( 'NONE', #92, .T. ) ;
#181 = ORIENTED_EDGE ( 'NONE', *, *, #299, .T. ) ;
#182 = CARTESIAN_POINT ( 'NONE',  ( -0.2499999999999998612, 2.500000000000000000, 0.000000000000000000 ) ) ;
#183 = PRESENTATION_STYLE_ASSIGNMENT (( #25 ) ) ;
#184 = CIRCLE ( 'NONE', #104, 0.2500000000000000000 ) ;
#185 = COLOUR_RGB ( '',1.000000000000000000, 0.000000000000000000, 0.000000000000000000 ) ;
#186 = EDGE_CURVE ( 'NONE', #83, #144, #199, .T. ) ;
#187 = FACE_OUTER_BOUND ( 'NONE', #212, .T. ) ;
#188 = CARTESIAN_POINT ( 'NONE',  ( 0.000000000000000000, 0.000000000000000000, 0.000000000000000000 ) ) ;
#189 = PRESENTATION_STYLE_ASSIGNMENT (( #123 ) ) ;
#190 = CARTESIAN_POINT ( 'NONE',  ( 0.000000000000000000, 0.6250000000000000000, 0.000000000000000000 ) ) ;
#191 = CIRCLE ( 'NONE', #238, 0.2500000000000000000 ) ;
#192 = MECHANICAL_DESIGN_GEOMETRIC_PRESENTATION_REPRESENTATION (  '', ( #239 ), #294 ) ;
#193 = FILL_AREA_STYLE ('',( #99 ) ) ;
#194 = FILL_AREA_STYLE ('',( #61 ) ) ;
#195 = FILL_AREA_STYLE_COLOUR ( '', #85 ) ;
#196 = EDGE_CURVE ( 'NONE', #108, #139, #184, .T. ) ;
#197 = DIRECTION ( 'NONE',  ( 0.000000000000000000, 0.000000000000000000, 1.000000000000000000 ) ) ;
#198 = DIRECTION ( 'NONE',  ( -1.000000000000000000, 0.000000000000000000, 0.000000000000000000 ) ) ;
#199 = CIRCLE ( 'NONE', #243, 0.2499999999999999167 ) ;
#200 = DIRECTION ( 'NONE',  ( -3.265724797726278260E-17, -1.000000000000000000, 0.000000000000000000 ) ) ;
#201 = DIRECTION ( 'NONE',  ( -1.000000000000000000, 0.000000000000000000, 0.000000000000000000 ) ) ;
#202 = CYLINDRICAL_SURFACE ( 'NONE', #24, 0.2500000000000000000 ) ;
#203 = ORIENTED_EDGE ( 'NONE', *, *, #35, .F. ) ;
#204 = SURFACE_SIDE_STYLE ('',( #109 ) ) ;
#205 =( NAMED_UNIT ( * ) PLANE_ANGLE_UNIT ( ) SI_UNIT ( $, .RADIAN. ) );
#206 = ORIENTED_EDGE ( 'NONE', *, *, #70, .T. ) ;
#207 =( LENGTH_UNIT ( ) NAMED_UNIT ( * ) SI_UNIT ( $, .METRE. ) );
#208 = FILL_AREA_STYLE_COLOUR ( '', #60 ) ;
#209 = ORIENTED_EDGE ( 'NONE', *, *, #52, .T. ) ;
#210 = SURFACE_STYLE_FILL_AREA ( #45 ) ;
#211 = DIMENSIONAL_EXPONENTS ( 1.000000000000000000, 0.000000000000000000, 0.000000000000000000, 0.000000000000000000, 0.000000000000000000, 0.000000000000000000, 0.000000000000000000 ) ;
#212 = EDGE_LOOP ( 'NONE', ( #181, #26, #257, #50 ) ) ;
#213 = AXIS2_PLACEMENT_3D ( 'NONE', #190, #170, #309 ) ;
#214 =( NAMED_UNIT ( * ) PLANE_ANGLE_UNIT ( ) SI_UNIT ( $, .RADIAN. ) );
#215 = EDGE_CURVE ( 'NONE', #139, #108, #289, .T. ) ;
#216 = ADVANCED_FACE ( 'NONE', ( #114 ), #202, .T. ) ;
#217 =( NAMED_UNIT ( * ) PLANE_ANGLE_UNIT ( ) SI_UNIT ( $, .RADIAN. ) );
#218 =( GEOMETRIC_REPRESENTATION_CONTEXT ( 3 ) GLOBAL_UNCERTAINTY_ASSIGNED_CONTEXT ( ( #132 ) ) GLOBAL_UNIT_ASSIGNED_CONTEXT ( ( #55, #268, #242 ) ) REPRESENTATION_CONTEXT ( 'NONE', 'WORKASPACE' ) );
#219 = LENGTH_MEASURE_WITH_UNIT ( LENGTH_MEASURE( 0.02539999999999999897 ), #164 );
#220 = CARTESIAN_POINT ( 'NONE',  ( -0.2499999999999998890, 2.500000000000000000, 0.000000000000000000 ) ) ;
#221 = AXIS2_PLACEMENT_3D ( 'NONE', #77, #102, #20 ) ;
#222 = CIRCLE ( 'NONE', #213, 0.2500000000000000000 ) ;
#223 = ADVANCED_FACE ( 'NONE', ( #244 ), #107, .F. ) ;
#224 = DIRECTION ( 'NONE',  ( 3.265724797726278260E-17, 1.000000000000000000, -0.000000000000000000 ) ) ;
#225 = STYLED_ITEM ( 'NONE', ( #183 ), #216 ) ;
#226 = AXIS2_PLACEMENT_3D ( 'NONE', #178, #27, #279 ) ;
#227 = DIRECTION ( 'NONE',  ( -0.000000000000000000, -1.000000000000000000, -0.000000000000000000 ) ) ;
#228 = ORIENTED_EDGE ( 'NONE', *, *, #70, .F. ) ;
#229 = MANIFOLD_SOLID_BREP ( 'Revolve - Cutting Edge', #3 ) ;
#230 = ORIENTED_EDGE ( 'NONE', *, *, #21, .F. ) ;
#231 = ORIENTED_EDGE ( 'NONE', *, *, #52, .F. ) ;
#232 = MECHANICAL_DESIGN_GEOMETRIC_PRESENTATION_REPRESENTATION (  '', ( #15 ), #98 ) ;
#233 = CARTESIAN_POINT ( 'NONE',  ( 0.000000000000000000, 0.000000000000000000, -0.2500000000000000000 ) ) ;
#234 = DIMENSIONAL_EXPONENTS ( 1.000000000000000000, 0.000000000000000000, 0.000000000000000000, 0.000000000000000000, 0.000000000000000000, 0.000000000000000000, 0.000000000000000000 ) ;
#235 = ORIENTED_EDGE ( 'NONE', *, *, #35, .T. ) ;
#236 = ADVANCED_FACE ( 'NONE', ( #180 ), #101, .T. ) ;
#237 =( NAMED_UNIT ( * ) SI_UNIT ( $, .STERADIAN. ) SOLID_ANGLE_UNIT ( ) );
#238 = AXIS2_PLACEMENT_3D ( 'NONE', #271, #137, #201 ) ;
#239 = STYLED_ITEM ( 'NONE', ( #264 ), #236 ) ;
#240 = PRESENTATION_STYLE_ASSIGNMENT (( #140 ) ) ;
#241 =( LENGTH_UNIT ( ) NAMED_UNIT ( * ) SI_UNIT ( $, .METRE. ) );
#242 =( NAMED_UNIT ( * ) SI_UNIT ( $, .STERADIAN. ) SOLID_ANGLE_UNIT ( ) );
#243 = AXIS2_PLACEMENT_3D ( 'NONE', #177, #173, #251 ) ;
#244 = FACE_OUTER_BOUND ( 'NONE', #87, .T. ) ;
#245 = DIRECTION ( 'NONE',  ( 0.000000000000000000, 1.000000000000000000, 0.000000000000000000 ) ) ;
#246 = ADVANCED_FACE ( 'NONE', ( #187 ), #298, .T. ) ;
#247 = SHAPE_DEFINITION_REPRESENTATION ( #18, #8 ) ;
#248 =( LENGTH_UNIT ( ) NAMED_UNIT ( * ) SI_UNIT ( $, .METRE. ) );
#249 = CARTESIAN_POINT ( 'NONE',  ( 3.061616997868383018E-17, 0.000000000000000000, 0.2500000000000000000 ) ) ;
#250 = FACE_OUTER_BOUND ( 'NONE', #113, .T. ) ;
#251 = DIRECTION ( 'NONE',  ( -1.000000000000000000, 0.000000000000000000, 0.000000000000000000 ) ) ;
#252 = UNCERTAINTY_MEASURE_WITH_UNIT (LENGTH_MEASURE( 1.000000000000000082E-05 ), #66, 'distance_accuracy_value', 'NONE');
#253 = ORIENTED_EDGE ( 'NONE', *, *, #186, .T. ) ;
#254 =( GEOMETRIC_REPRESENTATION_CONTEXT ( 3 ) GLOBAL_UNCERTAINTY_ASSIGNED_CONTEXT ( ( #179 ) ) GLOBAL_UNIT_ASSIGNED_CONTEXT ( ( #162, #141, #237 ) ) REPRESENTATION_CONTEXT ( 'NONE', 'WORKASPACE' ) );
#255 = DIRECTION ( 'NONE',  ( 0.000000000000000000, 0.000000000000000000, -1.000000000000000000 ) ) ;
#256 = FILL_AREA_STYLE ('',( #208 ) ) ;
#257 = ORIENTED_EDGE ( 'NONE', *, *, #196, .F. ) ;
#258 = UNCERTAINTY_MEASURE_WITH_UNIT (LENGTH_MEASURE( 1.000000000000000082E-05 ), #117, 'distance_accuracy_value', 'NONE');
#259 = ORIENTED_EDGE ( 'NONE', *, *, #196, .T. ) ;
#260 = PRODUCT_DEFINITION ( 'UNKNOWN', '', #116, #295 ) ;
#261 = DIMENSIONAL_EXPONENTS ( 1.000000000000000000, 0.000000000000000000, 0.000000000000000000, 0.000000000000000000, 0.000000000000000000, 0.000000000000000000, 0.000000000000000000 ) ;
#262 = VERTEX_POINT ( 'NONE', #74 ) ;
#263 = ORIENTED_EDGE ( 'NONE', *, *, #2, .F. ) ;
#264 = PRESENTATION_STYLE_ASSIGNMENT (( #166 ) ) ;
#265 = MECHANICAL_DESIGN_GEOMETRIC_PRESENTATION_REPRESENTATION (  '', ( #281 ), #218 ) ;
#266 =( LENGTH_UNIT ( ) NAMED_UNIT ( * ) SI_UNIT ( $, .METRE. ) );
#267 = FILL_AREA_STYLE ('',( #168 ) ) ;
#268 =( NAMED_UNIT ( * ) PLANE_ANGLE_UNIT ( ) SI_UNIT ( $, .RADIAN. ) );
#269 = AXIS2_PLACEMENT_3D ( 'NONE', #47, #200, #175 ) ;
#270 = PRESENTATION_LAYER_ASSIGNMENT (  '', '', ( #281 ) ) ;
#271 = CARTESIAN_POINT ( 'NONE',  ( 0.000000000000000000, 0.6250000000000000000, 0.000000000000000000 ) ) ;
#272 = FACE_OUTER_BOUND ( 'NONE', #129, .T. ) ;
#273 = LENGTH_MEASURE_WITH_UNIT ( LENGTH_MEASURE( 0.02539999999999999897 ), #120 );
#274 = ADVANCED_FACE ( 'NONE', ( #272 ), #95, .T. ) ;
#275 = SURFACE_SIDE_STYLE ('',( #296 ) ) ;
#276 = VECTOR ( 'NONE', #126, 39.37007874015748143 ) ;
#277 = EDGE_LOOP ( 'NONE', ( #253, #133 ) ) ;
#278 = CARTESIAN_POINT ( 'NONE',  ( 6.123233995736772199E-17, 2.500000000000000000, 0.000000000000000000 ) ) ;
#279 = DIRECTION ( 'NONE',  ( -1.000000000000000000, 3.265724797726278260E-17, 0.000000000000000000 ) ) ;
#280 = CIRCLE ( 'NONE', #221, 0.2500000000000000000 ) ;
#281 = STYLED_ITEM ( 'NONE', ( #118 ), #274 ) ;
#282 = CARTESIAN_POINT ( 'NONE',  ( 6.123233995736772199E-17, 2.500000000000000000, 0.000000000000000000 ) ) ;
#283 = SURFACE_STYLE_USAGE ( .BOTH. , #204 ) ;
#284 = EDGE_CURVE ( 'NONE', #46, #83, #119, .T. ) ;
#285 = FACE_OUTER_BOUND ( 'NONE', #161, .T. ) ;
#286 =( NAMED_UNIT ( * ) SI_UNIT ( $, .STERADIAN. ) SOLID_ANGLE_UNIT ( ) );
#287 = DIMENSIONAL_EXPONENTS ( 1.000000000000000000, 0.000000000000000000, 0.000000000000000000, 0.000000000000000000, 0.000000000000000000, 0.000000000000000000, 0.000000000000000000 ) ;
#288 = LINE ( 'NONE', #156, #97 ) ;
#289 = CIRCLE ( 'NONE', #145, 0.2500000000000000000 ) ;
#290 = SURFACE_STYLE_FILL_AREA ( #122 ) ;
#291 = CARTESIAN_POINT ( 'NONE',  ( 0.000000000000000000, 0.000000000000000000, 0.000000000000000000 ) ) ;
#292 = DIRECTION ( 'NONE',  ( -0.000000000000000000, -1.000000000000000000, -0.000000000000000000 ) ) ;
#293 = COLOUR_RGB ( '',0.7921568627450980005, 0.8196078431372548767, 0.9333333333333333481 ) ;
#294 =( GEOMETRIC_REPRESENTATION_CONTEXT ( 3 ) GLOBAL_UNCERTAINTY_ASSIGNED_CONTEXT ( ( #68 ) ) GLOBAL_UNIT_ASSIGNED_CONTEXT ( ( #89, #51, #5 ) ) REPRESENTATION_CONTEXT ( 'NONE', 'WORKASPACE' ) );
#295 = PRODUCT_DEFINITION_CONTEXT ( 'detailed design', #72, 'design' ) ;
#296 = SURFACE_STYLE_FILL_AREA ( #193 ) ;
#297 = CLOSED_SHELL ( 'NONE', ( #176, #223, #100, #130 ) ) ;
#298 = CYLINDRICAL_SURFACE ( 'NONE', #300, 0.2500000000000000000 ) ;
#299 = EDGE_CURVE ( 'NONE', #44, #262, #222, .T. ) ;
#300 = AXIS2_PLACEMENT_3D ( 'NONE', #188, #75, #149 ) ;
#301 = CARTESIAN_POINT ( 'NONE',  ( 0.000000000000000000, 0.000000000000000000, 0.000000000000000000 ) ) ;
#302 = LINE ( 'NONE', #249, #112 ) ;
#303 = CIRCLE ( 'NONE', #157, 0.2500000000000000000 ) ;
#304 = AXIS2_PLACEMENT_3D ( 'NONE', #125, #197, #174 ) ;
#305 = LENGTH_MEASURE_WITH_UNIT ( LENGTH_MEASURE( 0.02539999999999999897 ), #248 );
#306 = APPLICATION_PROTOCOL_DEFINITION ( 'draft international standard', 'automotive_design', 1998, #59 ) ;
#307 = FILL_AREA_STYLE_COLOUR ( '', #23 ) ;
#308 = ORIENTED_EDGE ( 'NONE', *, *, #142, .F. ) ;
#309 = DIRECTION ( 'NONE',  ( 0.000000000000000000, 0.000000000000000000, -1.000000000000000000 ) ) ;
ENDSEC;
END-ISO-10303-21;
