ISO-10303-21;
HEADER;
FILE_DESCRIPTION (( 'STEP AP214' ),
    '1' );
FILE_NAME ('81933.STEP',
    '2023-06-30T22:35:57',
    ( '' ),
    ( '' ),
    'SwSTEP 2.0',
    'SolidWorks 2023',
    '' );
FILE_SCHEMA (( 'AUTOMOTIVE_DESIGN' ));
ENDSEC;

DATA;
#1 = VERTEX_POINT ( 'NONE', #173 ) ;
#2 = DIMENSIONAL_EXPONENTS ( 1.000000000000000000, 0.000000000000000000, 0.000000000000000000, 0.000000000000000000, 0.000000000000000000, 0.000000000000000000, 0.000000000000000000 ) ;
#3 = CARTESIAN_POINT ( 'NONE',  ( -1.530808498934191201E-17, -3.414809992080329023E-17, 0.000000000000000000 ) ) ;
#4 = FACE_OUTER_BOUND ( 'NONE', #33, .T. ) ;
#5 = SURFACE_STYLE_FILL_AREA ( #86 ) ;
#6 = EDGE_LOOP ( 'NONE', ( #100, #91, #261, #78 ) ) ;
#7 = DIMENSIONAL_EXPONENTS ( 1.000000000000000000, 0.000000000000000000, 0.000000000000000000, 0.000000000000000000, 0.000000000000000000, 0.000000000000000000, 0.000000000000000000 ) ;
#8 = PRESENTATION_STYLE_ASSIGNMENT (( #166 ) ) ;
#9 = MECHANICAL_DESIGN_GEOMETRIC_PRESENTATION_REPRESENTATION (  '', ( #278 ), #294 ) ;
#10 =( NAMED_UNIT ( * ) PLANE_ANGLE_UNIT ( ) SI_UNIT ( $, .RADIAN. ) );
#11 = VERTEX_POINT ( 'NONE', #203 ) ;
#12 = ORIENTED_EDGE ( 'NONE', *, *, #38, .T. ) ;
#13 = DIRECTION ( 'NONE',  ( -1.000000000000000000, 0.000000000000000000, 0.000000000000000000 ) ) ;
#14 = DIRECTION ( 'NONE',  ( 0.000000000000000000, 0.000000000000000000, -1.000000000000000000 ) ) ;
#15 = DIMENSIONAL_EXPONENTS ( 1.000000000000000000, 0.000000000000000000, 0.000000000000000000, 0.000000000000000000, 0.000000000000000000, 0.000000000000000000, 0.000000000000000000 ) ;
#16 = FACE_OUTER_BOUND ( 'NONE', #6, .T. ) ;
#17 = DIRECTION ( 'NONE',  ( 0.000000000000000000, 0.000000000000000000, -1.000000000000000000 ) ) ;
#18 = AXIS2_PLACEMENT_3D ( 'NONE', #280, #262, #219 ) ;
#19 =( NAMED_UNIT ( * ) SI_UNIT ( $, .STERADIAN. ) SOLID_ANGLE_UNIT ( ) );
#20 = PRODUCT_DEFINITION_FORMATION_WITH_SPECIFIED_SOURCE ( 'ANY', '', #64, .NOT_KNOWN. ) ;
#21 = CARTESIAN_POINT ( 'NONE',  ( 0.000000000000000000, 0.000000000000000000, -0.2499999999999999167 ) ) ;
#22 = CARTESIAN_POINT ( 'NONE',  ( 0.000000000000000000, 0.2500000000000000555, -0.2500000000000000555 ) ) ;
#23 = EDGE_CURVE ( 'NONE', #1, #11, #141, .T. ) ;
#24 = DIRECTION ( 'NONE',  ( 1.224646799147353207E-16, -0.000000000000000000, 1.000000000000000000 ) ) ;
#25 = AXIS2_PLACEMENT_3D ( 'NONE', #101, #151, #198 ) ;
#26 = CARTESIAN_POINT ( 'NONE',  ( 0.000000000000000000, 1.250000000000000000, 0.000000000000000000 ) ) ;
#27 = SPHERICAL_SURFACE ( 'NONE', #328, 0.2500000000000000555 ) ;
#28 = CIRCLE ( 'NONE', #179, 0.2500000000000000555 ) ;
#29 = PRODUCT_DEFINITION_SHAPE ( 'NONE', 'NONE',  #172 ) ;
#30 = CYLINDRICAL_SURFACE ( 'NONE', #42, 0.2499999999999999167 ) ;
#31 = CARTESIAN_POINT ( 'NONE',  ( 0.000000000000000000, 1.250000000000000000, -0.2499999999999998335 ) ) ;
#32 =( LENGTH_UNIT ( ) NAMED_UNIT ( * ) SI_UNIT ( $, .METRE. ) );
#33 = EDGE_LOOP ( 'NONE', ( #216, #12, #82, #153, #195 ) ) ;
#34 = AXIS2_PLACEMENT_3D ( 'NONE', #243, #160, #247 ) ;
#35 = CARTESIAN_POINT ( 'NONE',  ( -6.123233995736772199E-17, 3.000000000000000444, 0.000000000000000000 ) ) ;
#36 = SURFACE_SIDE_STYLE ('',( #191 ) ) ;
#37 = LINE ( 'NONE', #256, #302 ) ;
#38 = EDGE_CURVE ( 'NONE', #106, #148, #239, .T. ) ;
#39 = DIRECTION ( 'NONE',  ( -0.000000000000000000, -1.000000000000000000, -0.000000000000000000 ) ) ;
#40 = DIRECTION ( 'NONE',  ( 0.000000000000000000, 0.000000000000000000, -1.000000000000000000 ) ) ;
#41 = COLOUR_RGB ( '',1.000000000000000000, 0.000000000000000000, 0.000000000000000000 ) ;
#42 = AXIS2_PLACEMENT_3D ( 'NONE', #266, #171, #346 ) ;
#43 = DIRECTION ( 'NONE',  ( 0.000000000000000000, 0.000000000000000000, -1.000000000000000000 ) ) ;
#44 = MECHANICAL_DESIGN_GEOMETRIC_PRESENTATION_REPRESENTATION (  '', ( #319 ), #306 ) ;
#45 = CARTESIAN_POINT ( 'NONE',  ( 0.000000000000000000, 0.2500000000000000555, 0.000000000000000000 ) ) ;
#46 = UNCERTAINTY_MEASURE_WITH_UNIT (LENGTH_MEASURE( 1.000000000000000082E-05 ), #62, 'distance_accuracy_value', 'NONE');
#47 = DIRECTION ( 'NONE',  ( -0.000000000000000000, -1.000000000000000000, -0.000000000000000000 ) ) ;
#48 = APPLICATION_PROTOCOL_DEFINITION ( 'draft international standard', 'automotive_design', 1998, #137 ) ;
#49 = PRESENTATION_LAYER_ASSIGNMENT (  '', '', ( #189 ) ) ;
#50 = SURFACE_STYLE_USAGE ( .BOTH. , #157 ) ;
#51 = CARTESIAN_POINT ( 'NONE',  ( -6.123233995736770966E-17, 3.000000000000000444, 0.000000000000000000 ) ) ;
#52 = SURFACE_STYLE_FILL_AREA ( #333 ) ;
#53 = CIRCLE ( 'NONE', #25, 0.2500000000000000555 ) ;
#54 = AXIS2_PLACEMENT_3D ( 'NONE', #26, #181, #363 ) ;
#55 = FILL_AREA_STYLE_COLOUR ( '', #360 ) ;
#56 = PRESENTATION_STYLE_ASSIGNMENT (( #50 ) ) ;
#57 = DIRECTION ( 'NONE',  ( -1.574545884618025728E-16, 1.000000000000000000, -0.000000000000000000 ) ) ;
#58 = CARTESIAN_POINT ( 'NONE',  ( 2.143131898507868297E-16, 1.250000000000000000, 0.000000000000000000 ) ) ;
#59 = EDGE_LOOP ( 'NONE', ( #65, #87 ) ) ;
#60 = LENGTH_MEASURE_WITH_UNIT ( LENGTH_MEASURE( 0.02539999999999999897 ), #324 );
#61 = ORIENTED_EDGE ( 'NONE', *, *, #23, .F. ) ;
#62 =( CONVERSION_BASED_UNIT ( 'INCH', #60 ) LENGTH_UNIT ( ) NAMED_UNIT ( #2 ) );
#63 = ORIENTED_EDGE ( 'NONE', *, *, #75, .F. ) ;
#64 = PRODUCT ( '81933', '81933', '', ( #291 ) ) ;
#65 = ORIENTED_EDGE ( 'NONE', *, *, #254, .F. ) ;
#66 = APPLICATION_PROTOCOL_DEFINITION ( 'draft international standard', 'automotive_design', 1998, #295 ) ;
#67 = ORIENTED_EDGE ( 'NONE', *, *, #210, .T. ) ;
#68 = SPHERICAL_SURFACE ( 'NONE', #120, 0.2500000000000000555 ) ;
#69 = CIRCLE ( 'NONE', #246, 0.2500000000000000555 ) ;
#70 = ADVANCED_FACE ( 'NONE', ( #16 ), #121, .T. ) ;
#71 = DIRECTION ( 'NONE',  ( 1.000000000000000000, 0.000000000000000000, 0.000000000000000000 ) ) ;
#72 = CLOSED_SHELL ( 'NONE', ( #70, #348, #154, #310 ) ) ;
#73 = VECTOR ( 'NONE', #199, 39.37007874015748143 ) ;
#74 = AXIS2_PLACEMENT_3D ( 'NONE', #51, #184, #308 ) ;
#75 = EDGE_CURVE ( 'NONE', #148, #343, #236, .T. ) ;
#76 = UNCERTAINTY_MEASURE_WITH_UNIT (LENGTH_MEASURE( 1.000000000000000082E-05 ), #215, 'distance_accuracy_value', 'NONE');
#77 = DIRECTION ( 'NONE',  ( 0.000000000000000000, 0.000000000000000000, -1.000000000000000000 ) ) ;
#78 = ORIENTED_EDGE ( 'NONE', *, *, #194, .F. ) ;
#79 = EDGE_CURVE ( 'NONE', #315, #353, #311, .T. ) ;
#80 = CYLINDRICAL_SURFACE ( 'NONE', #105, 0.2499999999999999167 ) ;
#81 = DIRECTION ( 'NONE',  ( 1.000000000000000000, 0.000000000000000000, 0.000000000000000000 ) ) ;
#82 = ORIENTED_EDGE ( 'NONE', *, *, #75, .T. ) ;
#83 = CARTESIAN_POINT ( 'NONE',  ( -3.061616997868383018E-17, 0.2500000000000000000, 0.000000000000000000 ) ) ;
#84 = AXIS2_PLACEMENT_3D ( 'NONE', #265, #39, #14 ) ;
#85 = AXIS2_PLACEMENT_3D ( 'NONE', #371, #24, #369 ) ;
#86 = FILL_AREA_STYLE ('',( #186 ) ) ;
#87 = ORIENTED_EDGE ( 'NONE', *, *, #89, .F. ) ;
#88 = EDGE_LOOP ( 'NONE', ( #255, #263, #227, #322 ) ) ;
#89 = EDGE_CURVE ( 'NONE', #218, #349, #150, .T. ) ;
#90 = SURFACE_STYLE_USAGE ( .BOTH. , #312 ) ;
#91 = ORIENTED_EDGE ( 'NONE', *, *, #180, .T. ) ;
#92 = SURFACE_STYLE_FILL_AREA ( #350 ) ;
#93 = CARTESIAN_POINT ( 'NONE',  ( 3.061616997868381785E-17, 1.250000000000000000, 0.2499999999999998335 ) ) ;
#94 = AXIS2_PLACEMENT_3D ( 'NONE', #357, #329, #71 ) ;
#95 = PRESENTATION_STYLE_ASSIGNMENT (( #174 ) ) ;
#96 = DIRECTION ( 'NONE',  ( -1.574545884618025728E-16, 1.000000000000000000, -0.000000000000000000 ) ) ;
#97 = MECHANICAL_DESIGN_GEOMETRIC_PRESENTATION_REPRESENTATION (  '', ( #287 ), #207 ) ;
#98 = AXIS2_PLACEMENT_3D ( 'NONE', #209, #304, #130 ) ;
#99 = DIRECTION ( 'NONE',  ( 0.000000000000000000, 0.000000000000000000, 1.000000000000000000 ) ) ;
#100 = ORIENTED_EDGE ( 'NONE', *, *, #254, .T. ) ;
#101 = CARTESIAN_POINT ( 'NONE',  ( 0.000000000000000000, 0.2500000000000000555, 0.000000000000000000 ) ) ;
#102 = STYLED_ITEM ( 'NONE', ( #147 ), #206 ) ;
#103 = DIRECTION ( 'NONE',  ( -0.000000000000000000, -1.000000000000000000, -0.000000000000000000 ) ) ;
#104 = FACE_OUTER_BOUND ( 'NONE', #88, .T. ) ;
#105 = AXIS2_PLACEMENT_3D ( 'NONE', #332, #359, #40 ) ;
#106 = VERTEX_POINT ( 'NONE', #93 ) ;
#107 = ORIENTED_EDGE ( 'NONE', *, *, #133, .T. ) ;
#108 =( NAMED_UNIT ( * ) PLANE_ANGLE_UNIT ( ) SI_UNIT ( $, .RADIAN. ) );
#109 = ORIENTED_EDGE ( 'NONE', *, *, #307, .F. ) ;
#110 = FACE_OUTER_BOUND ( 'NONE', #331, .T. ) ;
#111 = AXIS2_PLACEMENT_3D ( 'NONE', #234, #356, #123 ) ;
#112 = PRESENTATION_LAYER_ASSIGNMENT (  '', '', ( #319 ) ) ;
#113 = MANIFOLD_SOLID_BREP ( 'Revolve - Tool Body (Straight Shanked)', #72 ) ;
#114 = VERTEX_POINT ( 'NONE', #118 ) ;
#115 = FILL_AREA_STYLE ('',( #259 ) ) ;
#116 =( LENGTH_UNIT ( ) NAMED_UNIT ( * ) SI_UNIT ( $, .METRE. ) );
#117 = ORIENTED_EDGE ( 'NONE', *, *, #323, .F. ) ;
#118 = CARTESIAN_POINT ( 'NONE',  ( -0.2500000000000000555, 0.2500000000000000555, 3.061616997868383018E-17 ) ) ;
#119 = LENGTH_MEASURE_WITH_UNIT ( LENGTH_MEASURE( 0.02539999999999999897 ), #149 );
#120 = AXIS2_PLACEMENT_3D ( 'NONE', #293, #99, #268 ) ;
#121 = CYLINDRICAL_SURFACE ( 'NONE', #111, 0.2499999999999998057 ) ;
#122 =( NAMED_UNIT ( * ) SI_UNIT ( $, .STERADIAN. ) SOLID_ANGLE_UNIT ( ) );
#123 = DIRECTION ( 'NONE',  ( -1.000000000000000000, 0.000000000000000000, 0.000000000000000000 ) ) ;
#124 = LINE ( 'NONE', #238, #365 ) ;
#125 =( NAMED_UNIT ( * ) PLANE_ANGLE_UNIT ( ) SI_UNIT ( $, .RADIAN. ) );
#126 = PRODUCT_DEFINITION_CONTEXT ( 'detailed design', #295, 'design' ) ;
#127 = CIRCLE ( 'NONE', #220, 0.2499999999999998335 ) ;
#129 = ADVANCED_FACE ( 'NONE', ( #4 ), #30, .T. ) ;
#128 = FACE_OUTER_BOUND ( 'NONE', #59, .T. ) ;
#130 = DIRECTION ( 'NONE',  ( -1.000000000000000000, -1.574545884618025728E-16, 0.000000000000000000 ) ) ;
#131 = UNCERTAINTY_MEASURE_WITH_UNIT (LENGTH_MEASURE( 1.000000000000000082E-05 ), #257, 'distance_accuracy_value', 'NONE');
#132 =( NAMED_UNIT ( * ) SI_UNIT ( $, .STERADIAN. ) SOLID_ANGLE_UNIT ( ) );
#133 = EDGE_CURVE ( 'NONE', #1, #162, #28, .T. ) ;
#134 = SURFACE_STYLE_USAGE ( .BOTH. , #226 ) ;
#135 = ORIENTED_EDGE ( 'NONE', *, *, #89, .T. ) ;
#136 =( GEOMETRIC_REPRESENTATION_CONTEXT ( 3 ) GLOBAL_UNCERTAINTY_ASSIGNED_CONTEXT ( ( #205 ) ) GLOBAL_UNIT_ASSIGNED_CONTEXT ( ( #301, #272, #122 ) ) REPRESENTATION_CONTEXT ( 'NONE', 'WORKASPACE' ) );
#137 = APPLICATION_CONTEXT ( 'automotive_design' ) ;
#138 =( NAMED_UNIT ( * ) SI_UNIT ( $, .STERADIAN. ) SOLID_ANGLE_UNIT ( ) );
#139 = SURFACE_STYLE_USAGE ( .BOTH. , #197 ) ;
#140 =( NAMED_UNIT ( * ) SI_UNIT ( $, .STERADIAN. ) SOLID_ANGLE_UNIT ( ) );
#141 = CIRCLE ( 'NONE', #274, 0.2500000000000000555 ) ;
#142 =( NAMED_UNIT ( * ) PLANE_ANGLE_UNIT ( ) SI_UNIT ( $, .RADIAN. ) );
#143 = PRESENTATION_LAYER_ASSIGNMENT (  '', '', ( #278 ) ) ;
#144 = FILL_AREA_STYLE ('',( #282 ) ) ;
#145 = DIRECTION ( 'NONE',  ( -1.000000000000000000, 0.000000000000000000, 0.000000000000000000 ) ) ;
#146 = DIRECTION ( 'NONE',  ( -0.000000000000000000, -1.000000000000000000, -0.000000000000000000 ) ) ;
#147 = PRESENTATION_STYLE_ASSIGNMENT (( #196 ) ) ;
#148 = VERTEX_POINT ( 'NONE', #31 ) ;
#149 =( LENGTH_UNIT ( ) NAMED_UNIT ( * ) SI_UNIT ( $, .METRE. ) );
#150 = CIRCLE ( 'NONE', #170, 0.2499999999999996114 ) ;
#151 = DIRECTION ( 'NONE',  ( -0.000000000000000000, -1.000000000000000000, -0.000000000000000000 ) ) ;
#152 = SHAPE_DEFINITION_REPRESENTATION ( #29, #298 ) ;
#153 = ORIENTED_EDGE ( 'NONE', *, *, #210, .F. ) ;
#154 = ADVANCED_FACE ( 'NONE', ( #110 ), #164, .T. ) ;
#155 = PRESENTATION_LAYER_ASSIGNMENT (  '', '', ( #292 ) ) ;
#156 =( NAMED_UNIT ( * ) PLANE_ANGLE_UNIT ( ) SI_UNIT ( $, .RADIAN. ) );
#157 = SURFACE_SIDE_STYLE ('',( #52 ) ) ;
#158 = PRESENTATION_LAYER_ASSIGNMENT (  '', '', ( #102 ) ) ;
#159 = CARTESIAN_POINT ( 'NONE',  ( -0.2499999999999994171, 1.250000000000000000, 0.000000000000000000 ) ) ;
#160 = DIRECTION ( 'NONE',  ( 1.574545884618025728E-16, -1.000000000000000000, 0.000000000000000000 ) ) ;
#161 =( NAMED_UNIT ( * ) PLANE_ANGLE_UNIT ( ) SI_UNIT ( $, .RADIAN. ) );
#162 = VERTEX_POINT ( 'NONE', #3 ) ;
#163 = MECHANICAL_DESIGN_GEOMETRIC_PRESENTATION_REPRESENTATION (  '', ( #292 ), #136 ) ;
#164 = CYLINDRICAL_SURFACE ( 'NONE', #211, 0.2499999999999998057 ) ;
#165 =( LENGTH_UNIT ( ) NAMED_UNIT ( * ) SI_UNIT ( $, .METRE. ) );
#166 = SURFACE_STYLE_USAGE ( .BOTH. , #36 ) ;
#167 = LENGTH_MEASURE_WITH_UNIT ( LENGTH_MEASURE( 0.02539999999999999897 ), #116 );
#168 = ORIENTED_EDGE ( 'NONE', *, *, #323, .T. ) ;
#169 = ORIENTED_EDGE ( 'NONE', *, *, #79, .F. ) ;
#170 = AXIS2_PLACEMENT_3D ( 'NONE', #58, #285, #233 ) ;
#171 = DIRECTION ( 'NONE',  ( -0.000000000000000000, -1.000000000000000000, -0.000000000000000000 ) ) ;
#172 = PRODUCT_DEFINITION ( 'UNKNOWN', '', #20, #126 ) ;
#173 = CARTESIAN_POINT ( 'NONE',  ( 0.2500000000000000000, 0.2500000000000000555, 0.000000000000000000 ) ) ;
#174 = SURFACE_STYLE_USAGE ( .BOTH. , #202 ) ;
#175 =( GEOMETRIC_REPRESENTATION_CONTEXT ( 3 ) GLOBAL_UNCERTAINTY_ASSIGNED_CONTEXT ( ( #76 ) ) GLOBAL_UNIT_ASSIGNED_CONTEXT ( ( #215, #161, #279 ) ) REPRESENTATION_CONTEXT ( 'NONE', 'WORKASPACE' ) );
#176 = DIRECTION ( 'NONE',  ( 0.000000000000000000, 0.000000000000000000, -1.000000000000000000 ) ) ;
#177 = EDGE_LOOP ( 'NONE', ( #339, #361 ) ) ;
#178 = FACE_OUTER_BOUND ( 'NONE', #177, .T. ) ;
#179 = AXIS2_PLACEMENT_3D ( 'NONE', #83, #338, #145 ) ;
#180 = EDGE_CURVE ( 'NONE', #218, #315, #37, .T. ) ;
#181 = DIRECTION ( 'NONE',  ( 0.000000000000000000, 1.000000000000000000, 0.000000000000000000 ) ) ;
#182 = COLOUR_RGB ( '',1.000000000000000000, 0.000000000000000000, 0.000000000000000000 ) ;
#183 = CIRCLE ( 'NONE', #245, 0.2500000000000000555 ) ;
#184 = DIRECTION ( 'NONE',  ( -1.574545884618025728E-16, 1.000000000000000000, -0.000000000000000000 ) ) ;
#185 = PRESENTATION_STYLE_ASSIGNMENT (( #134 ) ) ;
#186 = FILL_AREA_STYLE_COLOUR ( '', #250 ) ;
#187 =( GEOMETRIC_REPRESENTATION_CONTEXT ( 3 ) GLOBAL_UNCERTAINTY_ASSIGNED_CONTEXT ( ( #249 ) ) GLOBAL_UNIT_ASSIGNED_CONTEXT ( ( #290, #231, #19 ) ) REPRESENTATION_CONTEXT ( 'NONE', 'WORKASPACE' ) );
#188 =( GEOMETRIC_REPRESENTATION_CONTEXT ( 3 ) GLOBAL_UNCERTAINTY_ASSIGNED_CONTEXT ( ( #131 ) ) GLOBAL_UNIT_ASSIGNED_CONTEXT ( ( #257, #125, #217 ) ) REPRESENTATION_CONTEXT ( 'NONE', 'WORKASPACE' ) );
#189 = STYLED_ITEM ( 'NONE', ( #56 ), #300 ) ;
#190 = EDGE_LOOP ( 'NONE', ( #221, #224, #61, #117, #63 ) ) ;
#191 = SURFACE_STYLE_FILL_AREA ( #115 ) ;
#192 =( NAMED_UNIT ( * ) SI_UNIT ( $, .STERADIAN. ) SOLID_ANGLE_UNIT ( ) );
#193 = PRESENTATION_STYLE_ASSIGNMENT (( #90 ) ) ;
#194 = EDGE_CURVE ( 'NONE', #349, #353, #344, .T. ) ;
#195 = ORIENTED_EDGE ( 'NONE', *, *, #277, .F. ) ;
#196 = SURFACE_STYLE_USAGE ( .BOTH. , #340 ) ;
#197 = SURFACE_SIDE_STYLE ('',( #289 ) ) ;
#198 = DIRECTION ( 'NONE',  ( 0.000000000000000000, 0.000000000000000000, -1.000000000000000000 ) ) ;
#199 = DIRECTION ( 'NONE',  ( -0.000000000000000000, -1.000000000000000000, -0.000000000000000000 ) ) ;
#200 = DIRECTION ( 'NONE',  ( -1.000000000000000000, 0.000000000000000000, 0.000000000000000000 ) ) ;
#201 = COLOUR_RGB ( '',0.7921568627450980005, 0.8196078431372548767, 0.9333333333333333481 ) ;
#202 = SURFACE_SIDE_STYLE ('',( #362 ) ) ;
#203 = CARTESIAN_POINT ( 'NONE',  ( 3.061616997868383634E-17, 0.2500000000000000555, 0.2500000000000000555 ) ) ;
#204 = FILL_AREA_STYLE_COLOUR ( '', #352 ) ;
#205 = UNCERTAINTY_MEASURE_WITH_UNIT (LENGTH_MEASURE( 1.000000000000000082E-05 ), #301, 'distance_accuracy_value', 'NONE');
#206 = ADVANCED_FACE ( 'NONE', ( #313 ), #80, .T. ) ;
#207 =( GEOMETRIC_REPRESENTATION_CONTEXT ( 3 ) GLOBAL_UNCERTAINTY_ASSIGNED_CONTEXT ( ( #46 ) ) GLOBAL_UNIT_ASSIGNED_CONTEXT ( ( #62, #142, #192 ) ) REPRESENTATION_CONTEXT ( 'NONE', 'WORKASPACE' ) );
#208 =( GEOMETRIC_REPRESENTATION_CONTEXT ( 3 ) GLOBAL_UNCERTAINTY_ASSIGNED_CONTEXT ( ( #271 ) ) GLOBAL_UNIT_ASSIGNED_CONTEXT ( ( #214, #156, #132 ) ) REPRESENTATION_CONTEXT ( 'NONE', 'WORKASPACE' ) );
#209 = CARTESIAN_POINT ( 'NONE',  ( 2.143131898507868297E-16, 1.250000000000000000, 0.000000000000000000 ) ) ;
#210 = EDGE_CURVE ( 'NONE', #114, #343, #53, .T. ) ;
#211 = AXIS2_PLACEMENT_3D ( 'NONE', #35, #57, #13 ) ;
#212 = UNCERTAINTY_MEASURE_WITH_UNIT (LENGTH_MEASURE( 1.000000000000000082E-05 ), #373, 'distance_accuracy_value', 'NONE');
#213 = COLOUR_RGB ( '',1.000000000000000000, 0.000000000000000000, 0.000000000000000000 ) ;
#214 =( CONVERSION_BASED_UNIT ( 'INCH', #273 ) LENGTH_UNIT ( ) NAMED_UNIT ( #225 ) );
#215 =( CONVERSION_BASED_UNIT ( 'INCH', #345 ) LENGTH_UNIT ( ) NAMED_UNIT ( #253 ) );
#216 = ORIENTED_EDGE ( 'NONE', *, *, #281, .F. ) ;
#217 =( NAMED_UNIT ( * ) SI_UNIT ( $, .STERADIAN. ) SOLID_ANGLE_UNIT ( ) );
#218 = VERTEX_POINT ( 'NONE', #237 ) ;
#219 = DIRECTION ( 'NONE',  ( -1.000000000000000000, 0.000000000000000000, 0.000000000000000000 ) ) ;
#220 = AXIS2_PLACEMENT_3D ( 'NONE', #269, #327, #176 ) ;
#221 = ORIENTED_EDGE ( 'NONE', *, *, #270, .T. ) ;
#222 = MECHANICAL_DESIGN_GEOMETRIC_PRESENTATION_REPRESENTATION (  '', ( #189 ), #208 ) ;
#223 =( LENGTH_UNIT ( ) NAMED_UNIT ( * ) SI_UNIT ( $, .METRE. ) );
#224 = ORIENTED_EDGE ( 'NONE', *, *, #281, .T. ) ;
#225 = DIMENSIONAL_EXPONENTS ( 1.000000000000000000, 0.000000000000000000, 0.000000000000000000, 0.000000000000000000, 0.000000000000000000, 0.000000000000000000, 0.000000000000000000 ) ;
#226 = SURFACE_SIDE_STYLE ('',( #258 ) ) ;
#227 = ORIENTED_EDGE ( 'NONE', *, *, #133, .F. ) ;
#228 = CARTESIAN_POINT ( 'NONE',  ( -0.2499999999999998612, 3.000000000000000444, 0.000000000000000000 ) ) ;
#229 = FILL_AREA_STYLE_COLOUR ( '', #182 ) ;
#230 = EDGE_LOOP ( 'NONE', ( #109, #67, #168, #107 ) ) ;
#231 =( NAMED_UNIT ( * ) PLANE_ANGLE_UNIT ( ) SI_UNIT ( $, .RADIAN. ) );
#232 = VECTOR ( 'NONE', #309, 39.37007874015748143 ) ;
#233 = DIRECTION ( 'NONE',  ( -1.000000000000000000, 0.000000000000000000, 0.000000000000000000 ) ) ;
#234 = CARTESIAN_POINT ( 'NONE',  ( -6.123233995736772199E-17, 3.000000000000000444, 0.000000000000000000 ) ) ;
#235 = FILL_AREA_STYLE ('',( #204 ) ) ;
#236 = LINE ( 'NONE', #21, #73 ) ;
#237 = CARTESIAN_POINT ( 'NONE',  ( 0.2499999999999998612, 1.250000000000000000, 3.061616997868381169E-17 ) ) ;
#238 = CARTESIAN_POINT ( 'NONE',  ( 3.061616997868382402E-17, 0.000000000000000000, 0.2499999999999999167 ) ) ;
#239 = CIRCLE ( 'NONE', #84, 0.2499999999999998335 ) ;
#240 =( LENGTH_UNIT ( ) NAMED_UNIT ( * ) SI_UNIT ( $, .METRE. ) );
#241 = CARTESIAN_POINT ( 'NONE',  ( 0.2499999999999998890, 3.000000000000000444, 3.061616997868381785E-17 ) ) ;
#242 = ADVANCED_FACE ( 'NONE', ( #354 ), #68, .T. ) ;
#243 = CARTESIAN_POINT ( 'NONE',  ( 0.2499999999999998890, 3.000000000000000444, 0.000000000000000000 ) ) ;
#244 = MECHANICAL_DESIGN_GEOMETRIC_PRESENTATION_REPRESENTATION (  '', ( #102 ), #187 ) ;
#245 = AXIS2_PLACEMENT_3D ( 'NONE', #335, #103, #77 ) ;
#246 = AXIS2_PLACEMENT_3D ( 'NONE', #297, #47, #17 ) ;
#247 = DIRECTION ( 'NONE',  ( 1.000000000000000000, 1.574545884618025728E-16, 0.000000000000000000 ) ) ;
#248 = CARTESIAN_POINT ( 'NONE',  ( -0.2500000000000000555, 3.000000000000000444, 0.000000000000000000 ) ) ;
#249 = UNCERTAINTY_MEASURE_WITH_UNIT (LENGTH_MEASURE( 1.000000000000000082E-05 ), #290, 'distance_accuracy_value', 'NONE');
#250 = COLOUR_RGB ( '',0.7921568627450980005, 0.8196078431372548767, 0.9333333333333333481 ) ;
#251 = DIRECTION ( 'NONE',  ( 0.000000000000000000, 0.000000000000000000, 1.000000000000000000 ) ) ;
#252 = ORIENTED_EDGE ( 'NONE', *, *, #194, .T. ) ;
#253 = DIMENSIONAL_EXPONENTS ( 1.000000000000000000, 0.000000000000000000, 0.000000000000000000, 0.000000000000000000, 0.000000000000000000, 0.000000000000000000, 0.000000000000000000 ) ;
#254 = EDGE_CURVE ( 'NONE', #349, #218, #334, .T. ) ;
#255 = ORIENTED_EDGE ( 'NONE', *, *, #277, .T. ) ;
#256 = CARTESIAN_POINT ( 'NONE',  ( 0.2499999999999997224, 3.000000000000000444, 3.061616997868380553E-17 ) ) ;
#257 =( CONVERSION_BASED_UNIT ( 'INCH', #355 ) LENGTH_UNIT ( ) NAMED_UNIT ( #15 ) );
#258 = SURFACE_STYLE_FILL_AREA ( #144 ) ;
#259 = FILL_AREA_STYLE_COLOUR ( '', #201 ) ;
#260 = AXIS2_PLACEMENT_3D ( 'NONE', #325, #96, #200 ) ;
#261 = ORIENTED_EDGE ( 'NONE', *, *, #336, .F. ) ;
#262 = DIRECTION ( 'NONE',  ( -1.574545884618025728E-16, 1.000000000000000000, -0.000000000000000000 ) ) ;
#263 = ORIENTED_EDGE ( 'NONE', *, *, #307, .T. ) ;
#264 = DIMENSIONAL_EXPONENTS ( 1.000000000000000000, 0.000000000000000000, 0.000000000000000000, 0.000000000000000000, 0.000000000000000000, 0.000000000000000000, 0.000000000000000000 ) ;
#265 = CARTESIAN_POINT ( 'NONE',  ( 0.000000000000000000, 1.250000000000000000, 0.000000000000000000 ) ) ;
#266 = CARTESIAN_POINT ( 'NONE',  ( 0.000000000000000000, 0.000000000000000000, 0.000000000000000000 ) ) ;
#267 = LENGTH_MEASURE_WITH_UNIT ( LENGTH_MEASURE( 0.02539999999999999897 ), #240 );
#268 = DIRECTION ( 'NONE',  ( 1.000000000000000000, 0.000000000000000000, 0.000000000000000000 ) ) ;
#269 = CARTESIAN_POINT ( 'NONE',  ( 0.000000000000000000, 1.250000000000000000, 0.000000000000000000 ) ) ;
#270 = EDGE_CURVE ( 'NONE', #148, #106, #127, .T. ) ;
#271 = UNCERTAINTY_MEASURE_WITH_UNIT (LENGTH_MEASURE( 1.000000000000000082E-05 ), #214, 'distance_accuracy_value', 'NONE');
#272 =( NAMED_UNIT ( * ) PLANE_ANGLE_UNIT ( ) SI_UNIT ( $, .RADIAN. ) );
#273 = LENGTH_MEASURE_WITH_UNIT ( LENGTH_MEASURE( 0.02539999999999999897 ), #364 );
#274 = AXIS2_PLACEMENT_3D ( 'NONE', #45, #146, #43 ) ;
#275 = CIRCLE ( 'NONE', #85, 0.2500000000000000555 ) ;
#276 = ORIENTED_EDGE ( 'NONE', *, *, #336, .T. ) ;
#277 = EDGE_CURVE ( 'NONE', #11, #114, #69, .T. ) ;
#278 = STYLED_ITEM ( 'NONE', ( #193 ), #368 ) ;
#279 =( NAMED_UNIT ( * ) SI_UNIT ( $, .STERADIAN. ) SOLID_ANGLE_UNIT ( ) );
#280 = CARTESIAN_POINT ( 'NONE',  ( -6.123233995736770966E-17, 3.000000000000000444, 0.000000000000000000 ) ) ;
#281 = EDGE_CURVE ( 'NONE', #106, #11, #124, .T. ) ;
#282 = FILL_AREA_STYLE_COLOUR ( '', #213 ) ;
#283 = LENGTH_MEASURE_WITH_UNIT ( LENGTH_MEASURE( 0.02539999999999999897 ), #32 );
#284 = ORIENTED_EDGE ( 'NONE', *, *, #79, .T. ) ;
#285 = DIRECTION ( 'NONE',  ( -1.574545884618025728E-16, 1.000000000000000000, -0.000000000000000000 ) ) ;
#286 = CARTESIAN_POINT ( 'NONE',  ( -3.061616997868383018E-17, 0.2500000000000000000, 0.000000000000000000 ) ) ;
#287 = STYLED_ITEM ( 'NONE', ( #8 ), #113 ) ;
#288 = DIRECTION ( 'NONE',  ( -1.574545884618025728E-16, 1.000000000000000000, -0.000000000000000000 ) ) ;
#289 = SURFACE_STYLE_FILL_AREA ( #351 ) ;
#290 =( CONVERSION_BASED_UNIT ( 'INCH', #267 ) LENGTH_UNIT ( ) NAMED_UNIT ( #347 ) );
#291 = PRODUCT_CONTEXT ( 'NONE', #137, 'mechanical' ) ;
#292 = STYLED_ITEM ( 'NONE', ( #95 ), #242 ) ;
#293 = CARTESIAN_POINT ( 'NONE',  ( -3.061616997868383018E-17, 0.2500000000000000000, 0.000000000000000000 ) ) ;
#294 =( GEOMETRIC_REPRESENTATION_CONTEXT ( 3 ) GLOBAL_UNCERTAINTY_ASSIGNED_CONTEXT ( ( #212 ) ) GLOBAL_UNIT_ASSIGNED_CONTEXT ( ( #373, #10, #138 ) ) REPRESENTATION_CONTEXT ( 'NONE', 'WORKASPACE' ) );
#295 = APPLICATION_CONTEXT ( 'automotive_design' ) ;
#296 = ORIENTED_EDGE ( 'NONE', *, *, #180, .F. ) ;
#297 = CARTESIAN_POINT ( 'NONE',  ( 0.000000000000000000, 0.2500000000000000555, 0.000000000000000000 ) ) ;
#298 = ADVANCED_BREP_SHAPE_REPRESENTATION ( '81933', ( #368, #113, #94 ), #175 ) ;
#300 = ADVANCED_FACE ( 'NONE', ( #178 ), #299, .T. ) ;
#299 = PLANE ( 'NONE',  #54 ) ;
#301 =( CONVERSION_BASED_UNIT ( 'INCH', #119 ) LENGTH_UNIT ( ) NAMED_UNIT ( #320 ) );
#302 = VECTOR ( 'NONE', #288, 39.37007874015748143 ) ;
#303 = PLANE ( 'NONE',  #34 ) ;
#304 = DIRECTION ( 'NONE',  ( -1.574545884618025728E-16, 1.000000000000000000, 0.000000000000000000 ) ) ;
#305 = PRESENTATION_LAYER_ASSIGNMENT (  '', '', ( #287 ) ) ;
#306 =( GEOMETRIC_REPRESENTATION_CONTEXT ( 3 ) GLOBAL_UNCERTAINTY_ASSIGNED_CONTEXT ( ( #370 ) ) GLOBAL_UNIT_ASSIGNED_CONTEXT ( ( #342, #108, #140 ) ) REPRESENTATION_CONTEXT ( 'NONE', 'WORKASPACE' ) );
#307 = EDGE_CURVE ( 'NONE', #114, #162, #275, .T. ) ;
#308 = DIRECTION ( 'NONE',  ( -1.000000000000000000, 0.000000000000000000, 0.000000000000000000 ) ) ;
#309 = DIRECTION ( 'NONE',  ( -1.574545884618025728E-16, 1.000000000000000000, -0.000000000000000000 ) ) ;
#310 = ADVANCED_FACE ( 'NONE', ( #337 ), #303, .F. ) ;
#311 = CIRCLE ( 'NONE', #18, 0.2499999999999999722 ) ;
#312 = SURFACE_SIDE_STYLE ('',( #5 ) ) ;
#313 = FACE_OUTER_BOUND ( 'NONE', #190, .T. ) ;
#314 = FILL_AREA_STYLE_COLOUR ( '', #41 ) ;
#315 = VERTEX_POINT ( 'NONE', #241 ) ;
#316 = PRODUCT_RELATED_PRODUCT_CATEGORY ( 'part', '', ( #64 ) ) ;
#317 = PRESENTATION_LAYER_ASSIGNMENT (  '', '', ( #341 ) ) ;
#318 = EDGE_LOOP ( 'NONE', ( #276, #284 ) ) ;
#319 = STYLED_ITEM ( 'NONE', ( #185 ), #367 ) ;
#320 = DIMENSIONAL_EXPONENTS ( 1.000000000000000000, 0.000000000000000000, 0.000000000000000000, 0.000000000000000000, 0.000000000000000000, 0.000000000000000000, 0.000000000000000000 ) ;
#321 = PRESENTATION_STYLE_ASSIGNMENT (( #139 ) ) ;
#322 = ORIENTED_EDGE ( 'NONE', *, *, #23, .T. ) ;
#323 = EDGE_CURVE ( 'NONE', #343, #1, #183, .T. ) ;
#324 =( LENGTH_UNIT ( ) NAMED_UNIT ( * ) SI_UNIT ( $, .METRE. ) );
#325 = CARTESIAN_POINT ( 'NONE',  ( 2.143131898507868297E-16, 1.250000000000000000, 0.000000000000000000 ) ) ;
#326 = MECHANICAL_DESIGN_GEOMETRIC_PRESENTATION_REPRESENTATION (  '', ( #341 ), #188 ) ;
#327 = DIRECTION ( 'NONE',  ( -0.000000000000000000, -1.000000000000000000, -0.000000000000000000 ) ) ;
#328 = AXIS2_PLACEMENT_3D ( 'NONE', #286, #251, #81 ) ;
#329 = DIRECTION ( 'NONE',  ( 0.000000000000000000, 0.000000000000000000, 1.000000000000000000 ) ) ;
#330 = DIRECTION ( 'NONE',  ( -0.000000000000000000, -1.000000000000000000, -0.000000000000000000 ) ) ;
#331 = EDGE_LOOP ( 'NONE', ( #296, #135, #252, #169 ) ) ;
#332 = CARTESIAN_POINT ( 'NONE',  ( 0.000000000000000000, 0.000000000000000000, 0.000000000000000000 ) ) ;
#333 = FILL_AREA_STYLE ('',( #55 ) ) ;
#334 = CIRCLE ( 'NONE', #260, 0.2499999999999996114 ) ;
#335 = CARTESIAN_POINT ( 'NONE',  ( 0.000000000000000000, 0.2500000000000000555, 0.000000000000000000 ) ) ;
#336 = EDGE_CURVE ( 'NONE', #353, #315, #372, .T. ) ;
#337 = FACE_OUTER_BOUND ( 'NONE', #318, .T. ) ;
#338 = DIRECTION ( 'NONE',  ( 0.000000000000000000, 0.000000000000000000, -1.000000000000000000 ) ) ;
#339 = ORIENTED_EDGE ( 'NONE', *, *, #270, .F. ) ;
#340 = SURFACE_SIDE_STYLE ('',( #92 ) ) ;
#341 = STYLED_ITEM ( 'NONE', ( #321 ), #129 ) ;
#342 =( CONVERSION_BASED_UNIT ( 'INCH', #283 ) LENGTH_UNIT ( ) NAMED_UNIT ( #264 ) );
#343 = VERTEX_POINT ( 'NONE', #22 ) ;
#344 = LINE ( 'NONE', #228, #232 ) ;
#345 = LENGTH_MEASURE_WITH_UNIT ( LENGTH_MEASURE( 0.02539999999999999897 ), #223 );
#346 = DIRECTION ( 'NONE',  ( 0.000000000000000000, 0.000000000000000000, -1.000000000000000000 ) ) ;
#347 = DIMENSIONAL_EXPONENTS ( 1.000000000000000000, 0.000000000000000000, 0.000000000000000000, 0.000000000000000000, 0.000000000000000000, 0.000000000000000000, 0.000000000000000000 ) ;
#348 = ADVANCED_FACE ( 'NONE', ( #128 ), #366, .F. ) ;
#349 = VERTEX_POINT ( 'NONE', #159 ) ;
#350 = FILL_AREA_STYLE ('',( #314 ) ) ;
#351 = FILL_AREA_STYLE ('',( #229 ) ) ;
#352 = COLOUR_RGB ( '',1.000000000000000000, 0.000000000000000000, 0.000000000000000000 ) ;
#353 = VERTEX_POINT ( 'NONE', #248 ) ;
#354 = FACE_OUTER_BOUND ( 'NONE', #230, .T. ) ;
#355 = LENGTH_MEASURE_WITH_UNIT ( LENGTH_MEASURE( 0.02539999999999999897 ), #165 );
#356 = DIRECTION ( 'NONE',  ( -1.574545884618025728E-16, 1.000000000000000000, -0.000000000000000000 ) ) ;
#357 = CARTESIAN_POINT ( 'NONE',  ( 0.000000000000000000, 0.000000000000000000, 0.000000000000000000 ) ) ;
#358 = CLOSED_SHELL ( 'NONE', ( #367, #206, #300, #129, #242 ) ) ;
#359 = DIRECTION ( 'NONE',  ( -0.000000000000000000, -1.000000000000000000, -0.000000000000000000 ) ) ;
#360 = COLOUR_RGB ( '',1.000000000000000000, 0.000000000000000000, 0.000000000000000000 ) ;
#361 = ORIENTED_EDGE ( 'NONE', *, *, #38, .F. ) ;
#362 = SURFACE_STYLE_FILL_AREA ( #235 ) ;
#363 = DIRECTION ( 'NONE',  ( 0.000000000000000000, -0.000000000000000000, 1.000000000000000000 ) ) ;
#364 =( LENGTH_UNIT ( ) NAMED_UNIT ( * ) SI_UNIT ( $, .METRE. ) );
#365 = VECTOR ( 'NONE', #330, 39.37007874015748143 ) ;
#366 = PLANE ( 'NONE',  #98 ) ;
#367 = ADVANCED_FACE ( 'NONE', ( #104 ), #27, .T. ) ;
#368 = MANIFOLD_SOLID_BREP ( 'Revolve - Cutting Edge', #358 ) ;
#369 = DIRECTION ( 'NONE',  ( 1.000000000000000000, 0.000000000000000000, -1.224646799147353207E-16 ) ) ;
#370 = UNCERTAINTY_MEASURE_WITH_UNIT (LENGTH_MEASURE( 1.000000000000000082E-05 ), #342, 'distance_accuracy_value', 'NONE');
#371 = CARTESIAN_POINT ( 'NONE',  ( -3.061616997868383018E-17, 0.2500000000000000000, 0.000000000000000000 ) ) ;
#372 = CIRCLE ( 'NONE', #74, 0.2499999999999999722 ) ;
#373 =( CONVERSION_BASED_UNIT ( 'INCH', #167 ) LENGTH_UNIT ( ) NAMED_UNIT ( #7 ) );
ENDSEC;
END-ISO-10303-21;
