ISO-10303-21;
HEADER;
FILE_DESCRIPTION (( 'STEP AP214' ),
    '1' );
FILE_NAME ('00107.STEP',
    '2023-06-22T14:02:59',
    ( '' ),
    ( '' ),
    'SwSTEP 2.0',
    'SolidWorks 2023',
    '' );
FILE_SCHEMA (( 'AUTOMOTIVE_DESIGN' ));
ENDSEC;

DATA;
#1 = ORIENTED_EDGE ( 'NONE', *, *, #203, .T. ) ;
#2 = COLOUR_RGB ( '',1.000000000000000000, 0.000000000000000000, 0.000000000000000000 ) ;
#3 = AXIS2_PLACEMENT_3D ( 'NONE', #301, #279, #66 ) ;
#4 = ADVANCED_FACE ( 'NONE', ( #289 ), #25, .T. ) ;
#5 = DIMENSIONAL_EXPONENTS ( 1.000000000000000000, 0.000000000000000000, 0.000000000000000000, 0.000000000000000000, 0.000000000000000000, 0.000000000000000000, 0.000000000000000000 ) ;
#6 = CIRCLE ( 'NONE', #224, 0.09375000000000001388 ) ;
#7 = LENGTH_MEASURE_WITH_UNIT ( LENGTH_MEASURE( 0.02539999999999999897 ), #295 );
#8 = EDGE_CURVE ( 'NONE', #278, #306, #248, .T. ) ;
#9 =( LENGTH_UNIT ( ) NAMED_UNIT ( * ) SI_UNIT ( $, .METRE. ) );
#10 = DIRECTION ( 'NONE',  ( -1.000000000000000000, 0.000000000000000000, 0.000000000000000000 ) ) ;
#11 = CARTESIAN_POINT ( 'NONE',  ( 1.148106374200643863E-17, 0.000000000000000000, 0.09375000000000001388 ) ) ;
#12 = UNCERTAINTY_MEASURE_WITH_UNIT (LENGTH_MEASURE( 1.000000000000000082E-05 ), #300, 'distance_accuracy_value', 'NONE');
#13 =( NAMED_UNIT ( * ) PLANE_ANGLE_UNIT ( ) SI_UNIT ( $, .RADIAN. ) );
#14 = EDGE_LOOP ( 'NONE', ( #194, #215 ) ) ;
#15 = PRESENTATION_STYLE_ASSIGNMENT (( #167 ) ) ;
#16 =( GEOMETRIC_REPRESENTATION_CONTEXT ( 3 ) GLOBAL_UNCERTAINTY_ASSIGNED_CONTEXT ( ( #242 ) ) GLOBAL_UNIT_ASSIGNED_CONTEXT ( ( #181, #22, #157 ) ) REPRESENTATION_CONTEXT ( 'NONE', 'WORKASPACE' ) );
#17 = DIRECTION ( 'NONE',  ( 0.000000000000000000, 0.000000000000000000, -1.000000000000000000 ) ) ;
#18 = ORIENTED_EDGE ( 'NONE', *, *, #8, .F. ) ;
#19 = APPLICATION_PROTOCOL_DEFINITION ( 'draft international standard', 'automotive_design', 1998, #45 ) ;
#20 = EDGE_CURVE ( 'NONE', #149, #166, #249, .T. ) ;
#21 = SURFACE_STYLE_FILL_AREA ( #266 ) ;
#22 =( NAMED_UNIT ( * ) PLANE_ANGLE_UNIT ( ) SI_UNIT ( $, .RADIAN. ) );
#23 = PRESENTATION_LAYER_ASSIGNMENT (  '', '', ( #233 ) ) ;
#24 = CARTESIAN_POINT ( 'NONE',  ( 0.09375000000000001388, 2.500000000000000000, 1.148106374200644325E-17 ) ) ;
#25 = PLANE ( 'NONE',  #174 ) ;
#26 = ORIENTED_EDGE ( 'NONE', *, *, #307, .F. ) ;
#27 = DIRECTION ( 'NONE',  ( -3.160378836509298460E-17, 1.000000000000000000, -0.000000000000000000 ) ) ;
#28 = MANIFOLD_SOLID_BREP ( 'Revolve - Tool Body (Straight Shanked)', #217 ) ;
#29 = PRESENTATION_LAYER_ASSIGNMENT (  '', '', ( #62 ) ) ;
#30 = AXIS2_PLACEMENT_3D ( 'NONE', #94, #91, #64 ) ;
#31 = UNCERTAINTY_MEASURE_WITH_UNIT (LENGTH_MEASURE( 1.000000000000000082E-05 ), #245, 'distance_accuracy_value', 'NONE');
#32 = LENGTH_MEASURE_WITH_UNIT ( LENGTH_MEASURE( 0.02539999999999999897 ), #9 );
#33 = DIMENSIONAL_EXPONENTS ( 1.000000000000000000, 0.000000000000000000, 0.000000000000000000, 0.000000000000000000, 0.000000000000000000, 0.000000000000000000, 0.000000000000000000 ) ;
#34 = FILL_AREA_STYLE ('',( #139 ) ) ;
#35 = FACE_OUTER_BOUND ( 'NONE', #202, .T. ) ;
#36 = MANIFOLD_SOLID_BREP ( 'Revolve - Cutting Edge', #276 ) ;
#37 = FACE_OUTER_BOUND ( 'NONE', #246, .T. ) ;
#38 = CARTESIAN_POINT ( 'NONE',  ( 0.000000000000000000, 0.000000000000000000, -0.09375000000000001388 ) ) ;
#39 = STYLED_ITEM ( 'NONE', ( #83 ), #36 ) ;
#40 =( NAMED_UNIT ( * ) SI_UNIT ( $, .STERADIAN. ) SOLID_ANGLE_UNIT ( ) );
#41 = DIRECTION ( 'NONE',  ( -3.160378836509298460E-17, 1.000000000000000000, -0.000000000000000000 ) ) ;
#42 = SURFACE_SIDE_STYLE ('',( #267 ) ) ;
#43 = FACE_OUTER_BOUND ( 'NONE', #175, .T. ) ;
#44 = DIRECTION ( 'NONE',  ( -3.160378836509298460E-17, 1.000000000000000000, 0.000000000000000000 ) ) ;
#45 = APPLICATION_CONTEXT ( 'automotive_design' ) ;
#46 = VECTOR ( 'NONE', #27, 39.37007874015748143 ) ;
#47 = CIRCLE ( 'NONE', #129, 0.09375000000000001388 ) ;
#48 = DIRECTION ( 'NONE',  ( 1.000000000000000000, 3.160378836509298460E-17, 0.000000000000000000 ) ) ;
#49 = SURFACE_STYLE_FILL_AREA ( #79 ) ;
#50 = LENGTH_MEASURE_WITH_UNIT ( LENGTH_MEASURE( 0.02539999999999999897 ), #156 );
#51 = DIRECTION ( 'NONE',  ( -0.000000000000000000, -1.000000000000000000, -0.000000000000000000 ) ) ;
#52 = EDGE_LOOP ( 'NONE', ( #171, #69 ) ) ;
#53 = MECHANICAL_DESIGN_GEOMETRIC_PRESENTATION_REPRESENTATION (  '', ( #39 ), #286 ) ;
#54 = EDGE_CURVE ( 'NONE', #237, #63, #6, .T. ) ;
#55 =( NAMED_UNIT ( * ) SI_UNIT ( $, .STERADIAN. ) SOLID_ANGLE_UNIT ( ) );
#56 = UNCERTAINTY_MEASURE_WITH_UNIT (LENGTH_MEASURE( 1.000000000000000082E-05 ), #78, 'distance_accuracy_value', 'NONE');
#57 = VECTOR ( 'NONE', #271, 39.37007874015748143 ) ;
#58 = AXIS2_PLACEMENT_3D ( 'NONE', #151, #223, #178 ) ;
#59 = DIRECTION ( 'NONE',  ( -0.000000000000000000, -1.000000000000000000, -0.000000000000000000 ) ) ;
#60 =( NAMED_UNIT ( * ) PLANE_ANGLE_UNIT ( ) SI_UNIT ( $, .RADIAN. ) );
#61 = ORIENTED_EDGE ( 'NONE', *, *, #54, .F. ) ;
#62 = STYLED_ITEM ( 'NONE', ( #285 ), #4 ) ;
#63 = VERTEX_POINT ( 'NONE', #165 ) ;
#64 = DIRECTION ( 'NONE',  ( -1.000000000000000000, 0.000000000000000000, 0.000000000000000000 ) ) ;
#65 = FACE_OUTER_BOUND ( 'NONE', #103, .T. ) ;
#66 = DIRECTION ( 'NONE',  ( -1.000000000000000000, 0.000000000000000000, 0.000000000000000000 ) ) ;
#67 = CARTESIAN_POINT ( 'NONE',  ( 0.000000000000000000, 0.5625000000000000000, 0.000000000000000000 ) ) ;
#68 = COLOUR_RGB ( '',0.7921568627450980005, 0.8196078431372548767, 0.9333333333333333481 ) ;
#69 = ORIENTED_EDGE ( 'NONE', *, *, #307, .T. ) ;
#70 = APPLICATION_PROTOCOL_DEFINITION ( 'draft international standard', 'automotive_design', 1998, #236 ) ;
#71 = FILL_AREA_STYLE_COLOUR ( '', #68 ) ;
#72 = PRODUCT_DEFINITION_SHAPE ( 'NONE', 'NONE',  #102 ) ;
#73 = SHAPE_DEFINITION_REPRESENTATION ( #72, #258 ) ;
#74 = CARTESIAN_POINT ( 'NONE',  ( 0.09374999999999997224, 2.500000000000000000, 1.148106374200644171E-17 ) ) ;
#75 = ADVANCED_FACE ( 'NONE', ( #37 ), #143, .T. ) ;
#76 =( GEOMETRIC_REPRESENTATION_CONTEXT ( 3 ) GLOBAL_UNCERTAINTY_ASSIGNED_CONTEXT ( ( #31 ) ) GLOBAL_UNIT_ASSIGNED_CONTEXT ( ( #245, #13, #214 ) ) REPRESENTATION_CONTEXT ( 'NONE', 'WORKASPACE' ) );
#77 = CIRCLE ( 'NONE', #145, 0.09375000000000001388 ) ;
#78 =( CONVERSION_BASED_UNIT ( 'INCH', #50 ) LENGTH_UNIT ( ) NAMED_UNIT ( #254 ) );
#79 = FILL_AREA_STYLE ('',( #179 ) ) ;
#80 = STYLED_ITEM ( 'NONE', ( #15 ), #247 ) ;
#81 = CARTESIAN_POINT ( 'NONE',  ( 0.000000000000000000, 0.000000000000000000, 0.000000000000000000 ) ) ;
#82 = PRODUCT_RELATED_PRODUCT_CATEGORY ( 'part', '', ( #250 ) ) ;
#83 = PRESENTATION_STYLE_ASSIGNMENT (( #298 ) ) ;
#84 =( GEOMETRIC_REPRESENTATION_CONTEXT ( 3 ) GLOBAL_UNCERTAINTY_ASSIGNED_CONTEXT ( ( #56 ) ) GLOBAL_UNIT_ASSIGNED_CONTEXT ( ( #78, #134, #176 ) ) REPRESENTATION_CONTEXT ( 'NONE', 'WORKASPACE' ) );
#85 = MECHANICAL_DESIGN_GEOMETRIC_PRESENTATION_REPRESENTATION (  '', ( #240 ), #114 ) ;
#86 = AXIS2_PLACEMENT_3D ( 'NONE', #196, #227, #173 ) ;
#87 = CARTESIAN_POINT ( 'NONE',  ( -6.123233995736766036E-17, 2.500000000000000000, 0.000000000000000000 ) ) ;
#88 = SURFACE_SIDE_STYLE ('',( #188 ) ) ;
#89 = EDGE_CURVE ( 'NONE', #135, #63, #212, .T. ) ;
#90 =( NAMED_UNIT ( * ) PLANE_ANGLE_UNIT ( ) SI_UNIT ( $, .RADIAN. ) );
#91 = DIRECTION ( 'NONE',  ( -3.160378836509298460E-17, 1.000000000000000000, -0.000000000000000000 ) ) ;
#92 = AXIS2_PLACEMENT_3D ( 'NONE', #95, #265, #48 ) ;
#93 = SURFACE_STYLE_USAGE ( .BOTH. , #42 ) ;
#94 = CARTESIAN_POINT ( 'NONE',  ( -6.123233995736766036E-17, 2.500000000000000000, 0.000000000000000000 ) ) ;
#95 = CARTESIAN_POINT ( 'NONE',  ( 0.09375000000000001388, 2.500000000000000000, 0.000000000000000000 ) ) ;
#96 = PLANE ( 'NONE',  #184 ) ;
#97 = ORIENTED_EDGE ( 'NONE', *, *, #230, .F. ) ;
#98 = ORIENTED_EDGE ( 'NONE', *, *, #106, .T. ) ;
#99 = CARTESIAN_POINT ( 'NONE',  ( 0.000000000000000000, 0.000000000000000000, 0.000000000000000000 ) ) ;
#100 = CARTESIAN_POINT ( 'NONE',  ( 0.000000000000000000, 0.5625000000000000000, 0.000000000000000000 ) ) ;
#101 = CARTESIAN_POINT ( 'NONE',  ( 0.000000000000000000, 0.5625000000000000000, 0.000000000000000000 ) ) ;
#102 = PRODUCT_DEFINITION ( 'UNKNOWN', '', #291, #221 ) ;
#103 = EDGE_LOOP ( 'NONE', ( #1, #122 ) ) ;
#104 = AXIS2_PLACEMENT_3D ( 'NONE', #99, #201, #158 ) ;
#105 =( NAMED_UNIT ( * ) PLANE_ANGLE_UNIT ( ) SI_UNIT ( $, .RADIAN. ) );
#106 = EDGE_CURVE ( 'NONE', #135, #136, #77, .T. ) ;
#107 = PRESENTATION_STYLE_ASSIGNMENT (( #220 ) ) ;
#108 = UNCERTAINTY_MEASURE_WITH_UNIT (LENGTH_MEASURE( 1.000000000000000082E-05 ), #275, 'distance_accuracy_value', 'NONE');
#109 = FILL_AREA_STYLE_COLOUR ( '', #302 ) ;
#110 =( NAMED_UNIT ( * ) SI_UNIT ( $, .STERADIAN. ) SOLID_ANGLE_UNIT ( ) );
#111 = CARTESIAN_POINT ( 'NONE',  ( 0.000000000000000000, 0.000000000000000000, 0.000000000000000000 ) ) ;
#112 = MECHANICAL_DESIGN_GEOMETRIC_PRESENTATION_REPRESENTATION (  '', ( #80 ), #195 ) ;
#113 = DIRECTION ( 'NONE',  ( -1.000000000000000000, 0.000000000000000000, 0.000000000000000000 ) ) ;
#114 =( GEOMETRIC_REPRESENTATION_CONTEXT ( 3 ) GLOBAL_UNCERTAINTY_ASSIGNED_CONTEXT ( ( #260 ) ) GLOBAL_UNIT_ASSIGNED_CONTEXT ( ( #292, #272, #55 ) ) REPRESENTATION_CONTEXT ( 'NONE', 'WORKASPACE' ) );
#115 = DIRECTION ( 'NONE',  ( -1.000000000000000000, 0.000000000000000000, 0.000000000000000000 ) ) ;
#116 = ADVANCED_FACE ( 'NONE', ( #127 ), #287, .F. ) ;
#117 = CYLINDRICAL_SURFACE ( 'NONE', #104, 0.09375000000000001388 ) ;
#118 = DIRECTION ( 'NONE',  ( -0.000000000000000000, -1.000000000000000000, -0.000000000000000000 ) ) ;
#119 = ORIENTED_EDGE ( 'NONE', *, *, #213, .F. ) ;
#120 = CARTESIAN_POINT ( 'NONE',  ( 0.000000000000000000, 0.5625000000000001110, 0.000000000000000000 ) ) ;
#121 = CARTESIAN_POINT ( 'NONE',  ( 0.000000000000000000, 0.000000000000000000, 0.000000000000000000 ) ) ;
#122 = ORIENTED_EDGE ( 'NONE', *, *, #230, .T. ) ;
#123 = FILL_AREA_STYLE_COLOUR ( '', #161 ) ;
#124 = DIRECTION ( 'NONE',  ( 0.000000000000000000, 0.000000000000000000, -1.000000000000000000 ) ) ;
#125 = EDGE_CURVE ( 'NONE', #136, #135, #216, .T. ) ;
#126 = DIRECTION ( 'NONE',  ( -1.000000000000000000, -3.160378836509298460E-17, 0.000000000000000000 ) ) ;
#127 = FACE_OUTER_BOUND ( 'NONE', #169, .T. ) ;
#128 = SURFACE_SIDE_STYLE ('',( #21 ) ) ;
#129 = AXIS2_PLACEMENT_3D ( 'NONE', #256, #239, #146 ) ;
#130 = COLOUR_RGB ( '',1.000000000000000000, 0.000000000000000000, 0.000000000000000000 ) ;
#131 = DIRECTION ( 'NONE',  ( 0.000000000000000000, 0.000000000000000000, -1.000000000000000000 ) ) ;
#132 = ORIENTED_EDGE ( 'NONE', *, *, #203, .F. ) ;
#133 = ADVANCED_FACE ( 'NONE', ( #150 ), #96, .T. ) ;
#134 =( NAMED_UNIT ( * ) PLANE_ANGLE_UNIT ( ) SI_UNIT ( $, .RADIAN. ) );
#135 = VERTEX_POINT ( 'NONE', #284 ) ;
#136 = VERTEX_POINT ( 'NONE', #218 ) ;
#137 = CARTESIAN_POINT ( 'NONE',  ( 0.09375000000000001388, 0.5625000000000001110, 1.148106374200644325E-17 ) ) ;
#138 = AXIS2_PLACEMENT_3D ( 'NONE', #243, #44, #126 ) ;
#139 = FILL_AREA_STYLE_COLOUR ( '', #130 ) ;
#140 =( GEOMETRIC_REPRESENTATION_CONTEXT ( 3 ) GLOBAL_UNCERTAINTY_ASSIGNED_CONTEXT ( ( #108 ) ) GLOBAL_UNIT_ASSIGNED_CONTEXT ( ( #275, #60, #110 ) ) REPRESENTATION_CONTEXT ( 'NONE', 'WORKASPACE' ) );
#141 = DIMENSIONAL_EXPONENTS ( 1.000000000000000000, 0.000000000000000000, 0.000000000000000000, 0.000000000000000000, 0.000000000000000000, 0.000000000000000000, 0.000000000000000000 ) ;
#142 = ADVANCED_FACE ( 'NONE', ( #65 ), #170, .F. ) ;
#143 = CYLINDRICAL_SURFACE ( 'NONE', #299, 0.09375000000000004163 ) ;
#144 =( CONVERSION_BASED_UNIT ( 'INCH', #261 ) LENGTH_UNIT ( ) NAMED_UNIT ( #273 ) );
#145 = AXIS2_PLACEMENT_3D ( 'NONE', #100, #198, #17 ) ;
#146 = DIRECTION ( 'NONE',  ( -1.000000000000000000, 0.000000000000000000, 0.000000000000000000 ) ) ;
#147 = FILL_AREA_STYLE_COLOUR ( '', #231 ) ;
#148 = CARTESIAN_POINT ( 'NONE',  ( -0.09375000000000001388, 0.5625000000000001110, 0.000000000000000000 ) ) ;
#149 = VERTEX_POINT ( 'NONE', #148 ) ;
#150 = FACE_OUTER_BOUND ( 'NONE', #52, .T. ) ;
#151 = CARTESIAN_POINT ( 'NONE',  ( 0.000000000000000000, 0.000000000000000000, 0.000000000000000000 ) ) ;
#152 = FILL_AREA_STYLE ('',( #123 ) ) ;
#153 = SURFACE_STYLE_USAGE ( .BOTH. , #182 ) ;
#154 = EDGE_CURVE ( 'NONE', #136, #237, #255, .T. ) ;
#155 = PRESENTATION_STYLE_ASSIGNMENT (( #93 ) ) ;
#156 =( LENGTH_UNIT ( ) NAMED_UNIT ( * ) SI_UNIT ( $, .METRE. ) );
#157 =( NAMED_UNIT ( * ) SI_UNIT ( $, .STERADIAN. ) SOLID_ANGLE_UNIT ( ) );
#158 = DIRECTION ( 'NONE',  ( 0.000000000000000000, 0.000000000000000000, -1.000000000000000000 ) ) ;
#159 = DIRECTION ( 'NONE',  ( 0.000000000000000000, -0.000000000000000000, 1.000000000000000000 ) ) ;
#160 = DIRECTION ( 'NONE',  ( 0.000000000000000000, 1.000000000000000000, 0.000000000000000000 ) ) ;
#161 = COLOUR_RGB ( '',1.000000000000000000, 0.000000000000000000, 0.000000000000000000 ) ;
#162 = ADVANCED_FACE ( 'NONE', ( #207 ), #253, .T. ) ;
#163 = CARTESIAN_POINT ( 'NONE',  ( -6.123233995736766036E-17, 2.500000000000000000, 0.000000000000000000 ) ) ;
#164 = CIRCLE ( 'NONE', #86, 0.09375000000000001388 ) ;
#165 = CARTESIAN_POINT ( 'NONE',  ( 1.148106374200643863E-17, 0.000000000000000000, 0.09375000000000001388 ) ) ;
#166 = VERTEX_POINT ( 'NONE', #281 ) ;
#167 = SURFACE_STYLE_USAGE ( .BOTH. , #192 ) ;
#168 = MECHANICAL_DESIGN_GEOMETRIC_PRESENTATION_REPRESENTATION (  '', ( #294 ), #140 ) ;
#169 = EDGE_LOOP ( 'NONE', ( #119, #268 ) ) ;
#170 = PLANE ( 'NONE',  #92 ) ;
#171 = ORIENTED_EDGE ( 'NONE', *, *, #54, .T. ) ;
#172 = AXIS2_PLACEMENT_3D ( 'NONE', #81, #257, #124 ) ;
#173 = DIRECTION ( 'NONE',  ( 0.000000000000000000, 0.000000000000000000, -1.000000000000000000 ) ) ;
#174 = AXIS2_PLACEMENT_3D ( 'NONE', #101, #160, #159 ) ;
#175 = EDGE_LOOP ( 'NONE', ( #177, #189, #132, #270 ) ) ;
#176 =( NAMED_UNIT ( * ) SI_UNIT ( $, .STERADIAN. ) SOLID_ANGLE_UNIT ( ) );
#177 = ORIENTED_EDGE ( 'NONE', *, *, #213, .T. ) ;
#178 = DIRECTION ( 'NONE',  ( 1.000000000000000000, 0.000000000000000000, 0.000000000000000000 ) ) ;
#179 = FILL_AREA_STYLE_COLOUR ( '', #2 ) ;
#180 = PRESENTATION_LAYER_ASSIGNMENT (  '', '', ( #39 ) ) ;
#181 =( CONVERSION_BASED_UNIT ( 'INCH', #244 ) LENGTH_UNIT ( ) NAMED_UNIT ( #33 ) );
#182 = SURFACE_SIDE_STYLE ('',( #49 ) ) ;
#183 = EDGE_CURVE ( 'NONE', #278, #149, #209, .T. ) ;
#184 = AXIS2_PLACEMENT_3D ( 'NONE', #121, #193, #282 ) ;
#185 = CIRCLE ( 'NONE', #30, 0.09375000000000006939 ) ;
#186 = PRESENTATION_STYLE_ASSIGNMENT (( #234 ) ) ;
#187 = CARTESIAN_POINT ( 'NONE',  ( 0.000000000000000000, 0.000000000000000000, -0.09375000000000001388 ) ) ;
#188 = SURFACE_STYLE_FILL_AREA ( #34 ) ;
#189 = ORIENTED_EDGE ( 'NONE', *, *, #8, .T. ) ;
#190 = SURFACE_STYLE_FILL_AREA ( #219 ) ;
#191 = AXIS2_PLACEMENT_3D ( 'NONE', #67, #51, #131 ) ;
#192 = SURFACE_SIDE_STYLE ('',( #190 ) ) ;
#193 = DIRECTION ( 'NONE',  ( 0.000000000000000000, -1.000000000000000000, -0.000000000000000000 ) ) ;
#194 = ORIENTED_EDGE ( 'NONE', *, *, #125, .F. ) ;
#195 =( GEOMETRIC_REPRESENTATION_CONTEXT ( 3 ) GLOBAL_UNCERTAINTY_ASSIGNED_CONTEXT ( ( #297 ) ) GLOBAL_UNIT_ASSIGNED_CONTEXT ( ( #144, #105, #308 ) ) REPRESENTATION_CONTEXT ( 'NONE', 'WORKASPACE' ) );
#196 = CARTESIAN_POINT ( 'NONE',  ( 0.000000000000000000, 0.000000000000000000, 0.000000000000000000 ) ) ;
#197 = VECTOR ( 'NONE', #118, 39.37007874015748143 ) ;
#198 = DIRECTION ( 'NONE',  ( -0.000000000000000000, -1.000000000000000000, -0.000000000000000000 ) ) ;
#199 = ORIENTED_EDGE ( 'NONE', *, *, #154, .F. ) ;
#200 = ORIENTED_EDGE ( 'NONE', *, *, #89, .F. ) ;
#201 = DIRECTION ( 'NONE',  ( -0.000000000000000000, -1.000000000000000000, -0.000000000000000000 ) ) ;
#202 = EDGE_LOOP ( 'NONE', ( #283, #226, #61, #199 ) ) ;
#203 = EDGE_CURVE ( 'NONE', #166, #306, #222, .T. ) ;
#204 = LENGTH_MEASURE_WITH_UNIT ( LENGTH_MEASURE( 0.02539999999999999897 ), #296 );
#205 = ADVANCED_FACE ( 'NONE', ( #43 ), #238, .T. ) ;
#206 = MECHANICAL_DESIGN_GEOMETRIC_PRESENTATION_REPRESENTATION (  '', ( #233 ), #76 ) ;
#207 = FACE_OUTER_BOUND ( 'NONE', #309, .T. ) ;
#208 = FILL_AREA_STYLE ('',( #109 ) ) ;
#209 = CIRCLE ( 'NONE', #241, 0.09375000000000001388 ) ;
#210 = SURFACE_SIDE_STYLE ('',( #277 ) ) ;
#211 = DIRECTION ( 'NONE',  ( -0.000000000000000000, -1.000000000000000000, -0.000000000000000000 ) ) ;
#212 = LINE ( 'NONE', #11, #197 ) ;
#213 = EDGE_CURVE ( 'NONE', #149, #278, #47, .T. ) ;
#214 =( NAMED_UNIT ( * ) SI_UNIT ( $, .STERADIAN. ) SOLID_ANGLE_UNIT ( ) );
#215 = ORIENTED_EDGE ( 'NONE', *, *, #106, .F. ) ;
#216 = CIRCLE ( 'NONE', #191, 0.09375000000000001388 ) ;
#217 = CLOSED_SHELL ( 'NONE', ( #205, #116, #75, #142 ) ) ;
#218 = CARTESIAN_POINT ( 'NONE',  ( 0.000000000000000000, 0.5625000000000000000, -0.09375000000000001388 ) ) ;
#219 = FILL_AREA_STYLE ('',( #147 ) ) ;
#220 = SURFACE_STYLE_USAGE ( .BOTH. , #128 ) ;
#221 = PRODUCT_DEFINITION_CONTEXT ( 'detailed design', #45, 'design' ) ;
#222 = CIRCLE ( 'NONE', #3, 0.09375000000000006939 ) ;
#223 = DIRECTION ( 'NONE',  ( 0.000000000000000000, 0.000000000000000000, 1.000000000000000000 ) ) ;
#224 = AXIS2_PLACEMENT_3D ( 'NONE', #111, #59, #235 ) ;
#225 =( LENGTH_UNIT ( ) NAMED_UNIT ( * ) SI_UNIT ( $, .METRE. ) );
#226 = ORIENTED_EDGE ( 'NONE', *, *, #89, .T. ) ;
#227 = DIRECTION ( 'NONE',  ( -0.000000000000000000, -1.000000000000000000, -0.000000000000000000 ) ) ;
#228 = PRESENTATION_LAYER_ASSIGNMENT (  '', '', ( #80 ) ) ;
#229 = ORIENTED_EDGE ( 'NONE', *, *, #154, .T. ) ;
#230 = EDGE_CURVE ( 'NONE', #306, #166, #185, .T. ) ;
#231 = COLOUR_RGB ( '',1.000000000000000000, 0.000000000000000000, 0.000000000000000000 ) ;
#232 = DIRECTION ( 'NONE',  ( -3.160378836509298460E-17, 1.000000000000000000, -0.000000000000000000 ) ) ;
#233 = STYLED_ITEM ( 'NONE', ( #155 ), #133 ) ;
#234 = SURFACE_STYLE_USAGE ( .BOTH. , #88 ) ;
#235 = DIRECTION ( 'NONE',  ( 0.000000000000000000, 0.000000000000000000, -1.000000000000000000 ) ) ;
#236 = APPLICATION_CONTEXT ( 'automotive_design' ) ;
#237 = VERTEX_POINT ( 'NONE', #187 ) ;
#238 = CYLINDRICAL_SURFACE ( 'NONE', #252, 0.09375000000000004163 ) ;
#239 = DIRECTION ( 'NONE',  ( -3.160378836509298460E-17, 1.000000000000000000, -0.000000000000000000 ) ) ;
#240 = STYLED_ITEM ( 'NONE', ( #107 ), #28 ) ;
#241 = AXIS2_PLACEMENT_3D ( 'NONE', #120, #262, #10 ) ;
#242 = UNCERTAINTY_MEASURE_WITH_UNIT (LENGTH_MEASURE( 1.000000000000000082E-05 ), #181, 'distance_accuracy_value', 'NONE');
#243 = CARTESIAN_POINT ( 'NONE',  ( 4.681872370432437776E-35, 0.5625000000000000000, 0.000000000000000000 ) ) ;
#244 = LENGTH_MEASURE_WITH_UNIT ( LENGTH_MEASURE( 0.02539999999999999897 ), #225 );
#245 =( CONVERSION_BASED_UNIT ( 'INCH', #305 ) LENGTH_UNIT ( ) NAMED_UNIT ( #293 ) );
#246 = EDGE_LOOP ( 'NONE', ( #18, #263, #269, #97 ) ) ;
#247 = ADVANCED_FACE ( 'NONE', ( #35 ), #117, .T. ) ;
#248 = LINE ( 'NONE', #74, #57 ) ;
#249 = LINE ( 'NONE', #288, #46 ) ;
#250 = PRODUCT ( '00107', '00107', '', ( #304 ) ) ;
#251 = PRESENTATION_LAYER_ASSIGNMENT (  '', '', ( #240 ) ) ;
#252 = AXIS2_PLACEMENT_3D ( 'NONE', #87, #41, #113 ) ;
#253 = CYLINDRICAL_SURFACE ( 'NONE', #172, 0.09375000000000001388 ) ;
#254 = DIMENSIONAL_EXPONENTS ( 1.000000000000000000, 0.000000000000000000, 0.000000000000000000, 0.000000000000000000, 0.000000000000000000, 0.000000000000000000, 0.000000000000000000 ) ;
#255 = LINE ( 'NONE', #38, #259 ) ;
#256 = CARTESIAN_POINT ( 'NONE',  ( 0.000000000000000000, 0.5625000000000001110, 0.000000000000000000 ) ) ;
#257 = DIRECTION ( 'NONE',  ( -0.000000000000000000, -1.000000000000000000, -0.000000000000000000 ) ) ;
#258 = ADVANCED_BREP_SHAPE_REPRESENTATION ( '00107', ( #36, #28, #58 ), #84 ) ;
#259 = VECTOR ( 'NONE', #211, 39.37007874015748143 ) ;
#260 = UNCERTAINTY_MEASURE_WITH_UNIT (LENGTH_MEASURE( 1.000000000000000082E-05 ), #292, 'distance_accuracy_value', 'NONE');
#261 = LENGTH_MEASURE_WITH_UNIT ( LENGTH_MEASURE( 0.02539999999999999897 ), #303 );
#262 = DIRECTION ( 'NONE',  ( -3.160378836509298460E-17, 1.000000000000000000, -0.000000000000000000 ) ) ;
#263 = ORIENTED_EDGE ( 'NONE', *, *, #183, .T. ) ;
#264 =( LENGTH_UNIT ( ) NAMED_UNIT ( * ) SI_UNIT ( $, .METRE. ) );
#265 = DIRECTION ( 'NONE',  ( 3.160378836509298460E-17, -1.000000000000000000, 0.000000000000000000 ) ) ;
#266 = FILL_AREA_STYLE ('',( #71 ) ) ;
#267 = SURFACE_STYLE_FILL_AREA ( #152 ) ;
#268 = ORIENTED_EDGE ( 'NONE', *, *, #183, .F. ) ;
#269 = ORIENTED_EDGE ( 'NONE', *, *, #20, .T. ) ;
#270 = ORIENTED_EDGE ( 'NONE', *, *, #20, .F. ) ;
#271 = DIRECTION ( 'NONE',  ( -3.160378836509298460E-17, 1.000000000000000000, -0.000000000000000000 ) ) ;
#272 =( NAMED_UNIT ( * ) PLANE_ANGLE_UNIT ( ) SI_UNIT ( $, .RADIAN. ) );
#273 = DIMENSIONAL_EXPONENTS ( 1.000000000000000000, 0.000000000000000000, 0.000000000000000000, 0.000000000000000000, 0.000000000000000000, 0.000000000000000000, 0.000000000000000000 ) ;
#274 = DIMENSIONAL_EXPONENTS ( 1.000000000000000000, 0.000000000000000000, 0.000000000000000000, 0.000000000000000000, 0.000000000000000000, 0.000000000000000000, 0.000000000000000000 ) ;
#275 =( CONVERSION_BASED_UNIT ( 'INCH', #7 ) LENGTH_UNIT ( ) NAMED_UNIT ( #274 ) );
#276 = CLOSED_SHELL ( 'NONE', ( #247, #4, #162, #133 ) ) ;
#277 = SURFACE_STYLE_FILL_AREA ( #208 ) ;
#278 = VERTEX_POINT ( 'NONE', #137 ) ;
#279 = DIRECTION ( 'NONE',  ( -3.160378836509298460E-17, 1.000000000000000000, -0.000000000000000000 ) ) ;
#280 = PRESENTATION_LAYER_ASSIGNMENT (  '', '', ( #294 ) ) ;
#281 = CARTESIAN_POINT ( 'NONE',  ( -0.09375000000000013878, 2.500000000000000000, 0.000000000000000000 ) ) ;
#282 = DIRECTION ( 'NONE',  ( 0.000000000000000000, 0.000000000000000000, -1.000000000000000000 ) ) ;
#283 = ORIENTED_EDGE ( 'NONE', *, *, #125, .T. ) ;
#284 = CARTESIAN_POINT ( 'NONE',  ( 1.148106374200643863E-17, 0.5625000000000000000, 0.09375000000000001388 ) ) ;
#285 = PRESENTATION_STYLE_ASSIGNMENT (( #153 ) ) ;
#286 =( GEOMETRIC_REPRESENTATION_CONTEXT ( 3 ) GLOBAL_UNCERTAINTY_ASSIGNED_CONTEXT ( ( #12 ) ) GLOBAL_UNIT_ASSIGNED_CONTEXT ( ( #300, #90, #40 ) ) REPRESENTATION_CONTEXT ( 'NONE', 'WORKASPACE' ) );
#287 = PLANE ( 'NONE',  #138 ) ;
#288 = CARTESIAN_POINT ( 'NONE',  ( -0.09375000000000011102, 2.500000000000000000, 0.000000000000000000 ) ) ;
#289 = FACE_OUTER_BOUND ( 'NONE', #14, .T. ) ;
#290 = MECHANICAL_DESIGN_GEOMETRIC_PRESENTATION_REPRESENTATION (  '', ( #62 ), #16 ) ;
#291 = PRODUCT_DEFINITION_FORMATION_WITH_SPECIFIED_SOURCE ( 'ANY', '', #250, .NOT_KNOWN. ) ;
#292 =( CONVERSION_BASED_UNIT ( 'INCH', #204 ) LENGTH_UNIT ( ) NAMED_UNIT ( #141 ) );
#293 = DIMENSIONAL_EXPONENTS ( 1.000000000000000000, 0.000000000000000000, 0.000000000000000000, 0.000000000000000000, 0.000000000000000000, 0.000000000000000000, 0.000000000000000000 ) ;
#294 = STYLED_ITEM ( 'NONE', ( #186 ), #162 ) ;
#295 =( LENGTH_UNIT ( ) NAMED_UNIT ( * ) SI_UNIT ( $, .METRE. ) );
#296 =( LENGTH_UNIT ( ) NAMED_UNIT ( * ) SI_UNIT ( $, .METRE. ) );
#297 = UNCERTAINTY_MEASURE_WITH_UNIT (LENGTH_MEASURE( 1.000000000000000082E-05 ), #144, 'distance_accuracy_value', 'NONE');
#298 = SURFACE_STYLE_USAGE ( .BOTH. , #210 ) ;
#299 = AXIS2_PLACEMENT_3D ( 'NONE', #163, #232, #115 ) ;
#300 =( CONVERSION_BASED_UNIT ( 'INCH', #32 ) LENGTH_UNIT ( ) NAMED_UNIT ( #5 ) );
#301 = CARTESIAN_POINT ( 'NONE',  ( -6.123233995736766036E-17, 2.500000000000000000, 0.000000000000000000 ) ) ;
#302 = COLOUR_RGB ( '',0.7921568627450980005, 0.8196078431372548767, 0.9333333333333333481 ) ;
#303 =( LENGTH_UNIT ( ) NAMED_UNIT ( * ) SI_UNIT ( $, .METRE. ) );
#304 = PRODUCT_CONTEXT ( 'NONE', #236, 'mechanical' ) ;
#305 = LENGTH_MEASURE_WITH_UNIT ( LENGTH_MEASURE( 0.02539999999999999897 ), #264 );
#306 = VERTEX_POINT ( 'NONE', #24 ) ;
#307 = EDGE_CURVE ( 'NONE', #63, #237, #164, .T. ) ;
#308 =( NAMED_UNIT ( * ) SI_UNIT ( $, .STERADIAN. ) SOLID_ANGLE_UNIT ( ) );
#309 = EDGE_LOOP ( 'NONE', ( #200, #98, #229, #26 ) ) ;
ENDSEC;
END-ISO-10303-21;
