ISO-10303-21;
HEADER;
FILE_DESCRIPTION (( 'STEP AP214' ),
    '1' );
FILE_NAME ('81704.STEP',
    '2023-06-23T02:38:36',
    ( '' ),
    ( '' ),
    'SwSTEP 2.0',
    'SolidWorks 2023',
    '' );
FILE_SCHEMA (( 'AUTOMOTIVE_DESIGN' ));
ENDSEC;

DATA;
#1 = PRODUCT_RELATED_PRODUCT_CATEGORY ( 'part', '', ( #143 ) ) ;
#2 = FACE_OUTER_BOUND ( 'NONE', #262, .T. ) ;
#3 = CARTESIAN_POINT ( 'NONE',  ( -0.09375000000000004163, 2.500000000000000000, 0.000000000000000000 ) ) ;
#4 = PRESENTATION_LAYER_ASSIGNMENT (  '', '', ( #153 ) ) ;
#5 = CARTESIAN_POINT ( 'NONE',  ( 7.582401355855259480E-33, 0.4374999999999998890, 0.000000000000000000 ) ) ;
#6 = CARTESIAN_POINT ( 'NONE',  ( 0.000000000000000000, 0.4375000000000000000, -0.07809999999999997500 ) ) ;
#7 =( LENGTH_UNIT ( ) NAMED_UNIT ( * ) SI_UNIT ( $, .METRE. ) );
#8 = CLOSED_SHELL ( 'NONE', ( #39, #59, #248, #219 ) ) ;
#9 = AXIS2_PLACEMENT_3D ( 'NONE', #124, #154, #340 ) ;
#10 = CARTESIAN_POINT ( 'NONE',  ( 9.564491501340826783E-18, 0.4375000000000000000, 0.07809999999999997500 ) ) ;
#11 = EDGE_CURVE ( 'NONE', #155, #21, #352, .T. ) ;
#12 = PRESENTATION_STYLE_ASSIGNMENT (( #211 ) ) ;
#13 =( NAMED_UNIT ( * ) SI_UNIT ( $, .STERADIAN. ) SOLID_ANGLE_UNIT ( ) );
#14 = COLOUR_RGB ( '',0.7921568627450980005, 0.8196078431372548767, 0.9333333333333333481 ) ;
#15 = ORIENTED_EDGE ( 'NONE', *, *, #47, .F. ) ;
#16 = DIRECTION ( 'NONE',  ( 0.000000000000000000, 0.000000000000000000, -1.000000000000000000 ) ) ;
#17 = EDGE_CURVE ( 'NONE', #250, #75, #238, .T. ) ;
#18 = DIRECTION ( 'NONE',  ( 0.000000000000000000, -1.000000000000000000, -0.000000000000000000 ) ) ;
#19 = EDGE_LOOP ( 'NONE', ( #127, #103, #237, #100 ) ) ;
#20 = MECHANICAL_DESIGN_GEOMETRIC_PRESENTATION_REPRESENTATION (  '', ( #281 ), #95 ) ;
#21 = VERTEX_POINT ( 'NONE', #139 ) ;
#22 = VECTOR ( 'NONE', #297, 39.37007874015748143 ) ;
#23 =( NAMED_UNIT ( * ) SI_UNIT ( $, .STERADIAN. ) SOLID_ANGLE_UNIT ( ) );
#24 = CARTESIAN_POINT ( 'NONE',  ( 0.000000000000000000, 0.000000000000000000, 0.000000000000000000 ) ) ;
#25 =( LENGTH_UNIT ( ) NAMED_UNIT ( * ) SI_UNIT ( $, .METRE. ) );
#26 = FACE_OUTER_BOUND ( 'NONE', #130, .T. ) ;
#27 = DIRECTION ( 'NONE',  ( -2.968840725205704707E-17, 1.000000000000000000, -0.000000000000000000 ) ) ;
#28 =( CONVERSION_BASED_UNIT ( 'INCH', #60 ) LENGTH_UNIT ( ) NAMED_UNIT ( #206 ) );
#29 = COLOUR_RGB ( '',1.000000000000000000, 0.000000000000000000, 0.000000000000000000 ) ;
#30 = SURFACE_SIDE_STYLE ('',( #272 ) ) ;
#31 = DIRECTION ( 'NONE',  ( -1.000000000000000000, 0.000000000000000000, 0.000000000000000000 ) ) ;
#32 = UNCERTAINTY_MEASURE_WITH_UNIT (LENGTH_MEASURE( 1.000000000000000082E-05 ), #306, 'distance_accuracy_value', 'NONE');
#33 =( NAMED_UNIT ( * ) PLANE_ANGLE_UNIT ( ) SI_UNIT ( $, .RADIAN. ) );
#34 = DIRECTION ( 'NONE',  ( 0.000000000000000000, 0.000000000000000000, -1.000000000000000000 ) ) ;
#35 = AXIS2_PLACEMENT_3D ( 'NONE', #347, #18, #16 ) ;
#36 = DIRECTION ( 'NONE',  ( -2.968840725205704707E-17, 1.000000000000000000, 0.000000000000000000 ) ) ;
#37 = FILL_AREA_STYLE_COLOUR ( '', #14 ) ;
#38 = DIRECTION ( 'NONE',  ( 0.000000000000000000, 1.000000000000000000, 0.000000000000000000 ) ) ;
#39 = ADVANCED_FACE ( 'NONE', ( #2 ), #160, .T. ) ;
#40 = CIRCLE ( 'NONE', #239, 0.09375000000000001388 ) ;
#41 = CARTESIAN_POINT ( 'NONE',  ( 0.000000000000000000, 0.4375000000000000000, 0.000000000000000000 ) ) ;
#42 = CARTESIAN_POINT ( 'NONE',  ( -0.09375000000000006939, 2.500000000000000000, 0.000000000000000000 ) ) ;
#43 = VERTEX_POINT ( 'NONE', #242 ) ;
#44 = FILL_AREA_STYLE_COLOUR ( '', #29 ) ;
#45 = VECTOR ( 'NONE', #247, 39.37007874015748143 ) ;
#46 = CONICAL_SURFACE ( 'NONE', #190, 0.07809999999999997500, 0.3490658503988654515 ) ;
#47 = EDGE_CURVE ( 'NONE', #178, #261, #136, .T. ) ;
#48 = ORIENTED_EDGE ( 'NONE', *, *, #266, .T. ) ;
#49 =( LENGTH_UNIT ( ) NAMED_UNIT ( * ) SI_UNIT ( $, .METRE. ) );
#50 = ADVANCED_FACE ( 'NONE', ( #26 ), #185, .T. ) ;
#51 = DIRECTION ( 'NONE',  ( -0.000000000000000000, -1.000000000000000000, -0.000000000000000000 ) ) ;
#52 = ORIENTED_EDGE ( 'NONE', *, *, #111, .T. ) ;
#53 =( NAMED_UNIT ( * ) PLANE_ANGLE_UNIT ( ) SI_UNIT ( $, .RADIAN. ) );
#54 = PRESENTATION_STYLE_ASSIGNMENT (( #295 ) ) ;
#55 =( LENGTH_UNIT ( ) NAMED_UNIT ( * ) SI_UNIT ( $, .METRE. ) );
#56 = FACE_OUTER_BOUND ( 'NONE', #19, .T. ) ;
#57 = ORIENTED_EDGE ( 'NONE', *, *, #17, .T. ) ;
#58 =( GEOMETRIC_REPRESENTATION_CONTEXT ( 3 ) GLOBAL_UNCERTAINTY_ASSIGNED_CONTEXT ( ( #308 ) ) GLOBAL_UNIT_ASSIGNED_CONTEXT ( ( #28, #33, #319 ) ) REPRESENTATION_CONTEXT ( 'NONE', 'WORKASPACE' ) );
#59 = ADVANCED_FACE ( 'NONE', ( #82 ), #215, .T. ) ;
#60 = LENGTH_MEASURE_WITH_UNIT ( LENGTH_MEASURE( 0.02539999999999999897 ), #274 );
#61 = UNCERTAINTY_MEASURE_WITH_UNIT (LENGTH_MEASURE( 1.000000000000000082E-05 ), #79, 'distance_accuracy_value', 'NONE');
#62 = LENGTH_MEASURE_WITH_UNIT ( LENGTH_MEASURE( 0.02539999999999999897 ), #55 );
#63 = EDGE_CURVE ( 'NONE', #312, #21, #141, .T. ) ;
#64 = LINE ( 'NONE', #3, #316 ) ;
#65 = DIRECTION ( 'NONE',  ( -0.000000000000000000, -1.000000000000000000, -0.000000000000000000 ) ) ;
#66 = DIRECTION ( 'NONE',  ( -1.000000000000000000, 0.000000000000000000, 0.000000000000000000 ) ) ;
#67 = PRODUCT_DEFINITION ( 'UNKNOWN', '', #336, #330 ) ;
#68 = STYLED_ITEM ( 'NONE', ( #269 ), #39 ) ;
#69 = CIRCLE ( 'NONE', #159, 0.07810000000000000275 ) ;
#70 = ORIENTED_EDGE ( 'NONE', *, *, #213, .T. ) ;
#71 =( NAMED_UNIT ( * ) PLANE_ANGLE_UNIT ( ) SI_UNIT ( $, .RADIAN. ) );
#72 = EDGE_LOOP ( 'NONE', ( #120, #289 ) ) ;
#73 = ORIENTED_EDGE ( 'NONE', *, *, #327, .T. ) ;
#74 = MECHANICAL_DESIGN_GEOMETRIC_PRESENTATION_REPRESENTATION (  '', ( #263 ), #112 ) ;
#75 = VERTEX_POINT ( 'NONE', #254 ) ;
#76 = ORIENTED_EDGE ( 'NONE', *, *, #125, .T. ) ;
#77 = EDGE_CURVE ( 'NONE', #155, #158, #321, .T. ) ;
#78 = FILL_AREA_STYLE ('',( #320 ) ) ;
#79 =( CONVERSION_BASED_UNIT ( 'INCH', #83 ) LENGTH_UNIT ( ) NAMED_UNIT ( #188 ) );
#80 =( NAMED_UNIT ( * ) SI_UNIT ( $, .STERADIAN. ) SOLID_ANGLE_UNIT ( ) );
#81 = ADVANCED_FACE ( 'NONE', ( #170 ), #46, .T. ) ;
#82 = FACE_OUTER_BOUND ( 'NONE', #109, .T. ) ;
#83 = LENGTH_MEASURE_WITH_UNIT ( LENGTH_MEASURE( 0.02539999999999999897 ), #25 );
#84 = ORIENTED_EDGE ( 'NONE', *, *, #266, .F. ) ;
#85 = CIRCLE ( 'NONE', #116, 0.07809999999999997500 ) ;
#86 = CARTESIAN_POINT ( 'NONE',  ( 0.000000000000000000, 0.4375000000000000000, 0.000000000000000000 ) ) ;
#87 = CARTESIAN_POINT ( 'NONE',  ( 9.564491501340826783E-18, 0.000000000000000000, 0.07809999999999997500 ) ) ;
#88 = SURFACE_STYLE_USAGE ( .BOTH. , #307 ) ;
#89 = AXIS2_PLACEMENT_3D ( 'NONE', #119, #314, #94 ) ;
#90 = DIMENSIONAL_EXPONENTS ( 1.000000000000000000, 0.000000000000000000, 0.000000000000000000, 0.000000000000000000, 0.000000000000000000, 0.000000000000000000, 0.000000000000000000 ) ;
#91 = DIRECTION ( 'NONE',  ( -0.000000000000000000, -1.000000000000000000, -0.000000000000000000 ) ) ;
#92 = DIRECTION ( 'NONE',  ( 0.000000000000000000, -0.000000000000000000, 1.000000000000000000 ) ) ;
#93 = EDGE_CURVE ( 'NONE', #250, #178, #278, .T. ) ;
#94 = DIRECTION ( 'NONE',  ( -1.000000000000000000, 0.000000000000000000, 0.000000000000000000 ) ) ;
#95 =( GEOMETRIC_REPRESENTATION_CONTEXT ( 3 ) GLOBAL_UNCERTAINTY_ASSIGNED_CONTEXT ( ( #166 ) ) GLOBAL_UNIT_ASSIGNED_CONTEXT ( ( #195, #280, #337 ) ) REPRESENTATION_CONTEXT ( 'NONE', 'WORKASPACE' ) );
#96 = CIRCLE ( 'NONE', #253, 0.09374999999999994449 ) ;
#97 = CYLINDRICAL_SURFACE ( 'NONE', #108, 0.07809999999999997500 ) ;
#98 = ORIENTED_EDGE ( 'NONE', *, *, #93, .T. ) ;
#99 = SURFACE_STYLE_FILL_AREA ( #234 ) ;
#100 = ORIENTED_EDGE ( 'NONE', *, *, #125, .F. ) ;
#101 = FACE_OUTER_BOUND ( 'NONE', #164, .T. ) ;
#102 = ADVANCED_FACE ( 'NONE', ( #251 ), #169, .T. ) ;
#103 = ORIENTED_EDGE ( 'NONE', *, *, #47, .T. ) ;
#104 = CARTESIAN_POINT ( 'NONE',  ( 9.564491501340828324E-18, 0.000000000000000000, 0.07810000000000000275 ) ) ;
#105 = ADVANCED_BREP_SHAPE_REPRESENTATION ( '81704', ( #284, #165, #322 ), #147 ) ;
#106 = CARTESIAN_POINT ( 'NONE',  ( 0.000000000000000000, 0.000000000000000000, -0.07809999999999997500 ) ) ;
#107 = SURFACE_STYLE_USAGE ( .BOTH. , #110 ) ;
#108 = AXIS2_PLACEMENT_3D ( 'NONE', #135, #323, #214 ) ;
#109 = EDGE_LOOP ( 'NONE', ( #267, #84 ) ) ;
#110 = SURFACE_SIDE_STYLE ('',( #244 ) ) ;
#111 = EDGE_CURVE ( 'NONE', #75, #250, #342, .T. ) ;
#112 =( GEOMETRIC_REPRESENTATION_CONTEXT ( 3 ) GLOBAL_UNCERTAINTY_ASSIGNED_CONTEXT ( ( #140 ) ) GLOBAL_UNIT_ASSIGNED_CONTEXT ( ( #202, #53, #80 ) ) REPRESENTATION_CONTEXT ( 'NONE', 'WORKASPACE' ) );
#113 = DIRECTION ( 'NONE',  ( -2.968840725205704707E-17, 1.000000000000000000, -0.000000000000000000 ) ) ;
#114 = DIRECTION ( 'NONE',  ( -1.000000000000000000, 0.000000000000000000, 0.000000000000000000 ) ) ;
#115 = DIRECTION ( 'NONE',  ( 0.000000000000000000, 0.000000000000000000, 1.000000000000000000 ) ) ;
#116 = AXIS2_PLACEMENT_3D ( 'NONE', #216, #351, #324 ) ;
#117 = EDGE_CURVE ( 'NONE', #158, #312, #199, .T. ) ;
#118 = PLANE ( 'NONE',  #9 ) ;
#119 = CARTESIAN_POINT ( 'NONE',  ( -1.276542776722972501E-18, 0.4804980216144646987, 0.000000000000000000 ) ) ;
#120 = ORIENTED_EDGE ( 'NONE', *, *, #339, .T. ) ;
#121 = CIRCLE ( 'NONE', #328, 0.09375000000000001388 ) ;
#122 = LENGTH_MEASURE_WITH_UNIT ( LENGTH_MEASURE( 0.02539999999999999897 ), #264 );
#123 = EDGE_LOOP ( 'NONE', ( #203, #176 ) ) ;
#124 = CARTESIAN_POINT ( 'NONE',  ( 0.09374999999999994449, 2.500000000000000000, 0.000000000000000000 ) ) ;
#125 = EDGE_CURVE ( 'NONE', #43, #167, #64, .T. ) ;
#126 =( NAMED_UNIT ( * ) SI_UNIT ( $, .STERADIAN. ) SOLID_ANGLE_UNIT ( ) );
#127 = ORIENTED_EDGE ( 'NONE', *, *, #355, .T. ) ;
#128 = AXIS2_PLACEMENT_3D ( 'NONE', #134, #217, #270 ) ;
#129 = LENGTH_MEASURE_WITH_UNIT ( LENGTH_MEASURE( 0.02539999999999999897 ), #49 );
#130 = EDGE_LOOP ( 'NONE', ( #15, #70, #76, #207 ) ) ;
#131 = CARTESIAN_POINT ( 'NONE',  ( 0.000000000000000000, 0.000000000000000000, 0.000000000000000000 ) ) ;
#132 = DIRECTION ( 'NONE',  ( -0.000000000000000000, -1.000000000000000000, -0.000000000000000000 ) ) ;
#133 = DIRECTION ( 'NONE',  ( -1.000000000000000000, 0.000000000000000000, 0.000000000000000000 ) ) ;
#134 = CARTESIAN_POINT ( 'NONE',  ( -6.123233995736766036E-17, 2.500000000000000000, 0.000000000000000000 ) ) ;
#135 = CARTESIAN_POINT ( 'NONE',  ( 0.000000000000000000, 0.000000000000000000, 0.000000000000000000 ) ) ;
#136 = LINE ( 'NONE', #359, #145 ) ;
#137 = DIMENSIONAL_EXPONENTS ( 1.000000000000000000, 0.000000000000000000, 0.000000000000000000, 0.000000000000000000, 0.000000000000000000, 0.000000000000000000, 0.000000000000000000 ) ;
#138 =( NAMED_UNIT ( * ) PLANE_ANGLE_UNIT ( ) SI_UNIT ( $, .RADIAN. ) );
#139 = CARTESIAN_POINT ( 'NONE',  ( 0.000000000000000000, 0.000000000000000000, -0.07810000000000000275 ) ) ;
#140 = UNCERTAINTY_MEASURE_WITH_UNIT (LENGTH_MEASURE( 1.000000000000000082E-05 ), #202, 'distance_accuracy_value', 'NONE');
#141 = CIRCLE ( 'NONE', #341, 0.07810000000000000275 ) ;
#142 = PLANE ( 'NONE',  #276 ) ;
#143 = PRODUCT ( '81704', '81704', '', ( #198 ) ) ;
#144 = CARTESIAN_POINT ( 'NONE',  ( 0.000000000000000000, 0.000000000000000000, 0.000000000000000000 ) ) ;
#145 = VECTOR ( 'NONE', #296, 39.37007874015748143 ) ;
#146 = CIRCLE ( 'NONE', #89, 0.09374999999999994449 ) ;
#147 =( GEOMETRIC_REPRESENTATION_CONTEXT ( 3 ) GLOBAL_UNCERTAINTY_ASSIGNED_CONTEXT ( ( #223 ) ) GLOBAL_UNIT_ASSIGNED_CONTEXT ( ( #240, #279, #300 ) ) REPRESENTATION_CONTEXT ( 'NONE', 'WORKASPACE' ) );
#148 = ADVANCED_FACE ( 'NONE', ( #168 ), #142, .F. ) ;
#149 = SURFACE_SIDE_STYLE ('',( #232 ) ) ;
#150 = EDGE_LOOP ( 'NONE', ( #283, #57, #182, #212 ) ) ;
#151 = PRESENTATION_STYLE_ASSIGNMENT (( #260 ) ) ;
#152 = ORIENTED_EDGE ( 'NONE', *, *, #117, .T. ) ;
#153 = STYLED_ITEM ( 'NONE', ( #257 ), #165 ) ;
#154 = DIRECTION ( 'NONE',  ( 2.968840725205704707E-17, -1.000000000000000000, 0.000000000000000000 ) ) ;
#155 = VERTEX_POINT ( 'NONE', #6 ) ;
#156 = DIRECTION ( 'NONE',  ( -2.968840725205704707E-17, 1.000000000000000000, -0.000000000000000000 ) ) ;
#157 = DIMENSIONAL_EXPONENTS ( 1.000000000000000000, 0.000000000000000000, 0.000000000000000000, 0.000000000000000000, 0.000000000000000000, 0.000000000000000000, 0.000000000000000000 ) ;
#158 = VERTEX_POINT ( 'NONE', #10 ) ;
#159 = AXIS2_PLACEMENT_3D ( 'NONE', #131, #51, #353 ) ;
#160 = CYLINDRICAL_SURFACE ( 'NONE', #348, 0.07809999999999997500 ) ;
#161 = FILL_AREA_STYLE_COLOUR ( '', #163 ) ;
#162 = DIMENSIONAL_EXPONENTS ( 1.000000000000000000, 0.000000000000000000, 0.000000000000000000, 0.000000000000000000, 0.000000000000000000, 0.000000000000000000, 0.000000000000000000 ) ;
#163 = COLOUR_RGB ( '',0.7921568627450980005, 0.8196078431372548767, 0.9333333333333333481 ) ;
#164 = EDGE_LOOP ( 'NONE', ( #181, #48, #311, #326 ) ) ;
#165 = MANIFOLD_SOLID_BREP ( 'Revolve - Tool Body (Reduced Cut Diameter)', #196 ) ;
#166 = UNCERTAINTY_MEASURE_WITH_UNIT (LENGTH_MEASURE( 1.000000000000000082E-05 ), #195, 'distance_accuracy_value', 'NONE');
#167 = VERTEX_POINT ( 'NONE', #42 ) ;
#168 = FACE_OUTER_BOUND ( 'NONE', #123, .T. ) ;
#169 = CONICAL_SURFACE ( 'NONE', #197, 0.07809999999999997500, 0.3490658503988654515 ) ;
#170 = FACE_OUTER_BOUND ( 'NONE', #317, .T. ) ;
#171 = UNCERTAINTY_MEASURE_WITH_UNIT (LENGTH_MEASURE( 1.000000000000000082E-05 ), #344, 'distance_accuracy_value', 'NONE');
#172 = PRESENTATION_LAYER_ASSIGNMENT (  '', '', ( #281 ) ) ;
#173 =( GEOMETRIC_REPRESENTATION_CONTEXT ( 3 ) GLOBAL_UNCERTAINTY_ASSIGNED_CONTEXT ( ( #171 ) ) GLOBAL_UNIT_ASSIGNED_CONTEXT ( ( #344, #71, #13 ) ) REPRESENTATION_CONTEXT ( 'NONE', 'WORKASPACE' ) );
#174 = ADVANCED_FACE ( 'NONE', ( #290 ), #118, .F. ) ;
#175 = CARTESIAN_POINT ( 'NONE',  ( 0.09374999999999994449, 0.4804980216144646987, 1.148106374200642938E-17 ) ) ;
#176 = ORIENTED_EDGE ( 'NONE', *, *, #17, .F. ) ;
#177 = CARTESIAN_POINT ( 'NONE',  ( -6.123233995736766036E-17, 2.500000000000000000, 0.000000000000000000 ) ) ;
#178 = VERTEX_POINT ( 'NONE', #175 ) ;
#179 = AXIS2_PLACEMENT_3D ( 'NONE', #273, #292, #31 ) ;
#180 = MECHANICAL_DESIGN_GEOMETRIC_PRESENTATION_REPRESENTATION (  '', ( #233 ), #173 ) ;
#181 = ORIENTED_EDGE ( 'NONE', *, *, #117, .F. ) ;
#182 = ORIENTED_EDGE ( 'NONE', *, *, #333, .T. ) ;
#183 = FILL_AREA_STYLE ('',( #161 ) ) ;
#184 = SURFACE_STYLE_USAGE ( .BOTH. , #30 ) ;
#185 = CYLINDRICAL_SURFACE ( 'NONE', #128, 0.09374999999999997224 ) ;
#186 = DIRECTION ( 'NONE',  ( -1.000000000000000000, 0.000000000000000000, 0.000000000000000000 ) ) ;
#187 = EDGE_CURVE ( 'NONE', #261, #167, #121, .T. ) ;
#188 = DIMENSIONAL_EXPONENTS ( 1.000000000000000000, 0.000000000000000000, 0.000000000000000000, 0.000000000000000000, 0.000000000000000000, 0.000000000000000000, 0.000000000000000000 ) ;
#189 = CARTESIAN_POINT ( 'NONE',  ( -0.07809999999999997500, 0.4374999999999998890, 0.000000000000000000 ) ) ;
#190 = AXIS2_PLACEMENT_3D ( 'NONE', #5, #224, #66 ) ;
#191 = FILL_AREA_STYLE_COLOUR ( '', #227 ) ;
#192 = CARTESIAN_POINT ( 'NONE',  ( 0.07809999999999997500, 0.4374999999999998890, 9.564491501340826783E-18 ) ) ;
#193 = SHAPE_DEFINITION_REPRESENTATION ( #255, #105 ) ;
#194 = CARTESIAN_POINT ( 'NONE',  ( 7.582401355855259480E-33, 0.4374999999999998890, 0.000000000000000000 ) ) ;
#195 =( CONVERSION_BASED_UNIT ( 'INCH', #62 ) LENGTH_UNIT ( ) NAMED_UNIT ( #90 ) );
#196 = CLOSED_SHELL ( 'NONE', ( #275, #81, #148, #102, #50, #174 ) ) ;
#197 = AXIS2_PLACEMENT_3D ( 'NONE', #194, #303, #229 ) ;
#198 = PRODUCT_CONTEXT ( 'NONE', #230, 'mechanical' ) ;
#199 = LINE ( 'NONE', #87, #259 ) ;
#200 = DIMENSIONAL_EXPONENTS ( 1.000000000000000000, 0.000000000000000000, 0.000000000000000000, 0.000000000000000000, 0.000000000000000000, 0.000000000000000000, 0.000000000000000000 ) ;
#201 = FILL_AREA_STYLE ('',( #37 ) ) ;
#202 =( CONVERSION_BASED_UNIT ( 'INCH', #338 ) LENGTH_UNIT ( ) NAMED_UNIT ( #137 ) );
#203 = ORIENTED_EDGE ( 'NONE', *, *, #111, .F. ) ;
#204 = AXIS2_PLACEMENT_3D ( 'NONE', #245, #241, #186 ) ;
#205 = DIRECTION ( 'NONE',  ( -1.000000000000000000, 0.000000000000000000, 0.000000000000000000 ) ) ;
#206 = DIMENSIONAL_EXPONENTS ( 1.000000000000000000, 0.000000000000000000, 0.000000000000000000, 0.000000000000000000, 0.000000000000000000, 0.000000000000000000, 0.000000000000000000 ) ;
#207 = ORIENTED_EDGE ( 'NONE', *, *, #187, .F. ) ;
#208 = DIRECTION ( 'NONE',  ( -2.968840725205704707E-17, 1.000000000000000000, -0.000000000000000000 ) ) ;
#209 = PRESENTATION_LAYER_ASSIGNMENT (  '', '', ( #68 ) ) ;
#210 =( GEOMETRIC_REPRESENTATION_CONTEXT ( 3 ) GLOBAL_UNCERTAINTY_ASSIGNED_CONTEXT ( ( #32 ) ) GLOBAL_UNIT_ASSIGNED_CONTEXT ( ( #306, #285, #126 ) ) REPRESENTATION_CONTEXT ( 'NONE', 'WORKASPACE' ) );
#211 = SURFACE_STYLE_USAGE ( .BOTH. , #313 ) ;
#212 = ORIENTED_EDGE ( 'NONE', *, *, #213, .F. ) ;
#213 = EDGE_CURVE ( 'NONE', #178, #43, #146, .T. ) ;
#214 = DIRECTION ( 'NONE',  ( 0.000000000000000000, 0.000000000000000000, -1.000000000000000000 ) ) ;
#215 = PLANE ( 'NONE',  #293 ) ;
#216 = CARTESIAN_POINT ( 'NONE',  ( 0.000000000000000000, 0.4375000000000000000, 0.000000000000000000 ) ) ;
#217 = DIRECTION ( 'NONE',  ( -2.968840725205704707E-17, 1.000000000000000000, -0.000000000000000000 ) ) ;
#218 = CARTESIAN_POINT ( 'NONE',  ( 0.07809999999999997500, 0.4374999999999998890, 1.052277762167362731E-17 ) ) ;
#219 = ADVANCED_FACE ( 'NONE', ( #235 ), #231, .T. ) ;
#220 = COLOUR_RGB ( '',1.000000000000000000, 0.000000000000000000, 0.000000000000000000 ) ;
#221 = COLOUR_RGB ( '',1.000000000000000000, 0.000000000000000000, 0.000000000000000000 ) ;
#222 = CARTESIAN_POINT ( 'NONE',  ( 7.582401355855259480E-33, 0.4374999999999998890, 0.000000000000000000 ) ) ;
#223 = UNCERTAINTY_MEASURE_WITH_UNIT (LENGTH_MEASURE( 1.000000000000000082E-05 ), #240, 'distance_accuracy_value', 'NONE');
#224 = DIRECTION ( 'NONE',  ( -2.968840725205704707E-17, 1.000000000000000000, -0.000000000000000000 ) ) ;
#225 = DIRECTION ( 'NONE',  ( -2.968840725205704707E-17, 1.000000000000000000, -0.000000000000000000 ) ) ;
#226 = CARTESIAN_POINT ( 'NONE',  ( 0.000000000000000000, 0.000000000000000000, 0.000000000000000000 ) ) ;
#227 = COLOUR_RGB ( '',1.000000000000000000, 0.000000000000000000, 0.000000000000000000 ) ;
#228 = PRESENTATION_LAYER_ASSIGNMENT (  '', '', ( #263 ) ) ;
#229 = DIRECTION ( 'NONE',  ( -1.000000000000000000, 0.000000000000000000, 0.000000000000000000 ) ) ;
#230 = APPLICATION_CONTEXT ( 'automotive_design' ) ;
#231 = PLANE ( 'NONE',  #35 ) ;
#232 = SURFACE_STYLE_FILL_AREA ( #236 ) ;
#233 = STYLED_ITEM ( 'NONE', ( #151 ), #219 ) ;
#234 = FILL_AREA_STYLE ('',( #44 ) ) ;
#235 = FACE_OUTER_BOUND ( 'NONE', #72, .T. ) ;
#236 = FILL_AREA_STYLE ('',( #309 ) ) ;
#237 = ORIENTED_EDGE ( 'NONE', *, *, #327, .F. ) ;
#238 = CIRCLE ( 'NONE', #179, 0.07809999999999997500 ) ;
#239 = AXIS2_PLACEMENT_3D ( 'NONE', #291, #27, #133 ) ;
#240 =( CONVERSION_BASED_UNIT ( 'INCH', #129 ) LENGTH_UNIT ( ) NAMED_UNIT ( #162 ) );
#241 = DIRECTION ( 'NONE',  ( -2.968840725205704707E-17, 1.000000000000000000, -0.000000000000000000 ) ) ;
#242 = CARTESIAN_POINT ( 'NONE',  ( -0.09374999999999994449, 0.4804980216144646987, 0.000000000000000000 ) ) ;
#243 = CARTESIAN_POINT ( 'NONE',  ( -1.276542776722972501E-18, 0.4804980216144646987, 0.000000000000000000 ) ) ;
#244 = SURFACE_STYLE_FILL_AREA ( #301 ) ;
#245 = CARTESIAN_POINT ( 'NONE',  ( -6.123233995736766036E-17, 2.500000000000000000, 0.000000000000000000 ) ) ;
#246 = MECHANICAL_DESIGN_GEOMETRIC_PRESENTATION_REPRESENTATION (  '', ( #153 ), #210 ) ;
#247 = DIRECTION ( 'NONE',  ( -0.000000000000000000, -1.000000000000000000, -0.000000000000000000 ) ) ;
#248 = ADVANCED_FACE ( 'NONE', ( #101 ), #97, .T. ) ;
#249 = CYLINDRICAL_SURFACE ( 'NONE', #204, 0.09374999999999997224 ) ;
#250 = VERTEX_POINT ( 'NONE', #218 ) ;
#251 = FACE_OUTER_BOUND ( 'NONE', #150, .T. ) ;
#252 = MECHANICAL_DESIGN_GEOMETRIC_PRESENTATION_REPRESENTATION (  '', ( #68 ), #58 ) ;
#253 = AXIS2_PLACEMENT_3D ( 'NONE', #243, #156, #356 ) ;
#254 = CARTESIAN_POINT ( 'NONE',  ( -0.07809999999999997500, 0.4374999999999998890, 0.000000000000000000 ) ) ;
#255 = PRODUCT_DEFINITION_SHAPE ( 'NONE', 'NONE',  #67 ) ;
#256 = DIRECTION ( 'NONE',  ( -1.000000000000000000, -2.968840725205704707E-17, 0.000000000000000000 ) ) ;
#257 = PRESENTATION_STYLE_ASSIGNMENT (( #88 ) ) ;
#258 = DIRECTION ( 'NONE',  ( 0.3420201433256682688, 0.9396926207859085389, 4.188538737676986835E-17 ) ) ;
#259 = VECTOR ( 'NONE', #304, 39.37007874015748143 ) ;
#260 = SURFACE_STYLE_USAGE ( .BOTH. , #149 ) ;
#261 = VERTEX_POINT ( 'NONE', #318 ) ;
#262 = EDGE_LOOP ( 'NONE', ( #346, #152, #287, #286 ) ) ;
#263 = STYLED_ITEM ( 'NONE', ( #12 ), #248 ) ;
#264 =( LENGTH_UNIT ( ) NAMED_UNIT ( * ) SI_UNIT ( $, .METRE. ) );
#265 = ORIENTED_EDGE ( 'NONE', *, *, #355, .F. ) ;
#266 = EDGE_CURVE ( 'NONE', #158, #155, #85, .T. ) ;
#267 = ORIENTED_EDGE ( 'NONE', *, *, #77, .F. ) ;
#268 = PRESENTATION_LAYER_ASSIGNMENT (  '', '', ( #233 ) ) ;
#269 = PRESENTATION_STYLE_ASSIGNMENT (( #107 ) ) ;
#270 = DIRECTION ( 'NONE',  ( -1.000000000000000000, 0.000000000000000000, 0.000000000000000000 ) ) ;
#271 = PRESENTATION_STYLE_ASSIGNMENT (( #184 ) ) ;
#272 = SURFACE_STYLE_FILL_AREA ( #183 ) ;
#273 = CARTESIAN_POINT ( 'NONE',  ( 7.582401355855259480E-33, 0.4374999999999998890, 0.000000000000000000 ) ) ;
#274 =( LENGTH_UNIT ( ) NAMED_UNIT ( * ) SI_UNIT ( $, .METRE. ) );
#275 = ADVANCED_FACE ( 'NONE', ( #56 ), #249, .T. ) ;
#276 = AXIS2_PLACEMENT_3D ( 'NONE', #277, #36, #256 ) ;
#277 = CARTESIAN_POINT ( 'NONE',  ( 3.441872955765393740E-35, 0.4375000000000000000, 0.000000000000000000 ) ) ;
#278 = LINE ( 'NONE', #192, #294 ) ;
#279 =( NAMED_UNIT ( * ) PLANE_ANGLE_UNIT ( ) SI_UNIT ( $, .RADIAN. ) );
#280 =( NAMED_UNIT ( * ) PLANE_ANGLE_UNIT ( ) SI_UNIT ( $, .RADIAN. ) );
#281 = STYLED_ITEM ( 'NONE', ( #54 ), #59 ) ;
#282 = MECHANICAL_DESIGN_GEOMETRIC_PRESENTATION_REPRESENTATION (  '', ( #299 ), #310 ) ;
#283 = ORIENTED_EDGE ( 'NONE', *, *, #93, .F. ) ;
#284 = MANIFOLD_SOLID_BREP ( 'Revolve - Cutting Edge', #8 ) ;
#285 =( NAMED_UNIT ( * ) PLANE_ANGLE_UNIT ( ) SI_UNIT ( $, .RADIAN. ) );
#286 = ORIENTED_EDGE ( 'NONE', *, *, #11, .F. ) ;
#287 = ORIENTED_EDGE ( 'NONE', *, *, #339, .F. ) ;
#288 = AXIS2_PLACEMENT_3D ( 'NONE', #222, #113, #114 ) ;
#289 = ORIENTED_EDGE ( 'NONE', *, *, #63, .T. ) ;
#290 = FACE_OUTER_BOUND ( 'NONE', #315, .T. ) ;
#291 = CARTESIAN_POINT ( 'NONE',  ( -6.123233995736766036E-17, 2.500000000000000000, 0.000000000000000000 ) ) ;
#292 = DIRECTION ( 'NONE',  ( -2.968840725205704707E-17, 1.000000000000000000, -0.000000000000000000 ) ) ;
#293 = AXIS2_PLACEMENT_3D ( 'NONE', #86, #38, #92 ) ;
#294 = VECTOR ( 'NONE', #258, 39.37007874015748143 ) ;
#295 = SURFACE_STYLE_USAGE ( .BOTH. , #298 ) ;
#296 = DIRECTION ( 'NONE',  ( -2.968840725205704707E-17, 1.000000000000000000, -0.000000000000000000 ) ) ;
#297 = DIRECTION ( 'NONE',  ( -0.3420201433256683798, 0.9396926207859085389, 0.000000000000000000 ) ) ;
#298 = SURFACE_SIDE_STYLE ('',( #357 ) ) ;
#299 = STYLED_ITEM ( 'NONE', ( #271 ), #284 ) ;
#300 =( NAMED_UNIT ( * ) SI_UNIT ( $, .STERADIAN. ) SOLID_ANGLE_UNIT ( ) );
#301 = FILL_AREA_STYLE ('',( #191 ) ) ;
#302 = APPLICATION_CONTEXT ( 'automotive_design' ) ;
#303 = DIRECTION ( 'NONE',  ( -2.968840725205704707E-17, 1.000000000000000000, -0.000000000000000000 ) ) ;
#304 = DIRECTION ( 'NONE',  ( -0.000000000000000000, -1.000000000000000000, -0.000000000000000000 ) ) ;
#305 = DIRECTION ( 'NONE',  ( 1.000000000000000000, 0.000000000000000000, 0.000000000000000000 ) ) ;
#306 =( CONVERSION_BASED_UNIT ( 'INCH', #335 ) LENGTH_UNIT ( ) NAMED_UNIT ( #200 ) );
#307 = SURFACE_SIDE_STYLE ('',( #332 ) ) ;
#308 = UNCERTAINTY_MEASURE_WITH_UNIT (LENGTH_MEASURE( 1.000000000000000082E-05 ), #28, 'distance_accuracy_value', 'NONE');
#309 = FILL_AREA_STYLE_COLOUR ( '', #221 ) ;
#310 =( GEOMETRIC_REPRESENTATION_CONTEXT ( 3 ) GLOBAL_UNCERTAINTY_ASSIGNED_CONTEXT ( ( #61 ) ) GLOBAL_UNIT_ASSIGNED_CONTEXT ( ( #79, #138, #23 ) ) REPRESENTATION_CONTEXT ( 'NONE', 'WORKASPACE' ) );
#311 = ORIENTED_EDGE ( 'NONE', *, *, #11, .T. ) ;
#312 = VERTEX_POINT ( 'NONE', #104 ) ;
#313 = SURFACE_SIDE_STYLE ('',( #99 ) ) ;
#314 = DIRECTION ( 'NONE',  ( -2.968840725205704707E-17, 1.000000000000000000, -0.000000000000000000 ) ) ;
#315 = EDGE_LOOP ( 'NONE', ( #73, #349 ) ) ;
#316 = VECTOR ( 'NONE', #225, 39.37007874015748143 ) ;
#317 = EDGE_LOOP ( 'NONE', ( #52, #98, #265, #343 ) ) ;
#318 = CARTESIAN_POINT ( 'NONE',  ( 0.09374999999999994449, 2.500000000000000000, 1.148106374200643401E-17 ) ) ;
#319 =( NAMED_UNIT ( * ) SI_UNIT ( $, .STERADIAN. ) SOLID_ANGLE_UNIT ( ) );
#320 = FILL_AREA_STYLE_COLOUR ( '', #220 ) ;
#321 = CIRCLE ( 'NONE', #358, 0.07809999999999997500 ) ;
#322 = AXIS2_PLACEMENT_3D ( 'NONE', #226, #115, #305 ) ;
#323 = DIRECTION ( 'NONE',  ( -0.000000000000000000, -1.000000000000000000, -0.000000000000000000 ) ) ;
#324 = DIRECTION ( 'NONE',  ( 0.000000000000000000, 0.000000000000000000, -1.000000000000000000 ) ) ;
#325 = LINE ( 'NONE', #189, #22 ) ;
#326 = ORIENTED_EDGE ( 'NONE', *, *, #63, .F. ) ;
#327 = EDGE_CURVE ( 'NONE', #167, #261, #40, .T. ) ;
#328 = AXIS2_PLACEMENT_3D ( 'NONE', #177, #208, #205 ) ;
#329 = DIRECTION ( 'NONE',  ( 0.000000000000000000, 0.000000000000000000, -1.000000000000000000 ) ) ;
#330 = PRODUCT_DEFINITION_CONTEXT ( 'detailed design', #302, 'design' ) ;
#331 = APPLICATION_PROTOCOL_DEFINITION ( 'draft international standard', 'automotive_design', 1998, #302 ) ;
#332 = SURFACE_STYLE_FILL_AREA ( #201 ) ;
#333 = EDGE_CURVE ( 'NONE', #75, #43, #325, .T. ) ;
#334 = APPLICATION_PROTOCOL_DEFINITION ( 'draft international standard', 'automotive_design', 1998, #230 ) ;
#335 = LENGTH_MEASURE_WITH_UNIT ( LENGTH_MEASURE( 0.02539999999999999897 ), #7 );
#336 = PRODUCT_DEFINITION_FORMATION_WITH_SPECIFIED_SOURCE ( 'ANY', '', #143, .NOT_KNOWN. ) ;
#337 =( NAMED_UNIT ( * ) SI_UNIT ( $, .STERADIAN. ) SOLID_ANGLE_UNIT ( ) );
#338 = LENGTH_MEASURE_WITH_UNIT ( LENGTH_MEASURE( 0.02539999999999999897 ), #345 );
#339 = EDGE_CURVE ( 'NONE', #21, #312, #69, .T. ) ;
#340 = DIRECTION ( 'NONE',  ( 1.000000000000000000, 2.968840725205704707E-17, 0.000000000000000000 ) ) ;
#341 = AXIS2_PLACEMENT_3D ( 'NONE', #144, #65, #34 ) ;
#342 = CIRCLE ( 'NONE', #288, 0.07809999999999997500 ) ;
#343 = ORIENTED_EDGE ( 'NONE', *, *, #333, .F. ) ;
#344 =( CONVERSION_BASED_UNIT ( 'INCH', #122 ) LENGTH_UNIT ( ) NAMED_UNIT ( #157 ) );
#345 =( LENGTH_UNIT ( ) NAMED_UNIT ( * ) SI_UNIT ( $, .METRE. ) );
#346 = ORIENTED_EDGE ( 'NONE', *, *, #77, .T. ) ;
#347 = CARTESIAN_POINT ( 'NONE',  ( 0.000000000000000000, 0.000000000000000000, 0.000000000000000000 ) ) ;
#348 = AXIS2_PLACEMENT_3D ( 'NONE', #24, #132, #354 ) ;
#349 = ORIENTED_EDGE ( 'NONE', *, *, #187, .T. ) ;
#350 = PRESENTATION_LAYER_ASSIGNMENT (  '', '', ( #299 ) ) ;
#351 = DIRECTION ( 'NONE',  ( -0.000000000000000000, -1.000000000000000000, -0.000000000000000000 ) ) ;
#352 = LINE ( 'NONE', #106, #45 ) ;
#353 = DIRECTION ( 'NONE',  ( 0.000000000000000000, 0.000000000000000000, -1.000000000000000000 ) ) ;
#354 = DIRECTION ( 'NONE',  ( 0.000000000000000000, 0.000000000000000000, -1.000000000000000000 ) ) ;
#355 = EDGE_CURVE ( 'NONE', #43, #178, #96, .T. ) ;
#356 = DIRECTION ( 'NONE',  ( -1.000000000000000000, 0.000000000000000000, 0.000000000000000000 ) ) ;
#357 = SURFACE_STYLE_FILL_AREA ( #78 ) ;
#358 = AXIS2_PLACEMENT_3D ( 'NONE', #41, #91, #329 ) ;
#359 = CARTESIAN_POINT ( 'NONE',  ( 0.09374999999999990286, 2.500000000000000000, 1.148106374200643247E-17 ) ) ;
ENDSEC;
END-ISO-10303-21;
