ISO-10303-21;
HEADER;
FILE_DESCRIPTION (( 'STEP AP214' ),
    '1' );
FILE_NAME ('Micro_RMEM-005-2.STEP',
    '2021-09-01T23:36:12',
    ( '' ),
    ( '' ),
    'SwSTEP 2.0',
    'SolidWorks 2020',
    '' );
FILE_SCHEMA (( 'AUTOMOTIVE_DESIGN' ));
ENDSEC;

DATA;
#1 = CLOSED_SHELL ( 'NONE', ( #170, #298, #141, #41, #59, #205, #109, #222, #120, #118 ) ) ;
#2 = DIRECTION ( 'NONE',  ( 0.0000000000000000000, 0.0000000000000000000, -1.000000000000000000 ) ) ;
#3 = CARTESIAN_POINT ( 'NONE',  ( 0.0000000000000000000, 0.0000000000000000000, 1.496062999999999921 ) ) ;
#4 =( NAMED_UNIT ( * ) PLANE_ANGLE_UNIT ( ) SI_UNIT ( $, .RADIAN. ) );
#5 = DIRECTION ( 'NONE',  ( -1.224646799147353207E-16, -0.0000000000000000000, -1.000000000000000000 ) ) ;
#6 = APPLICATION_PROTOCOL_DEFINITION ( 'draft international standard', 'automotive_design', 1998, #199 ) ;
#7 = FACE_OUTER_BOUND ( 'NONE', #288, .T. ) ;
#8 =( NAMED_UNIT ( * ) SI_UNIT ( $, .STERADIAN. ) SOLID_ANGLE_UNIT ( ) );
#9 = CIRCLE ( 'NONE', #223, 0.04405499999999973326 ) ;
#10 = DIRECTION ( 'NONE',  ( 0.0000000000000000000, 0.0000000000000000000, 1.000000000000000000 ) ) ;
#11 = EDGE_CURVE ( 'NONE', #221, #154, #47, .T. ) ;
#12 = ORIENTED_EDGE ( 'NONE', *, *, #71, .T. ) ;
#13 = DIRECTION ( 'NONE',  ( 0.7071067811865482389, 8.659560562354941486E-17, -0.7071067811865469066 ) ) ;
#14 = ORIENTED_EDGE ( 'NONE', *, *, #95, .T. ) ;
#15 = EDGE_LOOP ( 'NONE', ( #201, #264, #245, #294 ) ) ;
#16 = CONICAL_SURFACE ( 'NONE', #229, 0.04405499999999973326, 0.7853981633974491672 ) ;
#17 = CARTESIAN_POINT ( 'NONE',  ( -0.009832657500000001327, 0.0000000000000000000, 2.408306506897443486E-18 ) ) ;
#18 = VERTEX_POINT ( 'NONE', #76 ) ;
#19 = CARTESIAN_POINT ( 'NONE',  ( -0.04405499999999973326, 0.0000000000000000000, 1.496062999999999921 ) ) ;
#20 = VERTEX_POINT ( 'NONE', #101 ) ;
#21 = VECTOR ( 'NONE', #36, 39.37007874015747433 ) ;
#22 = AXIS2_PLACEMENT_3D ( 'NONE', #26, #146, #261 ) ;
#23 = VECTOR ( 'NONE', #233, 39.37007874015748143 ) ;
#24 = LINE ( 'NONE', #185, #149 ) ;
#25 = FACE_OUTER_BOUND ( 'NONE', #273, .T. ) ;
#26 = CARTESIAN_POINT ( 'NONE',  ( 7.232151672364695422E-18, 0.0000000000000000000, 0.05905500000000000332 ) ) ;
#27 = CARTESIAN_POINT ( 'NONE',  ( 0.009832657500000004797, 0.0000000000000000000, 0.05905500000000000332 ) ) ;
#28 = CIRCLE ( 'NONE', #57, 0.05905500000000000332 ) ;
#29 =( CONVERSION_BASED_UNIT ( 'INCH', #172 ) LENGTH_UNIT ( ) NAMED_UNIT ( #241 ) );
#30 = EDGE_CURVE ( 'NONE', #291, #43, #238, .T. ) ;
#31 = DIRECTION ( 'NONE',  ( -0.0000000000000000000, -0.0000000000000000000, -1.000000000000000000 ) ) ;
#32 = SURFACE_SIDE_STYLE ('',( #295 ) ) ;
#33 = SURFACE_SIDE_STYLE ('',( #151 ) ) ;
#34 = AXIS2_PLACEMENT_3D ( 'NONE', #279, #253, #51 ) ;
#35 = AXIS2_PLACEMENT_3D ( 'NONE', #254, #55, #148 ) ;
#36 = DIRECTION ( 'NONE',  ( -0.1736481776669311639, 2.126576849575783008E-17, 0.9848077530122080203 ) ) ;
#37 = EDGE_CURVE ( 'NONE', #154, #173, #239, .T. ) ;
#38 = ORIENTED_EDGE ( 'NONE', *, *, #97, .T. ) ;
#39 = FILL_AREA_STYLE_COLOUR ( '', #258 ) ;
#40 = EDGE_LOOP ( 'NONE', ( #83, #220, #108, #159 ) ) ;
#41 = ADVANCED_FACE ( 'NONE', ( #255 ), #152, .T. ) ;
#42 = LINE ( 'NONE', #175, #21 ) ;
#43 = VERTEX_POINT ( 'NONE', #27 ) ;
#44 = AXIS2_PLACEMENT_3D ( 'NONE', #190, #73, #284 ) ;
#45 = CARTESIAN_POINT ( 'NONE',  ( 4.141862951424696924E-17, 0.0000000000000000000, 0.3382087761392446046 ) ) ;
#46 = ORIENTED_EDGE ( 'NONE', *, *, #234, .F. ) ;
#47 = CIRCLE ( 'NONE', #142, 0.04405499999999973326 ) ;
#48 = AXIS2_PLACEMENT_3D ( 'NONE', #290, #171, #84 ) ;
#49 =( GEOMETRIC_REPRESENTATION_CONTEXT ( 3 ) GLOBAL_UNCERTAINTY_ASSIGNED_CONTEXT ( ( #194 ) ) GLOBAL_UNIT_ASSIGNED_CONTEXT ( ( #103, #208, #235 ) ) REPRESENTATION_CONTEXT ( 'NONE', 'WORKASPACE' ) );
#50 = AXIS2_PLACEMENT_3D ( 'NONE', #67, #244, #139 ) ;
#51 = DIRECTION ( 'NONE',  ( -1.000000000000000000, 0.0000000000000000000, 1.224646799147353207E-16 ) ) ;
#52 =( NAMED_UNIT ( * ) PLANE_ANGLE_UNIT ( ) SI_UNIT ( $, .RADIAN. ) );
#53 = DIRECTION ( 'NONE',  ( -0.0000000000000000000, -0.0000000000000000000, -1.000000000000000000 ) ) ;
#54 = CARTESIAN_POINT ( 'NONE',  ( 0.0000000000000000000, 0.0000000000000000000, 1.496062999999999921 ) ) ;
#55 = DIRECTION ( 'NONE',  ( 0.0000000000000000000, 0.0000000000000000000, 1.000000000000000000 ) ) ;
#56 = DIRECTION ( 'NONE',  ( 0.1736481776669313581, 0.0000000000000000000, 0.9848077530122077983 ) ) ;
#57 = AXIS2_PLACEMENT_3D ( 'NONE', #45, #266, #168 ) ;
#58 = LENGTH_MEASURE_WITH_UNIT ( LENGTH_MEASURE( 0.02539999999999999897 ), #169 );
#59 = ADVANCED_FACE ( 'NONE', ( #99 ), #281, .T. ) ;
#60 = LINE ( 'NONE', #282, #265 ) ;
#61 = PLANE ( 'NONE',  #214 ) ;
#62 = EDGE_LOOP ( 'NONE', ( #116, #249 ) ) ;
#63 = LINE ( 'NONE', #160, #252 ) ;
#64 = UNCERTAINTY_MEASURE_WITH_UNIT (LENGTH_MEASURE( 1.000000000000000082E-05 ), #274, 'distance_accuracy_value', 'NONE');
#65 =( LENGTH_UNIT ( ) NAMED_UNIT ( * ) SI_UNIT ( $, .METRE. ) );
#66 = ORIENTED_EDGE ( 'NONE', *, *, #166, .F. ) ;
#67 = CARTESIAN_POINT ( 'NONE',  ( 0.0000000000000000000, 0.0000000000000000000, 1.496062999999999921 ) ) ;
#68 = VERTEX_POINT ( 'NONE', #206 ) ;
#69 = ORIENTED_EDGE ( 'NONE', *, *, #228, .T. ) ;
#70 = EDGE_CURVE ( 'NONE', #20, #178, #250, .T. ) ;
#71 = EDGE_CURVE ( 'NONE', #43, #68, #24, .T. ) ;
#72 = AXIS2_PLACEMENT_3D ( 'NONE', #211, #186, #128 ) ;
#73 = DIRECTION ( 'NONE',  ( -1.224646799147353207E-16, -0.0000000000000000000, -1.000000000000000000 ) ) ;
#74 = DIRECTION ( 'NONE',  ( -1.000000000000000000, 0.0000000000000000000, 0.0000000000000000000 ) ) ;
#75 = PRODUCT ( 'Micro_RMEM-005-2', 'Micro_RMEM-005-2', '', ( #212 ) ) ;
#76 = CARTESIAN_POINT ( 'NONE',  ( 0.05905500000000000332, 7.232151672364695422E-18, 1.481062999999999574 ) ) ;
#77 = FILL_AREA_STYLE_COLOUR ( '', #117 ) ;
#78 = LINE ( 'NONE', #179, #85 ) ;
#79 = FACE_OUTER_BOUND ( 'NONE', #137, .T. ) ;
#80 = PRODUCT_DEFINITION ( 'UNKNOWN', '', #104, #110 ) ;
#81 = LINE ( 'NONE', #113, #209 ) ;
#82 =( LENGTH_UNIT ( ) NAMED_UNIT ( * ) SI_UNIT ( $, .METRE. ) );
#83 = ORIENTED_EDGE ( 'NONE', *, *, #204, .F. ) ;
#84 = DIRECTION ( 'NONE',  ( 1.000000000000000000, 0.0000000000000000000, 0.0000000000000000000 ) ) ;
#85 = VECTOR ( 'NONE', #262, 39.37007874015748143 ) ;
#86 = ORIENTED_EDGE ( 'NONE', *, *, #30, .F. ) ;
#87 = DIRECTION ( 'NONE',  ( -1.000000000000000000, 0.0000000000000000000, 1.224646799147353207E-16 ) ) ;
#88 = CARTESIAN_POINT ( 'NONE',  ( 0.0000000000000000000, 0.0000000000000000000, 1.496062999999999921 ) ) ;
#89 = CARTESIAN_POINT ( 'NONE',  ( -0.05905500000000000332, 0.0000000000000000000, 1.481062999999999574 ) ) ;
#90 = ORIENTED_EDGE ( 'NONE', *, *, #138, .T. ) ;
#91 = ORIENTED_EDGE ( 'NONE', *, *, #289, .F. ) ;
#92 = EDGE_CURVE ( 'NONE', #296, #68, #123, .T. ) ;
#93 = LENGTH_MEASURE_WITH_UNIT ( LENGTH_MEASURE( 0.02539999999999999897 ), #65 );
#94 = AXIS2_PLACEMENT_3D ( 'NONE', #191, #107, #153 ) ;
#95 = EDGE_CURVE ( 'NONE', #178, #20, #292, .T. ) ;
#96 = DIRECTION ( 'NONE',  ( -0.0000000000000000000, -0.0000000000000000000, -1.000000000000000000 ) ) ;
#97 = EDGE_CURVE ( 'NONE', #173, #296, #164, .T. ) ;
#98 = VECTOR ( 'NONE', #96, 39.37007874015748143 ) ;
#99 = FACE_OUTER_BOUND ( 'NONE', #269, .T. ) ;
#100 = SHAPE_DEFINITION_REPRESENTATION ( #132, #232 ) ;
#101 = CARTESIAN_POINT ( 'NONE',  ( 0.009832657500000001327, 1.204153253448721743E-18, 0.0000000000000000000 ) ) ;
#102 = AXIS2_PLACEMENT_3D ( 'NONE', #286, #130, #195 ) ;
#103 =( CONVERSION_BASED_UNIT ( 'INCH', #58 ) LENGTH_UNIT ( ) NAMED_UNIT ( #121 ) );
#104 = PRODUCT_DEFINITION_FORMATION_WITH_SPECIFIED_SOURCE ( 'ANY', '', #75, .NOT_KNOWN. ) ;
#105 = DIRECTION ( 'NONE',  ( -1.224646799147353207E-16, -0.0000000000000000000, -1.000000000000000000 ) ) ;
#106 = ORIENTED_EDGE ( 'NONE', *, *, #276, .T. ) ;
#107 = DIRECTION ( 'NONE',  ( 0.0000000000000000000, 0.0000000000000000000, -1.000000000000000000 ) ) ;
#108 = ORIENTED_EDGE ( 'NONE', *, *, #37, .T. ) ;
#109 = ADVANCED_FACE ( 'NONE', ( #213 ), #16, .T. ) ;
#110 = PRODUCT_DEFINITION_CONTEXT ( 'detailed design', #199, 'design' ) ;
#111 = CYLINDRICAL_SURFACE ( 'NONE', #272, 0.009832657500000001327 ) ;
#112 = ORIENTED_EDGE ( 'NONE', *, *, #71, .F. ) ;
#113 = CARTESIAN_POINT ( 'NONE',  ( 0.009832657500000001327, 1.204153253448721743E-18, -1.204153253448721743E-18 ) ) ;
#114 = ORIENTED_EDGE ( 'NONE', *, *, #30, .T. ) ;
#115 = CARTESIAN_POINT ( 'NONE',  ( 0.04405499999999973326, 6.313666573004162521E-18, 1.496062999999999921 ) ) ;
#116 = ORIENTED_EDGE ( 'NONE', *, *, #277, .T. ) ;
#117 = COLOUR_RGB ( '',0.7921568627450980005, 0.8196078431372548767, 0.9333333333333333481 ) ;
#118 = ADVANCED_FACE ( 'NONE', ( #7 ), #147, .F. ) ;
#119 = DIRECTION ( 'NONE',  ( -1.000000000000000000, 0.0000000000000000000, 1.224646799147353207E-16 ) ) ;
#120 = ADVANCED_FACE ( 'NONE', ( #25 ), #122, .T. ) ;
#121 = DIMENSIONAL_EXPONENTS ( 1.000000000000000000, 0.0000000000000000000, 0.0000000000000000000, 0.0000000000000000000, 0.0000000000000000000, 0.0000000000000000000, 0.0000000000000000000 ) ;
#122 = CYLINDRICAL_SURFACE ( 'NONE', #72, 0.009832657500000001327 ) ;
#123 = CIRCLE ( 'NONE', #162, 0.05905500000000000332 ) ;
#124 = DIRECTION ( 'NONE',  ( 1.000000000000000000, 0.0000000000000000000, -0.0000000000000000000 ) ) ;
#125 = EDGE_CURVE ( 'NONE', #173, #18, #243, .T. ) ;
#126 = CARTESIAN_POINT ( 'NONE',  ( -0.05905500000000000332, 0.0000000000000000000, 1.496062999999999921 ) ) ;
#127 = CARTESIAN_POINT ( 'NONE',  ( 4.141862951424696924E-17, 0.0000000000000000000, 0.3382087761392446046 ) ) ;
#128 = DIRECTION ( 'NONE',  ( -1.000000000000000000, 0.0000000000000000000, 1.224646799147353207E-16 ) ) ;
#129 = ORIENTED_EDGE ( 'NONE', *, *, #70, .T. ) ;
#130 = DIRECTION ( 'NONE',  ( -1.224646799147353207E-16, -0.0000000000000000000, -1.000000000000000000 ) ) ;
#131 = ORIENTED_EDGE ( 'NONE', *, *, #11, .F. ) ;
#132 = PRODUCT_DEFINITION_SHAPE ( 'NONE', 'NONE',  #80 ) ;
#133 = PRESENTATION_STYLE_ASSIGNMENT (( #270 ) ) ;
#134 = ORIENTED_EDGE ( 'NONE', *, *, #289, .T. ) ;
#135 = CARTESIAN_POINT ( 'NONE',  ( 0.0000000000000000000, 0.0000000000000000000, 0.0000000000000000000 ) ) ;
#136 = STYLED_ITEM ( 'NONE', ( #133 ), #285 ) ;
#137 = EDGE_LOOP ( 'NONE', ( #86, #90, #225, #112 ) ) ;
#138 = EDGE_CURVE ( 'NONE', #291, #296, #42, .T. ) ;
#139 = DIRECTION ( 'NONE',  ( -1.000000000000000000, 0.0000000000000000000, 0.0000000000000000000 ) ) ;
#140 = AXIS2_PLACEMENT_3D ( 'NONE', #145, #237, #124 ) ;
#141 = ADVANCED_FACE ( 'NONE', ( #260 ), #231, .T. ) ;
#142 = AXIS2_PLACEMENT_3D ( 'NONE', #88, #181, #176 ) ;
#143 = AXIS2_PLACEMENT_3D ( 'NONE', #177, #248, #202 ) ;
#144 = CARTESIAN_POINT ( 'NONE',  ( 1.474662427518848649E-34, 0.0000000000000000000, 1.204153253448721743E-18 ) ) ;
#145 = CARTESIAN_POINT ( 'NONE',  ( 0.0000000000000000000, 0.0000000000000000000, 0.0000000000000000000 ) ) ;
#146 = DIRECTION ( 'NONE',  ( 1.224646799147353207E-16, 0.0000000000000000000, 1.000000000000000000 ) ) ;
#147 = PLANE ( 'NONE',  #140 ) ;
#148 = DIRECTION ( 'NONE',  ( 1.000000000000000000, 0.0000000000000000000, 0.0000000000000000000 ) ) ;
#149 = VECTOR ( 'NONE', #56, 39.37007874015748143 ) ;
#150 = CONICAL_SURFACE ( 'NONE', #22, 0.009832657499999999592, 0.1745329251994338637 ) ;
#151 = SURFACE_STYLE_FILL_AREA ( #240 ) ;
#152 = CYLINDRICAL_SURFACE ( 'NONE', #247, 0.05905500000000000332 ) ;
#153 = DIRECTION ( 'NONE',  ( 1.000000000000000000, 0.0000000000000000000, 0.0000000000000000000 ) ) ;
#154 = VERTEX_POINT ( 'NONE', #19 ) ;
#155 = UNCERTAINTY_MEASURE_WITH_UNIT (LENGTH_MEASURE( 1.000000000000000082E-05 ), #29, 'distance_accuracy_value', 'NONE');
#156 = DIRECTION ( 'NONE',  ( 0.0000000000000000000, 0.0000000000000000000, 1.000000000000000000 ) ) ;
#157 = ORIENTED_EDGE ( 'NONE', *, *, #276, .F. ) ;
#158 = CARTESIAN_POINT ( 'NONE',  ( 0.0000000000000000000, 0.0000000000000000000, 1.496062999999999921 ) ) ;
#159 = ORIENTED_EDGE ( 'NONE', *, *, #228, .F. ) ;
#160 = CARTESIAN_POINT ( 'NONE',  ( 0.04405499999999973326, 5.395181473643630390E-18, 1.496062999999999921 ) ) ;
#161 = ORIENTED_EDGE ( 'NONE', *, *, #257, .F. ) ;
#162 = AXIS2_PLACEMENT_3D ( 'NONE', #127, #207, #165 ) ;
#163 = CARTESIAN_POINT ( 'NONE',  ( -0.04405499999999973326, 0.0000000000000000000, 1.496062999999999921 ) ) ;
#164 = LINE ( 'NONE', #126, #98 ) ;
#165 = DIRECTION ( 'NONE',  ( 1.000000000000000000, 0.0000000000000000000, 0.0000000000000000000 ) ) ;
#166 = EDGE_CURVE ( 'NONE', #43, #291, #197, .T. ) ;
#167 = MECHANICAL_DESIGN_GEOMETRIC_PRESENTATION_REPRESENTATION (  '', ( #136 ), #189 ) ;
#168 = DIRECTION ( 'NONE',  ( 1.000000000000000000, 0.0000000000000000000, 0.0000000000000000000 ) ) ;
#169 =( LENGTH_UNIT ( ) NAMED_UNIT ( * ) SI_UNIT ( $, .METRE. ) );
#170 = ADVANCED_FACE ( 'NONE', ( #226 ), #111, .T. ) ;
#171 = DIRECTION ( 'NONE',  ( 0.0000000000000000000, 0.0000000000000000000, -1.000000000000000000 ) ) ;
#172 = LENGTH_MEASURE_WITH_UNIT ( LENGTH_MEASURE( 0.02539999999999999897 ), #82 );
#173 = VERTEX_POINT ( 'NONE', #89 ) ;
#174 = CONICAL_SURFACE ( 'NONE', #143, 0.009832657499999999592, 0.1745329251994338637 ) ;
#175 = CARTESIAN_POINT ( 'NONE',  ( -0.009832657499999992654, 1.204153253448721358E-18, 0.05905500000000000332 ) ) ;
#176 = DIRECTION ( 'NONE',  ( 1.000000000000000000, 0.0000000000000000000, 0.0000000000000000000 ) ) ;
#177 = CARTESIAN_POINT ( 'NONE',  ( 7.232151672364695422E-18, 0.0000000000000000000, 0.05905500000000000332 ) ) ;
#178 = VERTEX_POINT ( 'NONE', #17 ) ;
#179 = CARTESIAN_POINT ( 'NONE',  ( 0.05905500000000000332, 7.232151672364695422E-18, 1.496062999999999921 ) ) ;
#180 = ORIENTED_EDGE ( 'NONE', *, *, #95, .F. ) ;
#181 = DIRECTION ( 'NONE',  ( 0.0000000000000000000, 0.0000000000000000000, 1.000000000000000000 ) ) ;
#182 = PRESENTATION_LAYER_ASSIGNMENT (  '', '', ( #230 ) ) ;
#183 = DIRECTION ( 'NONE',  ( -1.000000000000000000, 0.0000000000000000000, 0.0000000000000000000 ) ) ;
#184 = CIRCLE ( 'NONE', #48, 0.05905500000000000332 ) ;
#185 = CARTESIAN_POINT ( 'NONE',  ( 0.009832657500000004797, 0.0000000000000000000, 0.05905500000000000332 ) ) ;
#186 = DIRECTION ( 'NONE',  ( -1.224646799147353207E-16, -0.0000000000000000000, -1.000000000000000000 ) ) ;
#187 = PRESENTATION_STYLE_ASSIGNMENT (( #287 ) ) ;
#188 = AXIS2_PLACEMENT_3D ( 'NONE', #144, #5, #119 ) ;
#189 =( GEOMETRIC_REPRESENTATION_CONTEXT ( 3 ) GLOBAL_UNCERTAINTY_ASSIGNED_CONTEXT ( ( #64 ) ) GLOBAL_UNIT_ASSIGNED_CONTEXT ( ( #274, #52, #275 ) ) REPRESENTATION_CONTEXT ( 'NONE', 'WORKASPACE' ) );
#190 = CARTESIAN_POINT ( 'NONE',  ( 7.232151672364695422E-18, 0.0000000000000000000, 0.05905500000000000332 ) ) ;
#191 = CARTESIAN_POINT ( 'NONE',  ( 0.0000000000000000000, 0.0000000000000000000, 1.481062999999999574 ) ) ;
#192 = EDGE_LOOP ( 'NONE', ( #114, #196, #180, #91 ) ) ;
#193 = DIMENSIONAL_EXPONENTS ( 1.000000000000000000, 0.0000000000000000000, 0.0000000000000000000, 0.0000000000000000000, 0.0000000000000000000, 0.0000000000000000000, 0.0000000000000000000 ) ;
#194 = UNCERTAINTY_MEASURE_WITH_UNIT (LENGTH_MEASURE( 1.000000000000000082E-05 ), #103, 'distance_accuracy_value', 'NONE');
#195 = DIRECTION ( 'NONE',  ( -1.000000000000000000, 0.0000000000000000000, 0.0000000000000000000 ) ) ;
#196 = ORIENTED_EDGE ( 'NONE', *, *, #234, .T. ) ;
#197 = CIRCLE ( 'NONE', #102, 0.009832657499999999592 ) ;
#198 = EDGE_LOOP ( 'NONE', ( #131, #227, #297, #246 ) ) ;
#199 = APPLICATION_CONTEXT ( 'automotive_design' ) ;
#200 = DIRECTION ( 'NONE',  ( -1.224646799147353207E-16, -0.0000000000000000000, -1.000000000000000000 ) ) ;
#201 = ORIENTED_EDGE ( 'NONE', *, *, #125, .T. ) ;
#202 = DIRECTION ( 'NONE',  ( 1.000000000000000000, 0.0000000000000000000, 0.0000000000000000000 ) ) ;
#203 = ORIENTED_EDGE ( 'NONE', *, *, #138, .F. ) ;
#204 = EDGE_CURVE ( 'NONE', #221, #18, #63, .T. ) ;
#205 = ADVANCED_FACE ( 'NONE', ( #293 ), #61, .T. ) ;
#206 = CARTESIAN_POINT ( 'NONE',  ( 0.05905500000000004496, 7.232151672364700045E-18, 0.3382087761392446046 ) ) ;
#207 = DIRECTION ( 'NONE',  ( -1.224646799147353207E-16, -0.0000000000000000000, -1.000000000000000000 ) ) ;
#208 =( NAMED_UNIT ( * ) PLANE_ANGLE_UNIT ( ) SI_UNIT ( $, .RADIAN. ) );
#209 = VECTOR ( 'NONE', #200, 39.37007874015748143 ) ;
#210 =( GEOMETRIC_REPRESENTATION_CONTEXT ( 3 ) GLOBAL_UNCERTAINTY_ASSIGNED_CONTEXT ( ( #155 ) ) GLOBAL_UNIT_ASSIGNED_CONTEXT ( ( #29, #4, #8 ) ) REPRESENTATION_CONTEXT ( 'NONE', 'WORKASPACE' ) );
#211 = CARTESIAN_POINT ( 'NONE',  ( 0.0000000000000000000, 0.0000000000000000000, 0.0000000000000000000 ) ) ;
#212 = PRODUCT_CONTEXT ( 'NONE', #236, 'mechanical' ) ;
#213 = FACE_OUTER_BOUND ( 'NONE', #40, .T. ) ;
#214 = AXIS2_PLACEMENT_3D ( 'NONE', #224, #10, #216 ) ;
#215 = MECHANICAL_DESIGN_GEOMETRIC_PRESENTATION_REPRESENTATION (  '', ( #230 ), #210 ) ;
#216 = DIRECTION ( 'NONE',  ( 1.000000000000000000, 0.0000000000000000000, -0.0000000000000000000 ) ) ;
#217 = PRODUCT_RELATED_PRODUCT_CATEGORY ( 'part', '', ( #75 ) ) ;
#218 = EDGE_LOOP ( 'NONE', ( #203, #66, #12, #106 ) ) ;
#219 = DIRECTION ( 'NONE',  ( 1.000000000000000000, 0.0000000000000000000, 0.0000000000000000000 ) ) ;
#220 = ORIENTED_EDGE ( 'NONE', *, *, #277, .F. ) ;
#221 = VERTEX_POINT ( 'NONE', #115 ) ;
#222 = ADVANCED_FACE ( 'NONE', ( #242 ), #174, .T. ) ;
#223 = AXIS2_PLACEMENT_3D ( 'NONE', #158, #156, #219 ) ;
#224 = CARTESIAN_POINT ( 'NONE',  ( 0.0000000000000000000, 0.0000000000000000000, 1.496062999999999921 ) ) ;
#225 = ORIENTED_EDGE ( 'NONE', *, *, #92, .T. ) ;
#226 = FACE_OUTER_BOUND ( 'NONE', #192, .T. ) ;
#227 = ORIENTED_EDGE ( 'NONE', *, *, #204, .T. ) ;
#228 = EDGE_CURVE ( 'NONE', #18, #173, #184, .T. ) ;
#229 = AXIS2_PLACEMENT_3D ( 'NONE', #54, #2, #183 ) ;
#230 = STYLED_ITEM ( 'NONE', ( #187 ), #232 ) ;
#231 = CONICAL_SURFACE ( 'NONE', #50, 0.04405499999999973326, 0.7853981633974491672 ) ;
#232 = ADVANCED_BREP_SHAPE_REPRESENTATION ( 'Micro_RMEM-005-2', ( #285, #35 ), #49 ) ;
#233 = DIRECTION ( 'NONE',  ( -0.7071067811865482389, 0.0000000000000000000, -0.7071067811865469066 ) ) ;
#234 = EDGE_CURVE ( 'NONE', #43, #20, #81, .T. ) ;
#235 =( NAMED_UNIT ( * ) SI_UNIT ( $, .STERADIAN. ) SOLID_ANGLE_UNIT ( ) );
#236 = APPLICATION_CONTEXT ( 'automotive_design' ) ;
#237 = DIRECTION ( 'NONE',  ( 0.0000000000000000000, 0.0000000000000000000, 1.000000000000000000 ) ) ;
#238 = CIRCLE ( 'NONE', #44, 0.009832657499999999592 ) ;
#239 = LINE ( 'NONE', #163, #23 ) ;
#240 = FILL_AREA_STYLE ('',( #77 ) ) ;
#241 = DIMENSIONAL_EXPONENTS ( 1.000000000000000000, 0.0000000000000000000, 0.0000000000000000000, 0.0000000000000000000, 0.0000000000000000000, 0.0000000000000000000, 0.0000000000000000000 ) ;
#242 = FACE_OUTER_BOUND ( 'NONE', #218, .T. ) ;
#243 = CIRCLE ( 'NONE', #94, 0.05905500000000000332 ) ;
#244 = DIRECTION ( 'NONE',  ( 0.0000000000000000000, 0.0000000000000000000, -1.000000000000000000 ) ) ;
#245 = ORIENTED_EDGE ( 'NONE', *, *, #92, .F. ) ;
#246 = ORIENTED_EDGE ( 'NONE', *, *, #37, .F. ) ;
#247 = AXIS2_PLACEMENT_3D ( 'NONE', #3, #31, #278 ) ;
#248 = DIRECTION ( 'NONE',  ( 1.224646799147353207E-16, 0.0000000000000000000, 1.000000000000000000 ) ) ;
#249 = ORIENTED_EDGE ( 'NONE', *, *, #11, .T. ) ;
#250 = CIRCLE ( 'NONE', #34, 0.009832657500000001327 ) ;
#251 = CARTESIAN_POINT ( 'NONE',  ( 0.0000000000000000000, 0.0000000000000000000, 1.496062999999999921 ) ) ;
#252 = VECTOR ( 'NONE', #13, 39.37007874015748143 ) ;
#253 = DIRECTION ( 'NONE',  ( -1.224646799147353207E-16, -0.0000000000000000000, -1.000000000000000000 ) ) ;
#254 = CARTESIAN_POINT ( 'NONE',  ( 0.0000000000000000000, 0.0000000000000000000, 0.0000000000000000000 ) ) ;
#255 = FACE_OUTER_BOUND ( 'NONE', #15, .T. ) ;
#256 = CARTESIAN_POINT ( 'NONE',  ( -0.009832657499999992654, 4.218152462906707620E-18, 0.05905500000000000332 ) ) ;
#257 = EDGE_CURVE ( 'NONE', #18, #68, #78, .T. ) ;
#258 = COLOUR_RGB ( '',0.7921568627450980005, 0.8196078431372548767, 0.9333333333333333481 ) ;
#259 = CARTESIAN_POINT ( 'NONE',  ( -0.05905499999999996169, 0.0000000000000000000, 0.3382087761392446046 ) ) ;
#260 = FACE_OUTER_BOUND ( 'NONE', #198, .T. ) ;
#261 = DIRECTION ( 'NONE',  ( 1.000000000000000000, 0.0000000000000000000, 0.0000000000000000000 ) ) ;
#262 = DIRECTION ( 'NONE',  ( -0.0000000000000000000, -0.0000000000000000000, -1.000000000000000000 ) ) ;
#263 = DIRECTION ( 'NONE',  ( -1.224646799147353207E-16, -0.0000000000000000000, -1.000000000000000000 ) ) ;
#264 = ORIENTED_EDGE ( 'NONE', *, *, #257, .T. ) ;
#265 = VECTOR ( 'NONE', #263, 39.37007874015748143 ) ;
#266 = DIRECTION ( 'NONE',  ( -1.224646799147353207E-16, -0.0000000000000000000, -1.000000000000000000 ) ) ;
#267 = ORIENTED_EDGE ( 'NONE', *, *, #70, .F. ) ;
#268 = FILL_AREA_STYLE ('',( #39 ) ) ;
#269 = EDGE_LOOP ( 'NONE', ( #161, #69, #38, #157 ) ) ;
#270 = SURFACE_STYLE_USAGE ( .BOTH. , #32 ) ;
#271 = ORIENTED_EDGE ( 'NONE', *, *, #166, .T. ) ;
#272 = AXIS2_PLACEMENT_3D ( 'NONE', #135, #105, #87 ) ;
#273 = EDGE_LOOP ( 'NONE', ( #46, #271, #134, #267 ) ) ;
#274 =( CONVERSION_BASED_UNIT ( 'INCH', #93 ) LENGTH_UNIT ( ) NAMED_UNIT ( #193 ) );
#275 =( NAMED_UNIT ( * ) SI_UNIT ( $, .STERADIAN. ) SOLID_ANGLE_UNIT ( ) );
#276 = EDGE_CURVE ( 'NONE', #68, #296, #28, .T. ) ;
#277 = EDGE_CURVE ( 'NONE', #154, #221, #9, .T. ) ;
#278 = DIRECTION ( 'NONE',  ( -1.000000000000000000, 0.0000000000000000000, 0.0000000000000000000 ) ) ;
#279 = CARTESIAN_POINT ( 'NONE',  ( 1.474662427518848649E-34, 0.0000000000000000000, 1.204153253448721743E-18 ) ) ;
#280 = APPLICATION_PROTOCOL_DEFINITION ( 'draft international standard', 'automotive_design', 1998, #236 ) ;
#281 = CYLINDRICAL_SURFACE ( 'NONE', #283, 0.05905500000000000332 ) ;
#282 = CARTESIAN_POINT ( 'NONE',  ( -0.009832657500000001327, 0.0000000000000000000, 1.204153253448721743E-18 ) ) ;
#283 = AXIS2_PLACEMENT_3D ( 'NONE', #251, #53, #74 ) ;
#284 = DIRECTION ( 'NONE',  ( -1.000000000000000000, 0.0000000000000000000, 0.0000000000000000000 ) ) ;
#285 = MANIFOLD_SOLID_BREP ( 'Cut-Revolve1', #1 ) ;
#286 = CARTESIAN_POINT ( 'NONE',  ( 7.232151672364695422E-18, 0.0000000000000000000, 0.05905500000000000332 ) ) ;
#287 = SURFACE_STYLE_USAGE ( .BOTH. , #33 ) ;
#288 = EDGE_LOOP ( 'NONE', ( #14, #129 ) ) ;
#289 = EDGE_CURVE ( 'NONE', #291, #178, #60, .T. ) ;
#290 = CARTESIAN_POINT ( 'NONE',  ( 0.0000000000000000000, 0.0000000000000000000, 1.481062999999999574 ) ) ;
#291 = VERTEX_POINT ( 'NONE', #256 ) ;
#292 = CIRCLE ( 'NONE', #188, 0.009832657500000001327 ) ;
#293 = FACE_OUTER_BOUND ( 'NONE', #62, .T. ) ;
#294 = ORIENTED_EDGE ( 'NONE', *, *, #97, .F. ) ;
#295 = SURFACE_STYLE_FILL_AREA ( #268 ) ;
#296 = VERTEX_POINT ( 'NONE', #259 ) ;
#297 = ORIENTED_EDGE ( 'NONE', *, *, #125, .F. ) ;
#298 = ADVANCED_FACE ( 'NONE', ( #79 ), #150, .T. ) ;
#299 = PRESENTATION_LAYER_ASSIGNMENT (  '', '', ( #136 ) ) ;
ENDSEC;
END-ISO-10303-21;
