ISO-10303-21;
HEADER;
FILE_DESCRIPTION (( 'STEP AP214' ),
    '1' );
FILE_NAME ('59681.STEP',
    '2023-07-24T15:23:23',
    ( '' ),
    ( '' ),
    'SwSTEP 2.0',
    'SolidWorks 2023',
    '' );
FILE_SCHEMA (( 'AUTOMOTIVE_DESIGN' ));
ENDSEC;

DATA;
#1 = SURFACE_STYLE_FILL_AREA ( #311 ) ;
#2 = CARTESIAN_POINT ( 'NONE',  ( 0.000000000000000000, 1.000000000000000000, 0.000000000000000000 ) ) ;
#3 = ORIENTED_EDGE ( 'NONE', *, *, #217, .F. ) ;
#4 = ADVANCED_FACE ( 'NONE', ( #206 ), #101, .T. ) ;
#5 = DIRECTION ( 'NONE',  ( -0.000000000000000000, -1.000000000000000000, -0.000000000000000000 ) ) ;
#6 = PRODUCT_DEFINITION_FORMATION_WITH_SPECIFIED_SOURCE ( 'ANY', '', #249, .NOT_KNOWN. ) ;
#7 = ORIENTED_EDGE ( 'NONE', *, *, #27, .F. ) ;
#8 = SURFACE_STYLE_USAGE ( .BOTH. , #262 ) ;
#9 = ORIENTED_EDGE ( 'NONE', *, *, #274, .T. ) ;
#10 = EDGE_CURVE ( 'NONE', #281, #89, #360, .T. ) ;
#11 = LINE ( 'NONE', #326, #277 ) ;
#12 = ORIENTED_EDGE ( 'NONE', *, *, #27, .T. ) ;
#13 = AXIS2_PLACEMENT_3D ( 'NONE', #278, #23, #298 ) ;
#14 = ORIENTED_EDGE ( 'NONE', *, *, #91, .T. ) ;
#15 = SURFACE_STYLE_USAGE ( .BOTH. , #330 ) ;
#16 = FILL_AREA_STYLE_COLOUR ( '', #167 ) ;
#17 =( NAMED_UNIT ( * ) PLANE_ANGLE_UNIT ( ) SI_UNIT ( $, .RADIAN. ) );
#18 = FACE_OUTER_BOUND ( 'NONE', #159, .T. ) ;
#19 = CLOSED_SHELL ( 'NONE', ( #4, #212, #103, #270, #293, #121 ) ) ;
#20 = VECTOR ( 'NONE', #102, 1000.000000000000000 ) ;
#21 = DIRECTION ( 'NONE',  ( 0.000000000000000000, 0.000000000000000000, -1.000000000000000000 ) ) ;
#22 = CIRCLE ( 'NONE', #168, 9.000000000000001776 ) ;
#23 = DIRECTION ( 'NONE',  ( -0.000000000000000000, -1.000000000000000000, -0.000000000000000000 ) ) ;
#24 =( NAMED_UNIT ( * ) SI_UNIT ( $, .STERADIAN. ) SOLID_ANGLE_UNIT ( ) );
#25 = TOROIDAL_SURFACE ( 'NONE', #80, 9.000000000000001776, 1.000000000000000444 ) ;
#26 =( GEOMETRIC_REPRESENTATION_CONTEXT ( 3 ) GLOBAL_UNCERTAINTY_ASSIGNED_CONTEXT ( ( #230 ) ) GLOBAL_UNIT_ASSIGNED_CONTEXT ( ( #106, #76, #182 ) ) REPRESENTATION_CONTEXT ( 'NONE', 'WORKASPACE' ) );
#27 = EDGE_CURVE ( 'NONE', #328, #66, #344, .T. ) ;
#28 = DIRECTION ( 'NONE',  ( -0.000000000000000000, -1.000000000000000000, -0.000000000000000000 ) ) ;
#29 = EDGE_LOOP ( 'NONE', ( #129, #9, #296, #181 ) ) ;
#30 =( LENGTH_UNIT ( ) NAMED_UNIT ( * ) SI_UNIT ( .MILLI., .METRE. ) );
#31 =( GEOMETRIC_REPRESENTATION_CONTEXT ( 3 ) GLOBAL_UNCERTAINTY_ASSIGNED_CONTEXT ( ( #299 ) ) GLOBAL_UNIT_ASSIGNED_CONTEXT ( ( #272, #145, #253 ) ) REPRESENTATION_CONTEXT ( 'NONE', 'WORKASPACE' ) );
#32 = DIRECTION ( 'NONE',  ( -1.000000000000000000, 0.000000000000000000, 0.000000000000000000 ) ) ;
#33 = EDGE_LOOP ( 'NONE', ( #120, #14 ) ) ;
#34 = MECHANICAL_DESIGN_GEOMETRIC_PRESENTATION_REPRESENTATION (  '', ( #340 ), #229 ) ;
#35 = FILL_AREA_STYLE ('',( #350 ) ) ;
#36 = ORIENTED_EDGE ( 'NONE', *, *, #308, .F. ) ;
#37 = FILL_AREA_STYLE_COLOUR ( '', #73 ) ;
#38 = CARTESIAN_POINT ( 'NONE',  ( 10.00000000000000355, 50.00000000000000000, 1.224646799147353848E-15 ) ) ;
#39 = VERTEX_POINT ( 'NONE', #247 ) ;
#40 = FILL_AREA_STYLE ('',( #37 ) ) ;
#41 =( LENGTH_UNIT ( ) NAMED_UNIT ( * ) SI_UNIT ( .MILLI., .METRE. ) );
#42 = ORIENTED_EDGE ( 'NONE', *, *, #274, .F. ) ;
#43 = CARTESIAN_POINT ( 'NONE',  ( 0.000000000000000000, 1.000000000000000000, 0.000000000000000000 ) ) ;
#44 = ORIENTED_EDGE ( 'NONE', *, *, #84, .F. ) ;
#45 = EDGE_CURVE ( 'NONE', #335, #63, #242, .T. ) ;
#46 = CARTESIAN_POINT ( 'NONE',  ( -10.00000000000000533, 124.9999999999999858, 0.000000000000000000 ) ) ;
#47 = SURFACE_STYLE_USAGE ( .BOTH. , #186 ) ;
#48 = DIRECTION ( 'NONE',  ( -1.252807796048505441E-16, 1.000000000000000000, -0.000000000000000000 ) ) ;
#49 = FACE_OUTER_BOUND ( 'NONE', #56, .T. ) ;
#50 = AXIS2_PLACEMENT_3D ( 'NONE', #134, #105, #213 ) ;
#51 = CARTESIAN_POINT ( 'NONE',  ( 4.987329993433320396E-15, 50.00000000000000000, 0.000000000000000000 ) ) ;
#52 = CARTESIAN_POINT ( 'NONE',  ( 0.000000000000000000, 1.000000000000000000, 0.000000000000000000 ) ) ;
#53 = STYLED_ITEM ( 'NONE', ( #67 ), #4 ) ;
#54 = AXIS2_PLACEMENT_3D ( 'NONE', #221, #364, #83 ) ;
#55 = CARTESIAN_POINT ( 'NONE',  ( -4.408728476930469278E-15, 124.9999999999999858, 0.000000000000000000 ) ) ;
#56 = EDGE_LOOP ( 'NONE', ( #123, #283 ) ) ;
#57 = DIRECTION ( 'NONE',  ( 0.000000000000000000, 0.000000000000000000, -1.000000000000000000 ) ) ;
#58 = PRESENTATION_LAYER_ASSIGNMENT (  '', '', ( #53 ) ) ;
#59 = CIRCLE ( 'NONE', #114, 10.00000000000000533 ) ;
#60 = ADVANCED_FACE ( 'NONE', ( #338 ), #222, .T. ) ;
#61 = CARTESIAN_POINT ( 'NONE',  ( 0.000000000000000000, 0.000000000000000000, -10.00000000000000178 ) ) ;
#62 = PRESENTATION_STYLE_ASSIGNMENT (( #315 ) ) ;
#63 = VERTEX_POINT ( 'NONE', #197 ) ;
#64 = LINE ( 'NONE', #61, #97 ) ;
#65 = COLOUR_RGB ( '',1.000000000000000000, 0.000000000000000000, 0.000000000000000000 ) ;
#66 = VERTEX_POINT ( 'NONE', #195 ) ;
#67 = PRESENTATION_STYLE_ASSIGNMENT (( #47 ) ) ;
#68 = DIRECTION ( 'NONE',  ( -1.000000000000000000, 0.000000000000000000, 0.000000000000000000 ) ) ;
#69 = EDGE_CURVE ( 'NONE', #96, #281, #251, .T. ) ;
#70 = DIRECTION ( 'NONE',  ( 0.000000000000000000, 0.000000000000000000, -1.000000000000000000 ) ) ;
#71 = ORIENTED_EDGE ( 'NONE', *, *, #45, .T. ) ;
#72 = ORIENTED_EDGE ( 'NONE', *, *, #45, .F. ) ;
#73 = COLOUR_RGB ( '',0.7921568627450980005, 0.8196078431372548767, 0.9333333333333333481 ) ;
#74 =( NAMED_UNIT ( * ) SI_UNIT ( $, .STERADIAN. ) SOLID_ANGLE_UNIT ( ) );
#75 = ORIENTED_EDGE ( 'NONE', *, *, #84, .T. ) ;
#76 =( NAMED_UNIT ( * ) PLANE_ANGLE_UNIT ( ) SI_UNIT ( $, .RADIAN. ) );
#77 = UNCERTAINTY_MEASURE_WITH_UNIT (LENGTH_MEASURE( 1.000000000000000082E-05 ), #258, 'distance_accuracy_value', 'NONE');
#78 = DIRECTION ( 'NONE',  ( -1.000000000000000000, 0.000000000000000000, 0.000000000000000000 ) ) ;
#79 = ADVANCED_FACE ( 'NONE', ( #18 ), #341, .F. ) ;
#80 = AXIS2_PLACEMENT_3D ( 'NONE', #43, #104, #107 ) ;
#81 = CARTESIAN_POINT ( 'NONE',  ( 10.00000000000000000, 124.9999999999999858, 1.224646799147353454E-15 ) ) ;
#82 =( NAMED_UNIT ( * ) SI_UNIT ( $, .STERADIAN. ) SOLID_ANGLE_UNIT ( ) );
#83 = DIRECTION ( 'NONE',  ( -1.224646799147353454E-16, 0.000000000000000000, -1.000000000000000000 ) ) ;
#84 = EDGE_CURVE ( 'NONE', #335, #328, #207, .T. ) ;
#85 = APPLICATION_PROTOCOL_DEFINITION ( 'draft international standard', 'automotive_design', 1998, #147 ) ;
#86 =( NAMED_UNIT ( * ) PLANE_ANGLE_UNIT ( ) SI_UNIT ( $, .RADIAN. ) );
#87 = MECHANICAL_DESIGN_GEOMETRIC_PRESENTATION_REPRESENTATION (  '', ( #177 ), #150 ) ;
#88 = CARTESIAN_POINT ( 'NONE',  ( 0.000000000000000000, 50.00000000000000000, 0.000000000000000000 ) ) ;
#89 = VERTEX_POINT ( 'NONE', #81 ) ;
#90 =( NAMED_UNIT ( * ) SI_UNIT ( $, .STERADIAN. ) SOLID_ANGLE_UNIT ( ) );
#91 = EDGE_CURVE ( 'NONE', #63, #66, #22, .T. ) ;
#92 = VECTOR ( 'NONE', #216, 1000.000000000000000 ) ;
#93 = PRESENTATION_LAYER_ASSIGNMENT (  '', '', ( #127 ) ) ;
#94 =( NAMED_UNIT ( * ) PLANE_ANGLE_UNIT ( ) SI_UNIT ( $, .RADIAN. ) );
#95 = CARTESIAN_POINT ( 'NONE',  ( 0.000000000000000000, 1.000000000000000000, 0.000000000000000000 ) ) ;
#96 = VERTEX_POINT ( 'NONE', #307 ) ;
#97 = VECTOR ( 'NONE', #28, 1000.000000000000000 ) ;
#98 = CARTESIAN_POINT ( 'NONE',  ( 0.000000000000000000, 0.000000000000000000, 0.000000000000000000 ) ) ;
#99 = UNCERTAINTY_MEASURE_WITH_UNIT (LENGTH_MEASURE( 1.000000000000000082E-05 ), #248, 'distance_accuracy_value', 'NONE');
#100 = CARTESIAN_POINT ( 'NONE',  ( 0.000000000000000000, 50.00000000000000000, -10.00000000000000000 ) ) ;
#101 = CYLINDRICAL_SURFACE ( 'NONE', #50, 10.00000000000000178 ) ;
#102 = DIRECTION ( 'NONE',  ( -1.252807796048505441E-16, 1.000000000000000000, -0.000000000000000000 ) ) ;
#103 = ADVANCED_FACE ( 'NONE', ( #245 ), #304, .T. ) ;
#104 = DIRECTION ( 'NONE',  ( -0.000000000000000000, -1.000000000000000000, -0.000000000000000000 ) ) ;
#105 = DIRECTION ( 'NONE',  ( -0.000000000000000000, -1.000000000000000000, -0.000000000000000000 ) ) ;
#106 =( LENGTH_UNIT ( ) NAMED_UNIT ( * ) SI_UNIT ( .MILLI., .METRE. ) );
#107 = DIRECTION ( 'NONE',  ( 0.000000000000000000, 0.000000000000000000, -1.000000000000000000 ) ) ;
#108 = CARTESIAN_POINT ( 'NONE',  ( 9.999999999999994671, 124.9999999999999858, 1.224646799147353256E-15 ) ) ;
#109 = AXIS2_PLACEMENT_3D ( 'NONE', #160, #268, #273 ) ;
#110 = DIRECTION ( 'NONE',  ( -1.000000000000000000, -1.252807796048505441E-16, 0.000000000000000000 ) ) ;
#111 = DIRECTION ( 'NONE',  ( 0.000000000000000000, -1.000000000000000000, -0.000000000000000000 ) ) ;
#112 = PRESENTATION_STYLE_ASSIGNMENT (( #133 ) ) ;
#113 = SURFACE_STYLE_USAGE ( .BOTH. , #276 ) ;
#114 = AXIS2_PLACEMENT_3D ( 'NONE', #157, #285, #32 ) ;
#115 = AXIS2_PLACEMENT_3D ( 'NONE', #158, #233, #214 ) ;
#116 = SURFACE_STYLE_FILL_AREA ( #140 ) ;
#117 = PRESENTATION_LAYER_ASSIGNMENT (  '', '', ( #339 ) ) ;
#118 = CIRCLE ( 'NONE', #323, 9.999999999999996447 ) ;
#119 = PRESENTATION_STYLE_ASSIGNMENT (( #279 ) ) ;
#120 = ORIENTED_EDGE ( 'NONE', *, *, #280, .T. ) ;
#121 = ADVANCED_FACE ( 'NONE', ( #49 ), #250, .T. ) ;
#122 = CARTESIAN_POINT ( 'NONE',  ( 4.987329993433318819E-15, 50.00000000000000000, 0.000000000000000000 ) ) ;
#123 = ORIENTED_EDGE ( 'NONE', *, *, #130, .F. ) ;
#124 = FACE_OUTER_BOUND ( 'NONE', #267, .T. ) ;
#125 =( NAMED_UNIT ( * ) PLANE_ANGLE_UNIT ( ) SI_UNIT ( $, .RADIAN. ) );
#126 = ORIENTED_EDGE ( 'NONE', *, *, #284, .F. ) ;
#127 = STYLED_ITEM ( 'NONE', ( #365 ), #103 ) ;
#128 = DIRECTION ( 'NONE',  ( 0.000000000000000000, 0.000000000000000000, -1.000000000000000000 ) ) ;
#129 = ORIENTED_EDGE ( 'NONE', *, *, #10, .F. ) ;
#130 = EDGE_CURVE ( 'NONE', #236, #231, #275, .T. ) ;
#131 = DIRECTION ( 'NONE',  ( 0.000000000000000000, 0.000000000000000000, 1.000000000000000000 ) ) ;
#132 = FACE_OUTER_BOUND ( 'NONE', #154, .T. ) ;
#133 = SURFACE_STYLE_USAGE ( .BOTH. , #264 ) ;
#134 = CARTESIAN_POINT ( 'NONE',  ( 0.000000000000000000, 0.000000000000000000, 0.000000000000000000 ) ) ;
#135 = DIRECTION ( 'NONE',  ( -1.000000000000000000, 0.000000000000000000, 0.000000000000000000 ) ) ;
#136 = MECHANICAL_DESIGN_GEOMETRIC_PRESENTATION_REPRESENTATION (  '', ( #127 ), #31 ) ;
#137 = FACE_OUTER_BOUND ( 'NONE', #29, .T. ) ;
#138 = CARTESIAN_POINT ( 'NONE',  ( 0.000000000000000000, 0.000000000000000000, 0.000000000000000000 ) ) ;
#139 = UNCERTAINTY_MEASURE_WITH_UNIT (LENGTH_MEASURE( 1.000000000000000082E-05 ), #263, 'distance_accuracy_value', 'NONE');
#140 = FILL_AREA_STYLE ('',( #368 ) ) ;
#141 = MECHANICAL_DESIGN_GEOMETRIC_PRESENTATION_REPRESENTATION (  '', ( #367 ), #235 ) ;
#142 = PRESENTATION_LAYER_ASSIGNMENT (  '', '', ( #367 ) ) ;
#143 = PRODUCT_CONTEXT ( 'NONE', #174, 'mechanical' ) ;
#144 = ADVANCED_FACE ( 'NONE', ( #124 ), #237, .F. ) ;
#145 =( NAMED_UNIT ( * ) PLANE_ANGLE_UNIT ( ) SI_UNIT ( $, .RADIAN. ) );
#146 = CIRCLE ( 'NONE', #363, 10.00000000000000533 ) ;
#147 = APPLICATION_CONTEXT ( 'automotive_design' ) ;
#148 = FILL_AREA_STYLE_COLOUR ( '', #302 ) ;
#149 = PRODUCT_RELATED_PRODUCT_CATEGORY ( 'part', '', ( #249 ) ) ;
#150 =( GEOMETRIC_REPRESENTATION_CONTEXT ( 3 ) GLOBAL_UNCERTAINTY_ASSIGNED_CONTEXT ( ( #219 ) ) GLOBAL_UNIT_ASSIGNED_CONTEXT ( ( #343, #254, #345 ) ) REPRESENTATION_CONTEXT ( 'NONE', 'WORKASPACE' ) );
#151 = PRESENTATION_LAYER_ASSIGNMENT (  '', '', ( #287 ) ) ;
#152 = ORIENTED_EDGE ( 'NONE', *, *, #280, .F. ) ;
#153 = SURFACE_STYLE_FILL_AREA ( #35 ) ;
#154 = EDGE_LOOP ( 'NONE', ( #72, #75, #12, #208 ) ) ;
#155 = SURFACE_STYLE_FILL_AREA ( #218 ) ;
#156 = AXIS2_PLACEMENT_3D ( 'NONE', #52, #337, #21 ) ;
#157 = CARTESIAN_POINT ( 'NONE',  ( -4.408728476930469278E-15, 124.9999999999999858, 0.000000000000000000 ) ) ;
#158 = CARTESIAN_POINT ( 'NONE',  ( 0.000000000000000000, 0.000000000000000000, 0.000000000000000000 ) ) ;
#159 = EDGE_LOOP ( 'NONE', ( #260, #42 ) ) ;
#160 = CARTESIAN_POINT ( 'NONE',  ( 0.000000000000000000, 1.000000000000000000, -9.000000000000001776 ) ) ;
#161 = MECHANICAL_DESIGN_GEOMETRIC_PRESENTATION_REPRESENTATION (  '', ( #53 ), #203 ) ;
#162 = SURFACE_STYLE_FILL_AREA ( #306 ) ;
#163 = MECHANICAL_DESIGN_GEOMETRIC_PRESENTATION_REPRESENTATION (  '', ( #287 ), #26 ) ;
#164 = APPLICATION_PROTOCOL_DEFINITION ( 'draft international standard', 'automotive_design', 1998, #174 ) ;
#165 = DIRECTION ( 'NONE',  ( -1.252807796048505441E-16, 1.000000000000000000, -0.000000000000000000 ) ) ;
#166 = DIRECTION ( 'NONE',  ( 0.000000000000000000, 0.000000000000000000, -1.000000000000000000 ) ) ;
#167 = COLOUR_RGB ( '',1.000000000000000000, 0.000000000000000000, 0.000000000000000000 ) ;
#168 = AXIS2_PLACEMENT_3D ( 'NONE', #138, #194, #166 ) ;
#169 = SURFACE_SIDE_STYLE ('',( #1 ) ) ;
#170 = EDGE_LOOP ( 'NONE', ( #36, #211, #240, #44 ) ) ;
#171 = CIRCLE ( 'NONE', #223, 10.00000000000000178 ) ;
#172 = ADVANCED_BREP_SHAPE_REPRESENTATION ( '59681', ( #173, #292, #193 ), #224 ) ;
#173 = MANIFOLD_SOLID_BREP ( 'Revolve - Cutting Edge', #19 ) ;
#174 = APPLICATION_CONTEXT ( 'automotive_design' ) ;
#175 = CARTESIAN_POINT ( 'NONE',  ( 0.000000000000000000, 50.00000000000000000, 0.000000000000000000 ) ) ;
#176 = DIRECTION ( 'NONE',  ( 0.000000000000000000, 0.000000000000000000, -1.000000000000000000 ) ) ;
#177 = STYLED_ITEM ( 'NONE', ( #369 ), #121 ) ;
#178 = CARTESIAN_POINT ( 'NONE',  ( 1.224646799147353256E-15, 50.00000000000000000, 10.00000000000000000 ) ) ;
#179 = EDGE_LOOP ( 'NONE', ( #201, #297, #3, #126 ) ) ;
#180 = FACE_OUTER_BOUND ( 'NONE', #358, .T. ) ;
#181 = ORIENTED_EDGE ( 'NONE', *, *, #316, .F. ) ;
#182 =( NAMED_UNIT ( * ) SI_UNIT ( $, .STERADIAN. ) SOLID_ANGLE_UNIT ( ) );
#183 = FILL_AREA_STYLE ('',( #16 ) ) ;
#184 = DIRECTION ( 'NONE',  ( -1.252807796048505441E-16, 1.000000000000000000, -0.000000000000000000 ) ) ;
#185 = AXIS2_PLACEMENT_3D ( 'NONE', #51, #190, #110 ) ;
#186 = SURFACE_SIDE_STYLE ('',( #353 ) ) ;
#187 = CARTESIAN_POINT ( 'NONE',  ( -4.408728476930469278E-15, 124.9999999999999858, 0.000000000000000000 ) ) ;
#188 = EDGE_LOOP ( 'NONE', ( #261, #291, #227, #312 ) ) ;
#189 = CARTESIAN_POINT ( 'NONE',  ( 0.000000000000000000, 1.000000000000000000, -10.00000000000000178 ) ) ;
#190 = DIRECTION ( 'NONE',  ( -1.252807796048505441E-16, 1.000000000000000000, 0.000000000000000000 ) ) ;
#191 = LINE ( 'NONE', #46, #20 ) ;
#192 =( GEOMETRIC_REPRESENTATION_CONTEXT ( 3 ) GLOBAL_UNCERTAINTY_ASSIGNED_CONTEXT ( ( #327 ) ) GLOBAL_UNIT_ASSIGNED_CONTEXT ( ( #349, #94, #24 ) ) REPRESENTATION_CONTEXT ( 'NONE', 'WORKASPACE' ) );
#193 = AXIS2_PLACEMENT_3D ( 'NONE', #98, #131, #196 ) ;
#194 = DIRECTION ( 'NONE',  ( -0.000000000000000000, -1.000000000000000000, -0.000000000000000000 ) ) ;
#195 = CARTESIAN_POINT ( 'NONE',  ( 0.000000000000000000, 0.000000000000000000, -9.000000000000001776 ) ) ;
#196 = DIRECTION ( 'NONE',  ( 1.000000000000000000, 0.000000000000000000, 0.000000000000000000 ) ) ;
#197 = CARTESIAN_POINT ( 'NONE',  ( 1.163414459189985682E-15, 0.000000000000000000, 9.000000000000001776 ) ) ;
#198 = AXIS2_PLACEMENT_3D ( 'NONE', #220, #165, #135 ) ;
#199 = AXIS2_PLACEMENT_3D ( 'NONE', #95, #5, #176 ) ;
#200 = DIRECTION ( 'NONE',  ( 0.000000000000000000, 1.000000000000000000, 0.000000000000000000 ) ) ;
#201 = ORIENTED_EDGE ( 'NONE', *, *, #130, .T. ) ;
#202 = SURFACE_STYLE_FILL_AREA ( #288 ) ;
#203 =( GEOMETRIC_REPRESENTATION_CONTEXT ( 3 ) GLOBAL_UNCERTAINTY_ASSIGNED_CONTEXT ( ( #139 ) ) GLOBAL_UNIT_ASSIGNED_CONTEXT ( ( #263, #331, #232 ) ) REPRESENTATION_CONTEXT ( 'NONE', 'WORKASPACE' ) );
#204 = COLOUR_RGB ( '',1.000000000000000000, 0.000000000000000000, 0.000000000000000000 ) ;
#205 = DIRECTION ( 'NONE',  ( -0.000000000000000000, -1.000000000000000000, -0.000000000000000000 ) ) ;
#206 = FACE_OUTER_BOUND ( 'NONE', #179, .T. ) ;
#207 = CIRCLE ( 'NONE', #156, 10.00000000000000178 ) ;
#208 = ORIENTED_EDGE ( 'NONE', *, *, #91, .F. ) ;
#209 = PRODUCT_DEFINITION_SHAPE ( 'NONE', 'NONE',  #246 ) ;
#210 = CYLINDRICAL_SURFACE ( 'NONE', #115, 10.00000000000000178 ) ;
#211 = ORIENTED_EDGE ( 'NONE', *, *, #239, .T. ) ;
#212 = ADVANCED_FACE ( 'NONE', ( #180 ), #25, .T. ) ;
#213 = DIRECTION ( 'NONE',  ( 0.000000000000000000, 0.000000000000000000, -1.000000000000000000 ) ) ;
#214 = DIRECTION ( 'NONE',  ( 0.000000000000000000, 0.000000000000000000, -1.000000000000000000 ) ) ;
#215 = COLOUR_RGB ( '',0.7921568627450980005, 0.8196078431372548767, 0.9333333333333333481 ) ;
#216 = DIRECTION ( 'NONE',  ( -1.252807796048505441E-16, 1.000000000000000000, -0.000000000000000000 ) ) ;
#217 = EDGE_CURVE ( 'NONE', #328, #335, #171, .T. ) ;
#218 = FILL_AREA_STYLE ('',( #148 ) ) ;
#219 = UNCERTAINTY_MEASURE_WITH_UNIT (LENGTH_MEASURE( 1.000000000000000082E-05 ), #343, 'distance_accuracy_value', 'NONE');
#220 = CARTESIAN_POINT ( 'NONE',  ( 4.987329993433318819E-15, 50.00000000000000000, 0.000000000000000000 ) ) ;
#221 = CARTESIAN_POINT ( 'NONE',  ( 1.102182119232617911E-15, 1.000000000000000000, 9.000000000000001776 ) ) ;
#222 = CYLINDRICAL_SURFACE ( 'NONE', #282, 10.00000000000000000 ) ;
#223 = AXIS2_PLACEMENT_3D ( 'NONE', #2, #205, #128 ) ;
#224 =( GEOMETRIC_REPRESENTATION_CONTEXT ( 3 ) GLOBAL_UNCERTAINTY_ASSIGNED_CONTEXT ( ( #318 ) ) GLOBAL_UNIT_ASSIGNED_CONTEXT ( ( #41, #265, #241 ) ) REPRESENTATION_CONTEXT ( 'NONE', 'WORKASPACE' ) );
#225 = SURFACE_SIDE_STYLE ('',( #116 ) ) ;
#226 = PRESENTATION_LAYER_ASSIGNMENT (  '', '', ( #266 ) ) ;
#227 = ORIENTED_EDGE ( 'NONE', *, *, #252, .F. ) ;
#228 = CARTESIAN_POINT ( 'NONE',  ( 0.000000000000000000, 0.000000000000000000, 0.000000000000000000 ) ) ;
#229 =( GEOMETRIC_REPRESENTATION_CONTEXT ( 3 ) GLOBAL_UNCERTAINTY_ASSIGNED_CONTEXT ( ( #366 ) ) GLOBAL_UNIT_ASSIGNED_CONTEXT ( ( #30, #17, #74 ) ) REPRESENTATION_CONTEXT ( 'NONE', 'WORKASPACE' ) );
#230 = UNCERTAINTY_MEASURE_WITH_UNIT (LENGTH_MEASURE( 1.000000000000000082E-05 ), #106, 'distance_accuracy_value', 'NONE');
#231 = VERTEX_POINT ( 'NONE', #178 ) ;
#232 =( NAMED_UNIT ( * ) SI_UNIT ( $, .STERADIAN. ) SOLID_ANGLE_UNIT ( ) );
#233 = DIRECTION ( 'NONE',  ( -0.000000000000000000, -1.000000000000000000, -0.000000000000000000 ) ) ;
#234 = AXIS2_PLACEMENT_3D ( 'NONE', #271, #111, #309 ) ;
#235 =( GEOMETRIC_REPRESENTATION_CONTEXT ( 3 ) GLOBAL_UNCERTAINTY_ASSIGNED_CONTEXT ( ( #77 ) ) GLOBAL_UNIT_ASSIGNED_CONTEXT ( ( #258, #125, #90 ) ) REPRESENTATION_CONTEXT ( 'NONE', 'WORKASPACE' ) );
#236 = VERTEX_POINT ( 'NONE', #100 ) ;
#237 = PLANE ( 'NONE',  #269 ) ;
#238 = DIRECTION ( 'NONE',  ( -0.000000000000000000, -1.000000000000000000, -0.000000000000000000 ) ) ;
#239 = EDGE_CURVE ( 'NONE', #231, #236, #295, .T. ) ;
#240 = ORIENTED_EDGE ( 'NONE', *, *, #284, .T. ) ;
#241 =( NAMED_UNIT ( * ) SI_UNIT ( $, .STERADIAN. ) SOLID_ANGLE_UNIT ( ) );
#242 = CIRCLE ( 'NONE', #54, 1.000000000000000888 ) ;
#243 = DIRECTION ( 'NONE',  ( -1.252807796048505441E-16, 1.000000000000000000, -0.000000000000000000 ) ) ;
#244 = PRESENTATION_STYLE_ASSIGNMENT (( #15 ) ) ;
#245 = FACE_OUTER_BOUND ( 'NONE', #33, .T. ) ;
#246 = PRODUCT_DEFINITION ( 'UNKNOWN', '', #6, #357 ) ;
#247 = CARTESIAN_POINT ( 'NONE',  ( -10.00000000000001066, 124.9999999999999858, 0.000000000000000000 ) ) ;
#248 =( LENGTH_UNIT ( ) NAMED_UNIT ( * ) SI_UNIT ( .MILLI., .METRE. ) );
#249 = PRODUCT ( '59681', '59681', '', ( #143 ) ) ;
#250 = PLANE ( 'NONE',  #257 ) ;
#251 = CIRCLE ( 'NONE', #198, 9.999999999999996447 ) ;
#252 = EDGE_CURVE ( 'NONE', #39, #89, #59, .T. ) ;
#253 =( NAMED_UNIT ( * ) SI_UNIT ( $, .STERADIAN. ) SOLID_ANGLE_UNIT ( ) );
#254 =( NAMED_UNIT ( * ) PLANE_ANGLE_UNIT ( ) SI_UNIT ( $, .RADIAN. ) );
#255 = TOROIDAL_SURFACE ( 'NONE', #199, 9.000000000000001776, 1.000000000000000444 ) ;
#256 = FILL_AREA_STYLE_COLOUR ( '', #361 ) ;
#257 = AXIS2_PLACEMENT_3D ( 'NONE', #88, #200, #310 ) ;
#258 =( LENGTH_UNIT ( ) NAMED_UNIT ( * ) SI_UNIT ( .MILLI., .METRE. ) );
#259 = SURFACE_SIDE_STYLE ('',( #202 ) ) ;
#260 = ORIENTED_EDGE ( 'NONE', *, *, #69, .F. ) ;
#261 = ORIENTED_EDGE ( 'NONE', *, *, #69, .T. ) ;
#262 = SURFACE_SIDE_STYLE ('',( #153 ) ) ;
#263 =( LENGTH_UNIT ( ) NAMED_UNIT ( * ) SI_UNIT ( .MILLI., .METRE. ) );
#264 = SURFACE_SIDE_STYLE ('',( #329 ) ) ;
#265 =( NAMED_UNIT ( * ) PLANE_ANGLE_UNIT ( ) SI_UNIT ( $, .RADIAN. ) );
#266 = STYLED_ITEM ( 'NONE', ( #119 ), #212 ) ;
#267 = EDGE_LOOP ( 'NONE', ( #324, #289 ) ) ;
#268 = DIRECTION ( 'NONE',  ( -1.000000000000000000, 0.000000000000000000, 0.000000000000000000 ) ) ;
#269 = AXIS2_PLACEMENT_3D ( 'NONE', #352, #325, #321 ) ;
#270 = ADVANCED_FACE ( 'NONE', ( #132 ), #255, .T. ) ;
#271 = CARTESIAN_POINT ( 'NONE',  ( 0.000000000000000000, 0.000000000000000000, 0.000000000000000000 ) ) ;
#272 =( LENGTH_UNIT ( ) NAMED_UNIT ( * ) SI_UNIT ( .MILLI., .METRE. ) );
#273 = DIRECTION ( 'NONE',  ( 0.000000000000000000, 0.000000000000000000, 1.000000000000000000 ) ) ;
#274 = EDGE_CURVE ( 'NONE', #281, #96, #118, .T. ) ;
#275 = CIRCLE ( 'NONE', #13, 10.00000000000000000 ) ;
#276 = SURFACE_SIDE_STYLE ('',( #162 ) ) ;
#277 = VECTOR ( 'NONE', #238, 1000.000000000000000 ) ;
#278 = CARTESIAN_POINT ( 'NONE',  ( 0.000000000000000000, 50.00000000000000000, 0.000000000000000000 ) ) ;
#279 = SURFACE_STYLE_USAGE ( .BOTH. , #169 ) ;
#280 = EDGE_CURVE ( 'NONE', #66, #63, #354, .T. ) ;
#281 = VERTEX_POINT ( 'NONE', #38 ) ;
#282 = AXIS2_PLACEMENT_3D ( 'NONE', #55, #243, #78 ) ;
#283 = ORIENTED_EDGE ( 'NONE', *, *, #239, .F. ) ;
#284 = EDGE_CURVE ( 'NONE', #236, #328, #64, .T. ) ;
#285 = DIRECTION ( 'NONE',  ( -1.252807796048505441E-16, 1.000000000000000000, -0.000000000000000000 ) ) ;
#286 = MECHANICAL_DESIGN_GEOMETRIC_PRESENTATION_REPRESENTATION (  '', ( #339 ), #303 ) ;
#287 = STYLED_ITEM ( 'NONE', ( #244 ), #293 ) ;
#288 = FILL_AREA_STYLE ('',( #348 ) ) ;
#289 = ORIENTED_EDGE ( 'NONE', *, *, #316, .T. ) ;
#290 = DIRECTION ( 'NONE',  ( -1.000000000000000000, 0.000000000000000000, 0.000000000000000000 ) ) ;
#291 = ORIENTED_EDGE ( 'NONE', *, *, #10, .T. ) ;
#292 = MANIFOLD_SOLID_BREP ( 'Revolve - Tool Body (Straight Shanked)', #332 ) ;
#293 = ADVANCED_FACE ( 'NONE', ( #359 ), #210, .T. ) ;
#294 = AXIS2_PLACEMENT_3D ( 'NONE', #175, #319, #70 ) ;
#295 = CIRCLE ( 'NONE', #294, 10.00000000000000000 ) ;
#296 = ORIENTED_EDGE ( 'NONE', *, *, #347, .T. ) ;
#297 = ORIENTED_EDGE ( 'NONE', *, *, #308, .T. ) ;
#298 = DIRECTION ( 'NONE',  ( 0.000000000000000000, 0.000000000000000000, -1.000000000000000000 ) ) ;
#299 = UNCERTAINTY_MEASURE_WITH_UNIT (LENGTH_MEASURE( 1.000000000000000082E-05 ), #272, 'distance_accuracy_value', 'NONE');
#300 = PRESENTATION_STYLE_ASSIGNMENT (( #8 ) ) ;
#301 = FILL_AREA_STYLE_COLOUR ( '', #204 ) ;
#302 = COLOUR_RGB ( '',1.000000000000000000, 0.000000000000000000, 0.000000000000000000 ) ;
#303 =( GEOMETRIC_REPRESENTATION_CONTEXT ( 3 ) GLOBAL_UNCERTAINTY_ASSIGNED_CONTEXT ( ( #99 ) ) GLOBAL_UNIT_ASSIGNED_CONTEXT ( ( #248, #86, #82 ) ) REPRESENTATION_CONTEXT ( 'NONE', 'WORKASPACE' ) );
#304 = PLANE ( 'NONE',  #234 ) ;
#305 = SHAPE_DEFINITION_REPRESENTATION ( #209, #172 ) ;
#306 = FILL_AREA_STYLE ('',( #301 ) ) ;
#307 = CARTESIAN_POINT ( 'NONE',  ( -9.999999999999991118, 50.00000000000000000, 0.000000000000000000 ) ) ;
#308 = EDGE_CURVE ( 'NONE', #231, #335, #11, .T. ) ;
#309 = DIRECTION ( 'NONE',  ( 0.000000000000000000, 0.000000000000000000, -1.000000000000000000 ) ) ;
#310 = DIRECTION ( 'NONE',  ( 0.000000000000000000, -0.000000000000000000, 1.000000000000000000 ) ) ;
#311 = FILL_AREA_STYLE ('',( #256 ) ) ;
#312 = ORIENTED_EDGE ( 'NONE', *, *, #347, .F. ) ;
#313 = COLOUR_RGB ( '',1.000000000000000000, 0.000000000000000000, 0.000000000000000000 ) ;
#314 = DIRECTION ( 'NONE',  ( -1.252807796048505441E-16, 1.000000000000000000, -0.000000000000000000 ) ) ;
#315 = SURFACE_STYLE_USAGE ( .BOTH. , #259 ) ;
#316 = EDGE_CURVE ( 'NONE', #89, #39, #146, .T. ) ;
#317 = DIRECTION ( 'NONE',  ( -0.000000000000000000, -1.000000000000000000, -0.000000000000000000 ) ) ;
#318 = UNCERTAINTY_MEASURE_WITH_UNIT (LENGTH_MEASURE( 1.000000000000000082E-05 ), #41, 'distance_accuracy_value', 'NONE');
#319 = DIRECTION ( 'NONE',  ( -0.000000000000000000, -1.000000000000000000, -0.000000000000000000 ) ) ;
#320 = PRESENTATION_LAYER_ASSIGNMENT (  '', '', ( #340 ) ) ;
#321 = DIRECTION ( 'NONE',  ( 1.000000000000000000, 1.252807796048505441E-16, 0.000000000000000000 ) ) ;
#322 = PRESENTATION_LAYER_ASSIGNMENT (  '', '', ( #177 ) ) ;
#323 = AXIS2_PLACEMENT_3D ( 'NONE', #122, #314, #290 ) ;
#324 = ORIENTED_EDGE ( 'NONE', *, *, #252, .T. ) ;
#325 = DIRECTION ( 'NONE',  ( 1.252807796048505441E-16, -1.000000000000000000, 0.000000000000000000 ) ) ;
#326 = CARTESIAN_POINT ( 'NONE',  ( 1.224646799147353454E-15, 0.000000000000000000, 10.00000000000000178 ) ) ;
#327 = UNCERTAINTY_MEASURE_WITH_UNIT (LENGTH_MEASURE( 1.000000000000000082E-05 ), #349, 'distance_accuracy_value', 'NONE');
#328 = VERTEX_POINT ( 'NONE', #189 ) ;
#329 = SURFACE_STYLE_FILL_AREA ( #40 ) ;
#330 = SURFACE_SIDE_STYLE ('',( #155 ) ) ;
#331 =( NAMED_UNIT ( * ) PLANE_ANGLE_UNIT ( ) SI_UNIT ( $, .RADIAN. ) );
#332 = CLOSED_SHELL ( 'NONE', ( #60, #79, #336, #144 ) ) ;
#333 = CYLINDRICAL_SURFACE ( 'NONE', #334, 10.00000000000000000 ) ;
#334 = AXIS2_PLACEMENT_3D ( 'NONE', #187, #48, #356 ) ;
#335 = VERTEX_POINT ( 'NONE', #362 ) ;
#336 = ADVANCED_FACE ( 'NONE', ( #137 ), #333, .T. ) ;
#337 = DIRECTION ( 'NONE',  ( -0.000000000000000000, -1.000000000000000000, -0.000000000000000000 ) ) ;
#338 = FACE_OUTER_BOUND ( 'NONE', #188, .T. ) ;
#339 = STYLED_ITEM ( 'NONE', ( #112 ), #173 ) ;
#340 = STYLED_ITEM ( 'NONE', ( #62 ), #292 ) ;
#341 = PLANE ( 'NONE',  #185 ) ;
#342 = SURFACE_STYLE_USAGE ( .BOTH. , #225 ) ;
#343 =( LENGTH_UNIT ( ) NAMED_UNIT ( * ) SI_UNIT ( .MILLI., .METRE. ) );
#344 = CIRCLE ( 'NONE', #109, 1.000000000000000888 ) ;
#345 =( NAMED_UNIT ( * ) SI_UNIT ( $, .STERADIAN. ) SOLID_ANGLE_UNIT ( ) );
#346 = AXIS2_PLACEMENT_3D ( 'NONE', #228, #317, #57 ) ;
#347 = EDGE_CURVE ( 'NONE', #96, #39, #191, .T. ) ;
#348 = FILL_AREA_STYLE_COLOUR ( '', #215 ) ;
#349 =( LENGTH_UNIT ( ) NAMED_UNIT ( * ) SI_UNIT ( .MILLI., .METRE. ) );
#350 = FILL_AREA_STYLE_COLOUR ( '', #313 ) ;
#351 = ORIENTED_EDGE ( 'NONE', *, *, #217, .T. ) ;
#352 = CARTESIAN_POINT ( 'NONE',  ( 10.00000000000000000, 124.9999999999999858, 0.000000000000000000 ) ) ;
#353 = SURFACE_STYLE_FILL_AREA ( #183 ) ;
#354 = CIRCLE ( 'NONE', #346, 9.000000000000001776 ) ;
#355 = CARTESIAN_POINT ( 'NONE',  ( -4.408728476930469278E-15, 124.9999999999999858, 0.000000000000000000 ) ) ;
#356 = DIRECTION ( 'NONE',  ( -1.000000000000000000, 0.000000000000000000, 0.000000000000000000 ) ) ;
#357 = PRODUCT_DEFINITION_CONTEXT ( 'detailed design', #147, 'design' ) ;
#358 = EDGE_LOOP ( 'NONE', ( #351, #71, #152, #7 ) ) ;
#359 = FACE_OUTER_BOUND ( 'NONE', #170, .T. ) ;
#360 = LINE ( 'NONE', #108, #92 ) ;
#361 = COLOUR_RGB ( '',1.000000000000000000, 0.000000000000000000, 0.000000000000000000 ) ;
#362 = CARTESIAN_POINT ( 'NONE',  ( 1.224646799147353256E-15, 1.000000000000000000, 10.00000000000000178 ) ) ;
#363 = AXIS2_PLACEMENT_3D ( 'NONE', #355, #184, #68 ) ;
#364 = DIRECTION ( 'NONE',  ( 1.000000000000000000, 0.000000000000000000, -1.224646799147353207E-16 ) ) ;
#365 = PRESENTATION_STYLE_ASSIGNMENT (( #113 ) ) ;
#366 = UNCERTAINTY_MEASURE_WITH_UNIT (LENGTH_MEASURE( 1.000000000000000082E-05 ), #30, 'distance_accuracy_value', 'NONE');
#367 = STYLED_ITEM ( 'NONE', ( #300 ), #270 ) ;
#368 = FILL_AREA_STYLE_COLOUR ( '', #65 ) ;
#369 = PRESENTATION_STYLE_ASSIGNMENT (( #342 ) ) ;
#370 = MECHANICAL_DESIGN_GEOMETRIC_PRESENTATION_REPRESENTATION (  '', ( #266 ), #192 ) ;
ENDSEC;
END-ISO-10303-21;
