ISO-10303-21;
HEADER;
FILE_DESCRIPTION (( 'STEP AP214' ),
    '1' );
FILE_NAME ('Micro_BEM-062-02.STEP',
    '2021-09-03T12:58:13',
    ( '' ),
    ( '' ),
    'SwSTEP 2.0',
    'SolidWorks 2020',
    '' );
FILE_SCHEMA (( 'AUTOMOTIVE_DESIGN' ));
ENDSEC;

DATA;
#1 =( GEOMETRIC_REPRESENTATION_CONTEXT ( 3 ) GLOBAL_UNCERTAINTY_ASSIGNED_CONTEXT ( ( #187 ) ) GLOBAL_UNIT_ASSIGNED_CONTEXT ( ( #296, #240, #44 ) ) REPRESENTATION_CONTEXT ( 'NONE', 'WORKASPACE' ) );
#2 = UNCERTAINTY_MEASURE_WITH_UNIT (LENGTH_MEASURE( 1.000000000000000082E-05 ), #217, 'distance_accuracy_value', 'NONE');
#3 = FACE_OUTER_BOUND ( 'NONE', #202, .T. ) ;
#4 = VERTEX_POINT ( 'NONE', #161 ) ;
#5 = AXIS2_PLACEMENT_3D ( 'NONE', #310, #170, #34 ) ;
#6 = CYLINDRICAL_SURFACE ( 'NONE', #45, 0.03121874999999999997 ) ;
#7 = VERTEX_POINT ( 'NONE', #314 ) ;
#8 = DIRECTION ( 'NONE',  ( 0.0000000000000000000, -1.000000000000000000, 0.0000000000000000000 ) ) ;
#9 = CIRCLE ( 'NONE', #218, 0.06250000000000002776 ) ;
#10 = ORIENTED_EDGE ( 'NONE', *, *, #182, .T. ) ;
#11 = CARTESIAN_POINT ( 'NONE',  ( 0.0000000000000000000, 0.0000000000000000000, 1.500000000000000222 ) ) ;
#12 = ADVANCED_FACE ( 'NONE', ( #234 ), #214, .T. ) ;
#13 = VERTEX_POINT ( 'NONE', #141 ) ;
#14 = ORIENTED_EDGE ( 'NONE', *, *, #266, .F. ) ;
#15 = AXIS2_PLACEMENT_3D ( 'NONE', #60, #83, #107 ) ;
#16 = LENGTH_MEASURE_WITH_UNIT ( LENGTH_MEASURE( 0.02539999999999999897 ), #74 );
#17 =( NAMED_UNIT ( * ) SI_UNIT ( $, .STERADIAN. ) SOLID_ANGLE_UNIT ( ) );
#18 = FILL_AREA_STYLE_COLOUR ( '', #175 ) ;
#19 = EDGE_CURVE ( 'NONE', #32, #47, #197, .T. ) ;
#20 = SPHERICAL_SURFACE ( 'NONE', #301, 0.03121874999999999997 ) ;
#21 = CARTESIAN_POINT ( 'NONE',  ( 5.734791339132217072E-18, 0.0000000000000000000, 0.0000000000000000000 ) ) ;
#22 = CIRCLE ( 'NONE', #41, 0.03121874999999999997 ) ;
#23 = DIRECTION ( 'NONE',  ( -1.000000000000000000, 0.0000000000000000000, 0.0000000000000000000 ) ) ;
#24 = CARTESIAN_POINT ( 'NONE',  ( 0.0000000000000000000, 0.0000000000000000000, 1.500000000000000222 ) ) ;
#25 = AXIS2_PLACEMENT_3D ( 'NONE', #113, #68, #222 ) ;
#26 = PRODUCT_DEFINITION_SHAPE ( 'NONE', 'NONE',  #231 ) ;
#27 = CARTESIAN_POINT ( 'NONE',  ( -0.04750000000000064587, 0.0000000000000000000, 1.500000000000000222 ) ) ;
#28 = DIRECTION ( 'NONE',  ( 0.0000000000000000000, 1.000000000000000000, 0.0000000000000000000 ) ) ;
#29 =( NAMED_UNIT ( * ) PLANE_ANGLE_UNIT ( ) SI_UNIT ( $, .RADIAN. ) );
#30 = ORIENTED_EDGE ( 'NONE', *, *, #201, .T. ) ;
#31 = ORIENTED_EDGE ( 'NONE', *, *, #182, .F. ) ;
#32 = VERTEX_POINT ( 'NONE', #36 ) ;
#33 = DIRECTION ( 'NONE',  ( 1.224646799147353700E-16, 0.0000000000000000000, 1.000000000000000000 ) ) ;
#34 = DIRECTION ( 'NONE',  ( 1.000000000000000000, 0.0000000000000000000, 0.0000000000000000000 ) ) ;
#35 = CARTESIAN_POINT ( 'NONE',  ( 3.823194226088145228E-18, 0.0000000000000000000, 0.03121874999999999997 ) ) ;
#36 = CARTESIAN_POINT ( 'NONE',  ( -0.06250000000000002776, 0.0000000000000000000, 1.485000000000000764 ) ) ;
#37 = ORIENTED_EDGE ( 'NONE', *, *, #191, .F. ) ;
#38 = CIRCLE ( 'NONE', #138, 0.04750000000000064587 ) ;
#39 = DIRECTION ( 'NONE',  ( 1.000000000000000000, 0.0000000000000000000, 0.0000000000000000000 ) ) ;
#40 = DIRECTION ( 'NONE',  ( 1.224646799147353700E-16, 0.0000000000000000000, 1.000000000000000000 ) ) ;
#41 = AXIS2_PLACEMENT_3D ( 'NONE', #171, #40, #319 ) ;
#42 = DIRECTION ( 'NONE',  ( -1.224646799147353700E-16, -0.0000000000000000000, -1.000000000000000000 ) ) ;
#43 = AXIS2_PLACEMENT_3D ( 'NONE', #121, #306, #100 ) ;
#44 =( NAMED_UNIT ( * ) SI_UNIT ( $, .STERADIAN. ) SOLID_ANGLE_UNIT ( ) );
#45 = AXIS2_PLACEMENT_3D ( 'NONE', #305, #181, #281 ) ;
#46 = CARTESIAN_POINT ( 'NONE',  ( 0.03121874999999999997, 3.823194226088143687E-18, -3.823194226088145228E-18 ) ) ;
#47 = VERTEX_POINT ( 'NONE', #109 ) ;
#48 = CARTESIAN_POINT ( 'NONE',  ( 0.04750000000000064587, 6.735557395310483192E-18, 1.500000000000000222 ) ) ;
#49 = ORIENTED_EDGE ( 'NONE', *, *, #323, .F. ) ;
#50 = AXIS2_PLACEMENT_3D ( 'NONE', #256, #33, #39 ) ;
#51 = DIRECTION ( 'NONE',  ( -0.1736481776669311916, 2.126576849575783316E-17, 0.9848077530122080203 ) ) ;
#52 = ORIENTED_EDGE ( 'NONE', *, *, #266, .T. ) ;
#53 = FILL_AREA_STYLE ('',( #130 ) ) ;
#54 = ORIENTED_EDGE ( 'NONE', *, *, #81, .T. ) ;
#55 = EDGE_LOOP ( 'NONE', ( #252, #30, #309, #49 ) ) ;
#56 = EDGE_CURVE ( 'NONE', #206, #7, #199, .T. ) ;
#57 = CIRCLE ( 'NONE', #322, 0.03121874999999999997 ) ;
#58 = ORIENTED_EDGE ( 'NONE', *, *, #81, .F. ) ;
#59 = ORIENTED_EDGE ( 'NONE', *, *, #308, .T. ) ;
#60 = CARTESIAN_POINT ( 'NONE',  ( 0.0000000000000000000, 0.0000000000000000000, 1.500000000000000222 ) ) ;
#61 = SURFACE_SIDE_STYLE ('',( #290 ) ) ;
#62 = AXIS2_PLACEMENT_3D ( 'NONE', #155, #8, #307 ) ;
#63 =( NAMED_UNIT ( * ) PLANE_ANGLE_UNIT ( ) SI_UNIT ( $, .RADIAN. ) );
#64 = DIRECTION ( 'NONE',  ( 0.0000000000000000000, 1.000000000000000000, 0.0000000000000000000 ) ) ;
#65 = FACE_OUTER_BOUND ( 'NONE', #76, .T. ) ;
#66 = AXIS2_PLACEMENT_3D ( 'NONE', #211, #259, #216 ) ;
#67 = DIRECTION ( 'NONE',  ( 0.0000000000000000000, 0.0000000000000000000, -1.000000000000000000 ) ) ;
#68 = DIRECTION ( 'NONE',  ( 0.0000000000000000000, 0.0000000000000000000, -1.000000000000000000 ) ) ;
#69 = EDGE_CURVE ( 'NONE', #282, #227, #38, .T. ) ;
#70 =( NAMED_UNIT ( * ) SI_UNIT ( $, .STERADIAN. ) SOLID_ANGLE_UNIT ( ) );
#71 = EDGE_LOOP ( 'NONE', ( #232, #10, #154, #176 ) ) ;
#72 =( LENGTH_UNIT ( ) NAMED_UNIT ( * ) SI_UNIT ( $, .METRE. ) );
#73 = EDGE_LOOP ( 'NONE', ( #14, #88, #158 ) ) ;
#74 =( LENGTH_UNIT ( ) NAMED_UNIT ( * ) SI_UNIT ( $, .METRE. ) );
#75 = DIRECTION ( 'NONE',  ( 1.000000000000000000, 0.0000000000000000000, 0.0000000000000000000 ) ) ;
#76 = EDGE_LOOP ( 'NONE', ( #137, #52, #288 ) ) ;
#77 = LENGTH_MEASURE_WITH_UNIT ( LENGTH_MEASURE( 0.02539999999999999897 ), #72 );
#78 = CIRCLE ( 'NONE', #157, 0.03121874999999999997 ) ;
#79 = DIRECTION ( 'NONE',  ( -1.224646799147353700E-16, -0.0000000000000000000, -1.000000000000000000 ) ) ;
#80 = EDGE_LOOP ( 'NONE', ( #126, #37, #254, #215 ) ) ;
#81 = EDGE_CURVE ( 'NONE', #47, #32, #192, .T. ) ;
#82 = EDGE_LOOP ( 'NONE', ( #189, #185, #101, #274 ) ) ;
#83 = DIRECTION ( 'NONE',  ( 0.0000000000000000000, 0.0000000000000000000, 1.000000000000000000 ) ) ;
#84 = AXIS2_PLACEMENT_3D ( 'NONE', #276, #28, #75 ) ;
#85 = ORIENTED_EDGE ( 'NONE', *, *, #323, .T. ) ;
#86 = APPLICATION_PROTOCOL_DEFINITION ( 'draft international standard', 'automotive_design', 1998, #205 ) ;
#87 = ORIENTED_EDGE ( 'NONE', *, *, #69, .T. ) ;
#88 = ORIENTED_EDGE ( 'NONE', *, *, #56, .T. ) ;
#89 = CARTESIAN_POINT ( 'NONE',  ( 2.302335982397025094E-17, 0.0000000000000000000, 0.1880000000000000282 ) ) ;
#90 = EDGE_CURVE ( 'NONE', #227, #282, #249, .T. ) ;
#91 = PRODUCT_DEFINITION_FORMATION_WITH_SPECIFIED_SOURCE ( 'ANY', '', #125, .NOT_KNOWN. ) ;
#92 = DIRECTION ( 'NONE',  ( 1.000000000000000000, 0.0000000000000000000, -0.0000000000000000000 ) ) ;
#93 = CARTESIAN_POINT ( 'NONE',  ( 0.06250000000000002776, 7.654042494670959086E-18, 1.500000000000000222 ) ) ;
#94 = CARTESIAN_POINT ( 'NONE',  ( 0.0000000000000000000, 0.0000000000000000000, 1.500000000000000222 ) ) ;
#95 = APPLICATION_CONTEXT ( 'automotive_design' ) ;
#96 = ADVANCED_FACE ( 'NONE', ( #164 ), #235, .T. ) ;
#97 = DIRECTION ( 'NONE',  ( -1.224646799147353700E-16, -0.0000000000000000000, -1.000000000000000000 ) ) ;
#98 = LINE ( 'NONE', #46, #239 ) ;
#99 = EDGE_LOOP ( 'NONE', ( #300, #59, #284, #156 ) ) ;
#100 = DIRECTION ( 'NONE',  ( 1.000000000000000000, 0.0000000000000000000, 0.0000000000000000000 ) ) ;
#101 = ORIENTED_EDGE ( 'NONE', *, *, #147, .T. ) ;
#102 = AXIS2_PLACEMENT_3D ( 'NONE', #190, #315, #260 ) ;
#103 = CARTESIAN_POINT ( 'NONE',  ( -0.03121874999999997916, 3.823194226088143687E-18, 0.1880000000000000282 ) ) ;
#104 = VERTEX_POINT ( 'NONE', #258 ) ;
#105 = CARTESIAN_POINT ( 'NONE',  ( 0.03121875000000002426, 0.0000000000000000000, 0.1880000000000000282 ) ) ;
#106 = VECTOR ( 'NONE', #51, 39.37007874015747433 ) ;
#107 = DIRECTION ( 'NONE',  ( 1.000000000000000000, 0.0000000000000000000, 0.0000000000000000000 ) ) ;
#108 = DIRECTION ( 'NONE',  ( 0.0000000000000000000, 0.0000000000000000000, 1.000000000000000000 ) ) ;
#109 = CARTESIAN_POINT ( 'NONE',  ( 0.06250000000000002776, 7.654042494670959086E-18, 1.485000000000000764 ) ) ;
#110 = CLOSED_SHELL ( 'NONE', ( #210, #283, #12, #169, #129, #96, #140, #195, #325, #263, #159 ) ) ;
#111 = EDGE_LOOP ( 'NONE', ( #289, #209, #85, #58 ) ) ;
#112 = FILL_AREA_STYLE ('',( #18 ) ) ;
#113 = CARTESIAN_POINT ( 'NONE',  ( 0.0000000000000000000, 0.0000000000000000000, 1.500000000000000222 ) ) ;
#114 = DIMENSIONAL_EXPONENTS ( 1.000000000000000000, 0.0000000000000000000, 0.0000000000000000000, 0.0000000000000000000, 0.0000000000000000000, 0.0000000000000000000, 0.0000000000000000000 ) ;
#115 = FACE_OUTER_BOUND ( 'NONE', #73, .T. ) ;
#116 =( GEOMETRIC_REPRESENTATION_CONTEXT ( 3 ) GLOBAL_UNCERTAINTY_ASSIGNED_CONTEXT ( ( #291 ) ) GLOBAL_UNIT_ASSIGNED_CONTEXT ( ( #177, #29, #70 ) ) REPRESENTATION_CONTEXT ( 'NONE', 'WORKASPACE' ) );
#117 = DIRECTION ( 'NONE',  ( -0.0000000000000000000, -0.0000000000000000000, -1.000000000000000000 ) ) ;
#118 = EDGE_CURVE ( 'NONE', #13, #4, #236, .T. ) ;
#119 = LINE ( 'NONE', #193, #150 ) ;
#120 = AXIS2_PLACEMENT_3D ( 'NONE', #24, #67, #173 ) ;
#121 = CARTESIAN_POINT ( 'NONE',  ( 2.302335982397025094E-17, 0.0000000000000000000, 0.1880000000000000282 ) ) ;
#122 = MANIFOLD_SOLID_BREP ( 'Fillet1', #110 ) ;
#123 = DIRECTION ( 'NONE',  ( 1.000000000000000000, 0.0000000000000000000, 0.0000000000000000000 ) ) ;
#124 = EDGE_CURVE ( 'NONE', #213, #7, #78, .T. ) ;
#125 = PRODUCT ( 'Micro_BEM-062-02', 'Micro_BEM-062-02', '', ( #264 ) ) ;
#126 = ORIENTED_EDGE ( 'NONE', *, *, #308, .F. ) ;
#127 = AXIS2_PLACEMENT_3D ( 'NONE', #311, #135, #133 ) ;
#128 = SPHERICAL_SURFACE ( 'NONE', #84, 0.03121874999999999997 ) ;
#129 = ADVANCED_FACE ( 'NONE', ( #220 ), #198, .T. ) ;
#130 = FILL_AREA_STYLE_COLOUR ( '', #184 ) ;
#131 = AXIS2_PLACEMENT_3D ( 'NONE', #298, #316, #92 ) ;
#132 = APPLICATION_PROTOCOL_DEFINITION ( 'draft international standard', 'automotive_design', 1998, #95 ) ;
#133 = DIRECTION ( 'NONE',  ( 1.000000000000000000, 0.0000000000000000000, 0.0000000000000000000 ) ) ;
#134 = STYLED_ITEM ( 'NONE', ( #304 ), #320 ) ;
#135 = DIRECTION ( 'NONE',  ( 0.0000000000000000000, 0.0000000000000000000, -1.000000000000000000 ) ) ;
#136 = SHAPE_DEFINITION_REPRESENTATION ( #26, #320 ) ;
#137 = ORIENTED_EDGE ( 'NONE', *, *, #56, .F. ) ;
#138 = AXIS2_PLACEMENT_3D ( 'NONE', #11, #108, #312 ) ;
#139 = DIRECTION ( 'NONE',  ( 1.224646799147353207E-16, 1.000000000000000000, -0.0000000000000000000 ) ) ;
#140 = ADVANCED_FACE ( 'NONE', ( #295 ), #196, .T. ) ;
#141 = CARTESIAN_POINT ( 'NONE',  ( 0.06250000000000006939, 7.654042494670963708E-18, 0.3654047844199156403 ) ) ;
#142 = DIMENSIONAL_EXPONENTS ( 1.000000000000000000, 0.0000000000000000000, 0.0000000000000000000, 0.0000000000000000000, 0.0000000000000000000, 0.0000000000000000000, 0.0000000000000000000 ) ;
#143 =( LENGTH_UNIT ( ) NAMED_UNIT ( * ) SI_UNIT ( $, .METRE. ) );
#144 = PRESENTATION_STYLE_ASSIGNMENT (( #243 ) ) ;
#145 = MECHANICAL_DESIGN_GEOMETRIC_PRESENTATION_REPRESENTATION (  '', ( #221 ), #1 ) ;
#146 = FACE_OUTER_BOUND ( 'NONE', #111, .T. ) ;
#147 = EDGE_CURVE ( 'NONE', #104, #7, #194, .T. ) ;
#148 = FACE_OUTER_BOUND ( 'NONE', #55, .T. ) ;
#149 = CARTESIAN_POINT ( 'NONE',  ( 0.0000000000000000000, 0.0000000000000000000, 0.0000000000000000000 ) ) ;
#150 = VECTOR ( 'NONE', #265, 39.37007874015748854 ) ;
#151 = EDGE_CURVE ( 'NONE', #7, #213, #22, .T. ) ;
#152 = ORIENTED_EDGE ( 'NONE', *, *, #90, .T. ) ;
#153 = LINE ( 'NONE', #277, #272 ) ;
#154 = ORIENTED_EDGE ( 'NONE', *, *, #212, .F. ) ;
#155 = CARTESIAN_POINT ( 'NONE',  ( 3.823194226088145228E-18, 0.0000000000000000000, 0.03121874999999999997 ) ) ;
#156 = ORIENTED_EDGE ( 'NONE', *, *, #255, .F. ) ;
#157 = AXIS2_PLACEMENT_3D ( 'NONE', #237, #270, #321 ) ;
#158 = ORIENTED_EDGE ( 'NONE', *, *, #124, .F. ) ;
#159 = ADVANCED_FACE ( 'NONE', ( #65 ), #20, .T. ) ;
#160 = SURFACE_SIDE_STYLE ('',( #229 ) ) ;
#161 = CARTESIAN_POINT ( 'NONE',  ( -0.06249999999999997918, 0.0000000000000000000, 0.3654047844199156403 ) ) ;
#162 = VECTOR ( 'NONE', #97, 39.37007874015748143 ) ;
#163 = DIRECTION ( 'NONE',  ( -1.000000000000000000, 0.0000000000000000000, 0.0000000000000000000 ) ) ;
#164 = FACE_OUTER_BOUND ( 'NONE', #262, .T. ) ;
#165 = DIMENSIONAL_EXPONENTS ( 1.000000000000000000, 0.0000000000000000000, 0.0000000000000000000, 0.0000000000000000000, 0.0000000000000000000, 0.0000000000000000000, 0.0000000000000000000 ) ;
#166 = DIRECTION ( 'NONE',  ( -0.0000000000000000000, -0.0000000000000000000, -1.000000000000000000 ) ) ;
#167 = AXIS2_PLACEMENT_3D ( 'NONE', #94, #117, #23 ) ;
#168 = ORIENTED_EDGE ( 'NONE', *, *, #124, .T. ) ;
#169 = ADVANCED_FACE ( 'NONE', ( #148 ), #279, .T. ) ;
#170 = DIRECTION ( 'NONE',  ( 0.0000000000000000000, 0.0000000000000000000, 1.000000000000000000 ) ) ;
#171 = CARTESIAN_POINT ( 'NONE',  ( 3.823194226088145228E-18, 0.0000000000000000000, 0.03121874999999999997 ) ) ;
#172 = VECTOR ( 'NONE', #269, 39.37007874015748143 ) ;
#173 = DIRECTION ( 'NONE',  ( -1.000000000000000000, 0.0000000000000000000, 0.0000000000000000000 ) ) ;
#174 = CARTESIAN_POINT ( 'NONE',  ( 3.823194226088145228E-18, 0.0000000000000000000, 0.03121874999999999997 ) ) ;
#175 = COLOUR_RGB ( '',0.7921568627450980005, 0.8196078431372548767, 0.9333333333333333481 ) ;
#176 = ORIENTED_EDGE ( 'NONE', *, *, #317, .F. ) ;
#177 =( CONVERSION_BASED_UNIT ( 'INCH', #77 ) LENGTH_UNIT ( ) NAMED_UNIT ( #142 ) );
#178 = VERTEX_POINT ( 'NONE', #238 ) ;
#179 = DIRECTION ( 'NONE',  ( 0.1736481776669313859, 0.0000000000000000000, 0.9848077530122077983 ) ) ;
#180 = ORIENTED_EDGE ( 'NONE', *, *, #242, .T. ) ;
#181 = DIRECTION ( 'NONE',  ( -1.224646799147353700E-16, -0.0000000000000000000, -1.000000000000000000 ) ) ;
#182 = EDGE_CURVE ( 'NONE', #47, #13, #297, .T. ) ;
#183 = CARTESIAN_POINT ( 'NONE',  ( 2.302335982397025094E-17, 0.0000000000000000000, 0.1880000000000000282 ) ) ;
#184 = COLOUR_RGB ( '',0.7921568627450980005, 0.8196078431372548767, 0.9333333333333333481 ) ;
#185 = ORIENTED_EDGE ( 'NONE', *, *, #191, .T. ) ;
#186 = CARTESIAN_POINT ( 'NONE',  ( 0.0000000000000000000, 0.0000000000000000000, 1.500000000000000222 ) ) ;
#187 = UNCERTAINTY_MEASURE_WITH_UNIT (LENGTH_MEASURE( 1.000000000000000082E-05 ), #296, 'distance_accuracy_value', 'NONE');
#188 = DIRECTION ( 'NONE',  ( -1.000000000000000000, 1.224646799147353454E-16, 0.0000000000000000000 ) ) ;
#189 = ORIENTED_EDGE ( 'NONE', *, *, #242, .F. ) ;
#190 = CARTESIAN_POINT ( 'NONE',  ( 4.474917996329785777E-17, 0.0000000000000000000, 0.3654047844199156403 ) ) ;
#191 = EDGE_CURVE ( 'NONE', #178, #104, #57, .T. ) ;
#192 = CIRCLE ( 'NONE', #66, 0.06250000000000002776 ) ;
#193 = CARTESIAN_POINT ( 'NONE',  ( 0.04750000000000064587, 5.817072295950006528E-18, 1.500000000000000222 ) ) ;
#194 = LINE ( 'NONE', #219, #162 ) ;
#195 = ADVANCED_FACE ( 'NONE', ( #146 ), #286, .T. ) ;
#196 = PLANE ( 'NONE',  #131 ) ;
#197 = CIRCLE ( 'NONE', #127, 0.06250000000000002776 ) ;
#198 = CYLINDRICAL_SURFACE ( 'NONE', #167, 0.06250000000000002776 ) ;
#199 = CIRCLE ( 'NONE', #226, 0.03121874999999999997 ) ;
#200 = FACE_OUTER_BOUND ( 'NONE', #82, .T. ) ;
#201 = EDGE_CURVE ( 'NONE', #227, #47, #119, .T. ) ;
#202 = EDGE_LOOP ( 'NONE', ( #285, #180, #168, #280 ) ) ;
#203 = PRODUCT_DEFINITION_CONTEXT ( 'detailed design', #95, 'design' ) ;
#204 = CYLINDRICAL_SURFACE ( 'NONE', #261, 0.03121874999999999997 ) ;
#205 = APPLICATION_CONTEXT ( 'automotive_design' ) ;
#206 = VERTEX_POINT ( 'NONE', #21 ) ;
#207 = LINE ( 'NONE', #105, #268 ) ;
#208 = CIRCLE ( 'NONE', #62, 0.03121874999999999997 ) ;
#209 = ORIENTED_EDGE ( 'NONE', *, *, #69, .F. ) ;
#210 = ADVANCED_FACE ( 'NONE', ( #115 ), #128, .T. ) ;
#211 = CARTESIAN_POINT ( 'NONE',  ( 0.0000000000000000000, 0.0000000000000000000, 1.485000000000000764 ) ) ;
#212 = EDGE_CURVE ( 'NONE', #4, #13, #9, .T. ) ;
#213 = VERTEX_POINT ( 'NONE', #228 ) ;
#214 = CONICAL_SURFACE ( 'NONE', #50, 0.03121874999999999997, 0.1745329251994338915 ) ;
#215 = ORIENTED_EDGE ( 'NONE', *, *, #118, .T. ) ;
#216 = DIRECTION ( 'NONE',  ( 1.000000000000000000, 0.0000000000000000000, 0.0000000000000000000 ) ) ;
#217 =( CONVERSION_BASED_UNIT ( 'INCH', #16 ) LENGTH_UNIT ( ) NAMED_UNIT ( #114 ) );
#218 = AXIS2_PLACEMENT_3D ( 'NONE', #267, #245, #123 ) ;
#219 = CARTESIAN_POINT ( 'NONE',  ( -0.03121874999999999997, 0.0000000000000000000, 3.823194226088145228E-18 ) ) ;
#220 = FACE_OUTER_BOUND ( 'NONE', #71, .T. ) ;
#221 = STYLED_ITEM ( 'NONE', ( #144 ), #122 ) ;
#222 = DIRECTION ( 'NONE',  ( -1.000000000000000000, 0.0000000000000000000, 0.0000000000000000000 ) ) ;
#223 = PRODUCT_RELATED_PRODUCT_CATEGORY ( 'part', '', ( #125 ) ) ;
#224 = DIRECTION ( 'NONE',  ( -1.224646799147353700E-16, -0.0000000000000000000, -1.000000000000000000 ) ) ;
#225 = DIRECTION ( 'NONE',  ( -1.000000000000000000, 0.0000000000000000000, 0.0000000000000000000 ) ) ;
#226 = AXIS2_PLACEMENT_3D ( 'NONE', #35, #139, #188 ) ;
#227 = VERTEX_POINT ( 'NONE', #48 ) ;
#228 = CARTESIAN_POINT ( 'NONE',  ( 0.03121875000000000691, 3.823194226088143687E-18, 0.03121874999999999650 ) ) ;
#229 = SURFACE_STYLE_FILL_AREA ( #53 ) ;
#230 = PRESENTATION_LAYER_ASSIGNMENT (  '', '', ( #221 ) ) ;
#231 = PRODUCT_DEFINITION ( 'UNKNOWN', '', #91, #203 ) ;
#232 = ORIENTED_EDGE ( 'NONE', *, *, #19, .T. ) ;
#233 =( GEOMETRIC_REPRESENTATION_CONTEXT ( 3 ) GLOBAL_UNCERTAINTY_ASSIGNED_CONTEXT ( ( #2 ) ) GLOBAL_UNIT_ASSIGNED_CONTEXT ( ( #217, #63, #17 ) ) REPRESENTATION_CONTEXT ( 'NONE', 'WORKASPACE' ) );
#234 = FACE_OUTER_BOUND ( 'NONE', #99, .T. ) ;
#235 = CYLINDRICAL_SURFACE ( 'NONE', #292, 0.06250000000000002776 ) ;
#236 = CIRCLE ( 'NONE', #102, 0.06250000000000002776 ) ;
#237 = CARTESIAN_POINT ( 'NONE',  ( 3.823194226088145228E-18, 0.0000000000000000000, 0.03121874999999999997 ) ) ;
#238 = CARTESIAN_POINT ( 'NONE',  ( 0.03121875000000002426, 0.0000000000000000000, 0.1880000000000000282 ) ) ;
#239 = VECTOR ( 'NONE', #251, 39.37007874015748143 ) ;
#240 =( NAMED_UNIT ( * ) PLANE_ANGLE_UNIT ( ) SI_UNIT ( $, .RADIAN. ) );
#241 = LENGTH_MEASURE_WITH_UNIT ( LENGTH_MEASURE( 0.02539999999999999897 ), #143 );
#242 = EDGE_CURVE ( 'NONE', #178, #213, #98, .T. ) ;
#243 = SURFACE_STYLE_USAGE ( .BOTH. , #61 ) ;
#244 = CIRCLE ( 'NONE', #257, 0.03121874999999999997 ) ;
#245 = DIRECTION ( 'NONE',  ( -1.224646799147353700E-16, -0.0000000000000000000, -1.000000000000000000 ) ) ;
#246 = DIRECTION ( 'NONE',  ( -0.7071067811865462405, 0.0000000000000000000, -0.7071067811865486830 ) ) ;
#247 = EDGE_LOOP ( 'NONE', ( #87, #152 ) ) ;
#248 = DIRECTION ( 'NONE',  ( -0.0000000000000000000, -0.0000000000000000000, -1.000000000000000000 ) ) ;
#249 = CIRCLE ( 'NONE', #15, 0.04750000000000064587 ) ;
#250 = ORIENTED_EDGE ( 'NONE', *, *, #118, .F. ) ;
#251 = DIRECTION ( 'NONE',  ( -1.224646799147353700E-16, -0.0000000000000000000, -1.000000000000000000 ) ) ;
#252 = ORIENTED_EDGE ( 'NONE', *, *, #90, .F. ) ;
#253 = SURFACE_STYLE_USAGE ( .BOTH. , #160 ) ;
#254 = ORIENTED_EDGE ( 'NONE', *, *, #255, .T. ) ;
#255 = EDGE_CURVE ( 'NONE', #178, #13, #207, .T. ) ;
#256 = CARTESIAN_POINT ( 'NONE',  ( 2.302335982397025094E-17, 0.0000000000000000000, 0.1880000000000000282 ) ) ;
#257 = AXIS2_PLACEMENT_3D ( 'NONE', #183, #224, #225 ) ;
#258 = CARTESIAN_POINT ( 'NONE',  ( -0.03121874999999997916, 5.738618360379552157E-18, 0.1880000000000000282 ) ) ;
#259 = DIRECTION ( 'NONE',  ( 0.0000000000000000000, 0.0000000000000000000, -1.000000000000000000 ) ) ;
#260 = DIRECTION ( 'NONE',  ( 1.000000000000000000, 0.0000000000000000000, 0.0000000000000000000 ) ) ;
#261 = AXIS2_PLACEMENT_3D ( 'NONE', #149, #79, #302 ) ;
#262 = EDGE_LOOP ( 'NONE', ( #31, #54, #303, #250 ) ) ;
#263 = ADVANCED_FACE ( 'NONE', ( #200 ), #204, .T. ) ;
#264 = PRODUCT_CONTEXT ( 'NONE', #205, 'mechanical' ) ;
#265 = DIRECTION ( 'NONE',  ( 0.7071067811865462405, 8.659560562354916834E-17, -0.7071067811865486830 ) ) ;
#266 = EDGE_CURVE ( 'NONE', #206, #213, #208, .T. ) ;
#267 = CARTESIAN_POINT ( 'NONE',  ( 4.474917996329785777E-17, 0.0000000000000000000, 0.3654047844199156403 ) ) ;
#268 = VECTOR ( 'NONE', #179, 39.37007874015748143 ) ;
#269 = DIRECTION ( 'NONE',  ( -0.0000000000000000000, -0.0000000000000000000, -1.000000000000000000 ) ) ;
#270 = DIRECTION ( 'NONE',  ( 1.224646799147353700E-16, 0.0000000000000000000, 1.000000000000000000 ) ) ;
#271 = DIRECTION ( 'NONE',  ( -1.000000000000000000, 0.0000000000000000000, 0.0000000000000000000 ) ) ;
#272 = VECTOR ( 'NONE', #248, 39.37007874015748143 ) ;
#273 = LINE ( 'NONE', #103, #106 ) ;
#274 = ORIENTED_EDGE ( 'NONE', *, *, #151, .T. ) ;
#275 = EDGE_CURVE ( 'NONE', #104, #178, #244, .T. ) ;
#276 = CARTESIAN_POINT ( 'NONE',  ( 3.823194226088145228E-18, 0.0000000000000000000, 0.03121874999999999997 ) ) ;
#277 = CARTESIAN_POINT ( 'NONE',  ( -0.06250000000000002776, 0.0000000000000000000, 1.500000000000000222 ) ) ;
#278 = FACE_OUTER_BOUND ( 'NONE', #80, .T. ) ;
#279 = CONICAL_SURFACE ( 'NONE', #25, 0.04750000000000064587, 0.7853981633974466137 ) ;
#280 = ORIENTED_EDGE ( 'NONE', *, *, #147, .F. ) ;
#281 = DIRECTION ( 'NONE',  ( -1.000000000000000000, 0.0000000000000000000, 1.224646799147353947E-16 ) ) ;
#282 = VERTEX_POINT ( 'NONE', #324 ) ;
#283 = ADVANCED_FACE ( 'NONE', ( #3 ), #6, .T. ) ;
#284 = ORIENTED_EDGE ( 'NONE', *, *, #212, .T. ) ;
#285 = ORIENTED_EDGE ( 'NONE', *, *, #275, .T. ) ;
#286 = CONICAL_SURFACE ( 'NONE', #120, 0.04750000000000064587, 0.7853981633974466137 ) ;
#287 = VECTOR ( 'NONE', #246, 39.37007874015748854 ) ;
#288 = ORIENTED_EDGE ( 'NONE', *, *, #151, .F. ) ;
#289 = ORIENTED_EDGE ( 'NONE', *, *, #201, .F. ) ;
#290 = SURFACE_STYLE_FILL_AREA ( #112 ) ;
#291 = UNCERTAINTY_MEASURE_WITH_UNIT (LENGTH_MEASURE( 1.000000000000000082E-05 ), #177, 'distance_accuracy_value', 'NONE');
#292 = AXIS2_PLACEMENT_3D ( 'NONE', #186, #166, #163 ) ;
#293 = DIRECTION ( 'NONE',  ( 1.000000000000000000, 0.0000000000000000000, 0.0000000000000000000 ) ) ;
#294 = MECHANICAL_DESIGN_GEOMETRIC_PRESENTATION_REPRESENTATION (  '', ( #134 ), #233 ) ;
#295 = FACE_OUTER_BOUND ( 'NONE', #247, .T. ) ;
#296 =( CONVERSION_BASED_UNIT ( 'INCH', #241 ) LENGTH_UNIT ( ) NAMED_UNIT ( #165 ) );
#297 = LINE ( 'NONE', #93, #172 ) ;
#298 = CARTESIAN_POINT ( 'NONE',  ( 0.0000000000000000000, 0.0000000000000000000, 1.500000000000000222 ) ) ;
#299 = LINE ( 'NONE', #27, #287 ) ;
#300 = ORIENTED_EDGE ( 'NONE', *, *, #275, .F. ) ;
#301 = AXIS2_PLACEMENT_3D ( 'NONE', #174, #64, #293 ) ;
#302 = DIRECTION ( 'NONE',  ( -1.000000000000000000, 0.0000000000000000000, 1.224646799147353947E-16 ) ) ;
#303 = ORIENTED_EDGE ( 'NONE', *, *, #317, .T. ) ;
#304 = PRESENTATION_STYLE_ASSIGNMENT (( #253 ) ) ;
#305 = CARTESIAN_POINT ( 'NONE',  ( 0.0000000000000000000, 0.0000000000000000000, 0.0000000000000000000 ) ) ;
#306 = DIRECTION ( 'NONE',  ( 1.224646799147353700E-16, 0.0000000000000000000, 1.000000000000000000 ) ) ;
#307 = DIRECTION ( 'NONE',  ( 0.0000000000000000000, 0.0000000000000000000, -1.000000000000000000 ) ) ;
#308 = EDGE_CURVE ( 'NONE', #104, #4, #273, .T. ) ;
#309 = ORIENTED_EDGE ( 'NONE', *, *, #19, .F. ) ;
#310 = CARTESIAN_POINT ( 'NONE',  ( 0.0000000000000000000, 0.0000000000000000000, 0.0000000000000000000 ) ) ;
#311 = CARTESIAN_POINT ( 'NONE',  ( 0.0000000000000000000, 0.0000000000000000000, 1.485000000000000764 ) ) ;
#312 = DIRECTION ( 'NONE',  ( 1.000000000000000000, 0.0000000000000000000, 0.0000000000000000000 ) ) ;
#313 = PRESENTATION_LAYER_ASSIGNMENT (  '', '', ( #134 ) ) ;
#314 = CARTESIAN_POINT ( 'NONE',  ( -0.03121874999999999650, 0.0000000000000000000, 0.03121875000000000691 ) ) ;
#315 = DIRECTION ( 'NONE',  ( -1.224646799147353700E-16, -0.0000000000000000000, -1.000000000000000000 ) ) ;
#316 = DIRECTION ( 'NONE',  ( 0.0000000000000000000, 0.0000000000000000000, 1.000000000000000000 ) ) ;
#317 = EDGE_CURVE ( 'NONE', #32, #4, #153, .T. ) ;
#318 = CONICAL_SURFACE ( 'NONE', #43, 0.03121874999999999997, 0.1745329251994338915 ) ;
#319 = DIRECTION ( 'NONE',  ( -1.000000000000000000, 0.0000000000000000000, 1.367291288120251888E-16 ) ) ;
#320 = ADVANCED_BREP_SHAPE_REPRESENTATION ( 'Micro_BEM-062-02', ( #122, #5 ), #116 ) ;
#321 = DIRECTION ( 'NONE',  ( -1.000000000000000000, 0.0000000000000000000, 1.367291288120251888E-16 ) ) ;
#322 = AXIS2_PLACEMENT_3D ( 'NONE', #89, #42, #271 ) ;
#323 = EDGE_CURVE ( 'NONE', #282, #32, #299, .T. ) ;
#324 = CARTESIAN_POINT ( 'NONE',  ( -0.04750000000000064587, 0.0000000000000000000, 1.500000000000000222 ) ) ;
#325 = ADVANCED_FACE ( 'NONE', ( #278 ), #318, .T. ) ;
ENDSEC;
END-ISO-10303-21;
