ISO-10303-21;
HEADER;
FILE_DESCRIPTION (( 'STEP AP214' ),
    '1' );
FILE_NAME ('84410.STEP',
    '2023-06-30T23:27:00',
    ( '' ),
    ( '' ),
    'SwSTEP 2.0',
    'SolidWorks 2023',
    '' );
FILE_SCHEMA (( 'AUTOMOTIVE_DESIGN' ));
ENDSEC;

DATA;
#1 = PRESENTATION_STYLE_ASSIGNMENT (( #60 ) ) ;
#2 = DIRECTION ( 'NONE',  ( -0.000000000000000000, -1.000000000000000000, -0.000000000000000000 ) ) ;
#3 = LENGTH_MEASURE_WITH_UNIT ( LENGTH_MEASURE( 0.02539999999999999897 ), #116 );
#4 = LENGTH_MEASURE_WITH_UNIT ( LENGTH_MEASURE( 0.02539999999999999897 ), #6 );
#5 = DIRECTION ( 'NONE',  ( -1.000000000000000000, 0.000000000000000000, 0.000000000000000000 ) ) ;
#6 =( LENGTH_UNIT ( ) NAMED_UNIT ( * ) SI_UNIT ( $, .METRE. ) );
#7 = COLOUR_RGB ( '',0.7921568627450980005, 0.8196078431372548767, 0.9333333333333333481 ) ;
#8 = AXIS2_PLACEMENT_3D ( 'NONE', #229, #117, #257 ) ;
#9 = CIRCLE ( 'NONE', #75, 0.09374999999999995837 ) ;
#10 = FACE_OUTER_BOUND ( 'NONE', #370, .T. ) ;
#11 = ORIENTED_EDGE ( 'NONE', *, *, #135, .T. ) ;
#12 = CARTESIAN_POINT ( 'NONE',  ( -1.148106374200643401E-17, 0.09374999999999998612, 0.000000000000000000 ) ) ;
#13 = UNCERTAINTY_MEASURE_WITH_UNIT (LENGTH_MEASURE( 1.000000000000000082E-05 ), #88, 'distance_accuracy_value', 'NONE');
#14 = DIRECTION ( 'NONE',  ( 0.000000000000000000, 1.000000000000000000, 0.000000000000000000 ) ) ;
#15 = EDGE_LOOP ( 'NONE', ( #341, #130, #336, #136, #190 ) ) ;
#16 = STYLED_ITEM ( 'NONE', ( #331 ), #245 ) ;
#17 = CARTESIAN_POINT ( 'NONE',  ( -1.148106374200643401E-17, 0.09374999999999998612, 0.000000000000000000 ) ) ;
#18 = ORIENTED_EDGE ( 'NONE', *, *, #230, .F. ) ;
#19 = DIRECTION ( 'NONE',  ( 0.000000000000000000, -0.000000000000000000, 1.000000000000000000 ) ) ;
#20 = DIRECTION ( 'NONE',  ( 1.000000000000000000, 0.000000000000000000, 0.000000000000000000 ) ) ;
#21 = PRESENTATION_STYLE_ASSIGNMENT (( #234 ) ) ;
#22 = FACE_OUTER_BOUND ( 'NONE', #307, .T. ) ;
#23 = AXIS2_PLACEMENT_3D ( 'NONE', #305, #61, #286 ) ;
#24 = CYLINDRICAL_SURFACE ( 'NONE', #8, 0.09374999999999997224 ) ;
#25 = FILL_AREA_STYLE ('',( #112 ) ) ;
#26 = CARTESIAN_POINT ( 'NONE',  ( 0.000000000000000000, 0.09375000000000001388, 0.000000000000000000 ) ) ;
#27 = FILL_AREA_STYLE_COLOUR ( '', #243 ) ;
#28 = PRESENTATION_STYLE_ASSIGNMENT (( #149 ) ) ;
#29 =( NAMED_UNIT ( * ) PLANE_ANGLE_UNIT ( ) SI_UNIT ( $, .RADIAN. ) );
#30 =( GEOMETRIC_REPRESENTATION_CONTEXT ( 3 ) GLOBAL_UNCERTAINTY_ASSIGNED_CONTEXT ( ( #100 ) ) GLOBAL_UNIT_ASSIGNED_CONTEXT ( ( #194, #46, #300 ) ) REPRESENTATION_CONTEXT ( 'NONE', 'WORKASPACE' ) );
#31 = DIRECTION ( 'NONE',  ( -1.225514354332828407E-16, 1.000000000000000000, -0.000000000000000000 ) ) ;
#32 = SURFACE_STYLE_USAGE ( .BOTH. , #43 ) ;
#33 = EDGE_CURVE ( 'NONE', #367, #347, #337, .T. ) ;
#34 = CARTESIAN_POINT ( 'NONE',  ( 0.000000000000000000, 0.000000000000000000, 0.000000000000000000 ) ) ;
#35 =( NAMED_UNIT ( * ) PLANE_ANGLE_UNIT ( ) SI_UNIT ( $, .RADIAN. ) );
#36 = DIRECTION ( 'NONE',  ( -1.000000000000000000, 0.000000000000000000, 0.000000000000000000 ) ) ;
#37 = MECHANICAL_DESIGN_GEOMETRIC_PRESENTATION_REPRESENTATION (  '', ( #357 ), #126 ) ;
#38 = AXIS2_PLACEMENT_3D ( 'NONE', #90, #31, #150 ) ;
#39 =( LENGTH_UNIT ( ) NAMED_UNIT ( * ) SI_UNIT ( $, .METRE. ) );
#40 = DIRECTION ( 'NONE',  ( -1.225514354332828407E-16, 1.000000000000000000, -0.000000000000000000 ) ) ;
#41 = DIRECTION ( 'NONE',  ( 1.000000000000000000, 0.000000000000000000, 0.000000000000000000 ) ) ;
#42 = EDGE_CURVE ( 'NONE', #362, #227, #98, .T. ) ;
#43 = SURFACE_SIDE_STYLE ('',( #289 ) ) ;
#44 = DIRECTION ( 'NONE',  ( 1.000000000000000000, 0.000000000000000000, -1.224646799147353207E-16 ) ) ;
#45 =( GEOMETRIC_REPRESENTATION_CONTEXT ( 3 ) GLOBAL_UNCERTAINTY_ASSIGNED_CONTEXT ( ( #129 ) ) GLOBAL_UNIT_ASSIGNED_CONTEXT ( ( #284, #29, #59 ) ) REPRESENTATION_CONTEXT ( 'NONE', 'WORKASPACE' ) );
#46 =( NAMED_UNIT ( * ) PLANE_ANGLE_UNIT ( ) SI_UNIT ( $, .RADIAN. ) );
#47 = ORIENTED_EDGE ( 'NONE', *, *, #168, .T. ) ;
#48 = ADVANCED_FACE ( 'NONE', ( #58 ), #24, .T. ) ;
#49 = DIRECTION ( 'NONE',  ( -1.225514354332828407E-16, 1.000000000000000000, -0.000000000000000000 ) ) ;
#50 = ORIENTED_EDGE ( 'NONE', *, *, #193, .T. ) ;
#51 = CARTESIAN_POINT ( 'NONE',  ( 0.000000000000000000, 0.000000000000000000, 0.000000000000000000 ) ) ;
#52 = ORIENTED_EDGE ( 'NONE', *, *, #351, .F. ) ;
#53 = DIRECTION ( 'NONE',  ( 0.000000000000000000, 0.000000000000000000, -1.000000000000000000 ) ) ;
#54 = DIRECTION ( 'NONE',  ( -1.000000000000000000, -1.225514354332828407E-16, 0.000000000000000000 ) ) ;
#55 = MANIFOLD_SOLID_BREP ( 'Revolve - Cutting Edge', #280 ) ;
#56 = SURFACE_STYLE_USAGE ( .BOTH. , #197 ) ;
#57 = AXIS2_PLACEMENT_3D ( 'NONE', #292, #40, #184 ) ;
#58 = FACE_OUTER_BOUND ( 'NONE', #15, .T. ) ;
#59 =( NAMED_UNIT ( * ) SI_UNIT ( $, .STERADIAN. ) SOLID_ANGLE_UNIT ( ) );
#60 = SURFACE_STYLE_USAGE ( .BOTH. , #312 ) ;
#61 = DIRECTION ( 'NONE',  ( -1.225514354332828407E-16, 1.000000000000000000, -0.000000000000000000 ) ) ;
#62 = APPLICATION_PROTOCOL_DEFINITION ( 'draft international standard', 'automotive_design', 1998, #74 ) ;
#63 = DIRECTION ( 'NONE',  ( -1.225514354332828407E-16, 1.000000000000000000, -0.000000000000000000 ) ) ;
#64 = VECTOR ( 'NONE', #240, 39.37007874015748143 ) ;
#65 = STYLED_ITEM ( 'NONE', ( #1 ), #340 ) ;
#66 = CIRCLE ( 'NONE', #281, 0.09374999999999998612 ) ;
#67 = DIRECTION ( 'NONE',  ( -1.225514354332828407E-16, 1.000000000000000000, -0.000000000000000000 ) ) ;
#68 =( NAMED_UNIT ( * ) PLANE_ANGLE_UNIT ( ) SI_UNIT ( $, .RADIAN. ) );
#69 = LINE ( 'NONE', #208, #364 ) ;
#70 = PRESENTATION_LAYER_ASSIGNMENT (  '', '', ( #242 ) ) ;
#71 = DIRECTION ( 'NONE',  ( 0.000000000000000000, 0.000000000000000000, -1.000000000000000000 ) ) ;
#72 =( NAMED_UNIT ( * ) PLANE_ANGLE_UNIT ( ) SI_UNIT ( $, .RADIAN. ) );
#73 = UNCERTAINTY_MEASURE_WITH_UNIT (LENGTH_MEASURE( 1.000000000000000082E-05 ), #321, 'distance_accuracy_value', 'NONE');
#74 = APPLICATION_CONTEXT ( 'automotive_design' ) ;
#75 = AXIS2_PLACEMENT_3D ( 'NONE', #335, #78, #53 ) ;
#76 = CARTESIAN_POINT ( 'NONE',  ( 0.000000000000000000, 0.09375000000000001388, 0.000000000000000000 ) ) ;
#77 = ORIENTED_EDGE ( 'NONE', *, *, #255, .F. ) ;
#78 = DIRECTION ( 'NONE',  ( -0.000000000000000000, -1.000000000000000000, -0.000000000000000000 ) ) ;
#79 = MECHANICAL_DESIGN_GEOMETRIC_PRESENTATION_REPRESENTATION (  '', ( #65 ), #142 ) ;
#80 = VERTEX_POINT ( 'NONE', #95 ) ;
#81 = ORIENTED_EDGE ( 'NONE', *, *, #42, .F. ) ;
#82 = SURFACE_STYLE_FILL_AREA ( #25 ) ;
#83 = ORIENTED_EDGE ( 'NONE', *, *, #84, .F. ) ;
#84 = EDGE_CURVE ( 'NONE', #347, #367, #287, .T. ) ;
#85 =( NAMED_UNIT ( * ) SI_UNIT ( $, .STERADIAN. ) SOLID_ANGLE_UNIT ( ) );
#86 = CIRCLE ( 'NONE', #57, 0.09374999999999988898 ) ;
#87 = LENGTH_MEASURE_WITH_UNIT ( LENGTH_MEASURE( 0.02539999999999999897 ), #170 );
#88 =( CONVERSION_BASED_UNIT ( 'INCH', #306 ) LENGTH_UNIT ( ) NAMED_UNIT ( #202 ) );
#89 = DIMENSIONAL_EXPONENTS ( 1.000000000000000000, 0.000000000000000000, 0.000000000000000000, 0.000000000000000000, 0.000000000000000000, 0.000000000000000000, 0.000000000000000000 ) ;
#90 = CARTESIAN_POINT ( 'NONE',  ( 6.123233995736766036E-17, 2.000000000000000000, 0.000000000000000000 ) ) ;
#91 = ORIENTED_EDGE ( 'NONE', *, *, #156, .T. ) ;
#92 = CYLINDRICAL_SURFACE ( 'NONE', #262, 0.09374999999999979183 ) ;
#93 = AXIS2_PLACEMENT_3D ( 'NONE', #106, #220, #54 ) ;
#94 = LINE ( 'NONE', #353, #64 ) ;
#95 = CARTESIAN_POINT ( 'NONE',  ( 0.000000000000000000, 0.3125000000000000000, -0.09374999999999995837 ) ) ;
#96 = DIRECTION ( 'NONE',  ( 0.000000000000000000, 0.000000000000000000, 1.000000000000000000 ) ) ;
#97 = CARTESIAN_POINT ( 'NONE',  ( 0.000000000000000000, 0.09375000000000001388, 0.000000000000000000 ) ) ;
#98 = CIRCLE ( 'NONE', #248, 0.09374999999999998612 ) ;
#99 = AXIS2_PLACEMENT_3D ( 'NONE', #166, #278, #20 ) ;
#100 = UNCERTAINTY_MEASURE_WITH_UNIT (LENGTH_MEASURE( 1.000000000000000082E-05 ), #194, 'distance_accuracy_value', 'NONE');
#101 = EDGE_LOOP ( 'NONE', ( #160, #145 ) ) ;
#102 = AXIS2_PLACEMENT_3D ( 'NONE', #263, #123, #5 ) ;
#103 = VERTEX_POINT ( 'NONE', #181 ) ;
#104 = EDGE_CURVE ( 'NONE', #103, #244, #86, .T. ) ;
#105 = CIRCLE ( 'NONE', #187, 0.09374999999999998612 ) ;
#106 = CARTESIAN_POINT ( 'NONE',  ( 2.680378872510324402E-16, 0.3125000000000000000, 0.000000000000000000 ) ) ;
#107 = PRODUCT_DEFINITION_CONTEXT ( 'detailed design', #311, 'design' ) ;
#108 = PRODUCT_RELATED_PRODUCT_CATEGORY ( 'part', '', ( #334 ) ) ;
#109 = VERTEX_POINT ( 'NONE', #153 ) ;
#110 = CARTESIAN_POINT ( 'NONE',  ( -5.740531871003217003E-18, 0.000000000000000000, 0.000000000000000000 ) ) ;
#111 = ORIENTED_EDGE ( 'NONE', *, *, #351, .T. ) ;
#112 = FILL_AREA_STYLE_COLOUR ( '', #114 ) ;
#113 = CARTESIAN_POINT ( 'NONE',  ( 2.680378872510324402E-16, 0.3125000000000000000, 0.000000000000000000 ) ) ;
#114 = COLOUR_RGB ( '',1.000000000000000000, 0.000000000000000000, 0.000000000000000000 ) ;
#115 = EDGE_CURVE ( 'NONE', #109, #80, #253, .T. ) ;
#116 =( LENGTH_UNIT ( ) NAMED_UNIT ( * ) SI_UNIT ( $, .METRE. ) );
#117 = DIRECTION ( 'NONE',  ( -0.000000000000000000, -1.000000000000000000, -0.000000000000000000 ) ) ;
#118 = LENGTH_MEASURE_WITH_UNIT ( LENGTH_MEASURE( 0.02539999999999999897 ), #315 );
#119 =( NAMED_UNIT ( * ) PLANE_ANGLE_UNIT ( ) SI_UNIT ( $, .RADIAN. ) );
#120 = COLOUR_RGB ( '',1.000000000000000000, 0.000000000000000000, 0.000000000000000000 ) ;
#121 = MECHANICAL_DESIGN_GEOMETRIC_PRESENTATION_REPRESENTATION (  '', ( #216 ), #159 ) ;
#122 = APPLICATION_PROTOCOL_DEFINITION ( 'draft international standard', 'automotive_design', 1998, #311 ) ;
#123 = DIRECTION ( 'NONE',  ( -1.225514354332828407E-16, 1.000000000000000000, -0.000000000000000000 ) ) ;
#124 = DIRECTION ( 'NONE',  ( 0.000000000000000000, 0.000000000000000000, -1.000000000000000000 ) ) ;
#125 = FILL_AREA_STYLE ('',( #151 ) ) ;
#126 =( GEOMETRIC_REPRESENTATION_CONTEXT ( 3 ) GLOBAL_UNCERTAINTY_ASSIGNED_CONTEXT ( ( #327 ) ) GLOBAL_UNIT_ASSIGNED_CONTEXT ( ( #349, #72, #217 ) ) REPRESENTATION_CONTEXT ( 'NONE', 'WORKASPACE' ) );
#127 =( GEOMETRIC_REPRESENTATION_CONTEXT ( 3 ) GLOBAL_UNCERTAINTY_ASSIGNED_CONTEXT ( ( #329 ) ) GLOBAL_UNIT_ASSIGNED_CONTEXT ( ( #290, #35, #206 ) ) REPRESENTATION_CONTEXT ( 'NONE', 'WORKASPACE' ) );
#128 =( LENGTH_UNIT ( ) NAMED_UNIT ( * ) SI_UNIT ( $, .METRE. ) );
#129 = UNCERTAINTY_MEASURE_WITH_UNIT (LENGTH_MEASURE( 1.000000000000000082E-05 ), #284, 'distance_accuracy_value', 'NONE');
#130 = ORIENTED_EDGE ( 'NONE', *, *, #219, .T. ) ;
#131 = SURFACE_SIDE_STYLE ('',( #359 ) ) ;
#132 = ORIENTED_EDGE ( 'NONE', *, *, #214, .F. ) ;
#133 = CIRCLE ( 'NONE', #345, 0.09374999999999998612 ) ;
#134 = DIRECTION ( 'NONE',  ( 0.000000000000000000, 0.000000000000000000, -1.000000000000000000 ) ) ;
#135 = EDGE_CURVE ( 'NONE', #80, #227, #94, .T. ) ;
#136 = ORIENTED_EDGE ( 'NONE', *, *, #235, .F. ) ;
#137 = CARTESIAN_POINT ( 'NONE',  ( 0.09374999999999995837, 2.000000000000000000, 0.000000000000000000 ) ) ;
#138 = EDGE_LOOP ( 'NONE', ( #111, #221 ) ) ;
#139 = FILL_AREA_STYLE ('',( #27 ) ) ;
#140 = ORIENTED_EDGE ( 'NONE', *, *, #255, .T. ) ;
#141 = COLOUR_RGB ( '',1.000000000000000000, 0.000000000000000000, 0.000000000000000000 ) ;
#142 =( GEOMETRIC_REPRESENTATION_CONTEXT ( 3 ) GLOBAL_UNCERTAINTY_ASSIGNED_CONTEXT ( ( #211 ) ) GLOBAL_UNIT_ASSIGNED_CONTEXT ( ( #317, #119, #318 ) ) REPRESENTATION_CONTEXT ( 'NONE', 'WORKASPACE' ) );
#143 = SURFACE_STYLE_FILL_AREA ( #203 ) ;
#144 = FACE_OUTER_BOUND ( 'NONE', #162, .T. ) ;
#145 = ORIENTED_EDGE ( 'NONE', *, *, #115, .F. ) ;
#146 = FILL_AREA_STYLE ('',( #173 ) ) ;
#147 = SURFACE_STYLE_FILL_AREA ( #342 ) ;
#148 = AXIS2_PLACEMENT_3D ( 'NONE', #195, #14, #19 ) ;
#149 = SURFACE_STYLE_USAGE ( .BOTH. , #198 ) ;
#150 = DIRECTION ( 'NONE',  ( -1.000000000000000000, 0.000000000000000000, 0.000000000000000000 ) ) ;
#151 = FILL_AREA_STYLE_COLOUR ( '', #141 ) ;
#152 = PRODUCT_DEFINITION ( 'UNKNOWN', '', #212, #107 ) ;
#153 = CARTESIAN_POINT ( 'NONE',  ( 1.148106374200643247E-17, 0.3125000000000000000, 0.09374999999999995837 ) ) ;
#154 = AXIS2_PLACEMENT_3D ( 'NONE', #97, #210, #71 ) ;
#155 = CARTESIAN_POINT ( 'NONE',  ( 0.09374999999999994449, 0.3125000000000000000, 1.148106374200641552E-17 ) ) ;
#156 = EDGE_CURVE ( 'NONE', #298, #167, #266, .T. ) ;
#157 = DIRECTION ( 'NONE',  ( 0.000000000000000000, 0.000000000000000000, -1.000000000000000000 ) ) ;
#158 =( GEOMETRIC_REPRESENTATION_CONTEXT ( 3 ) GLOBAL_UNCERTAINTY_ASSIGNED_CONTEXT ( ( #73 ) ) GLOBAL_UNIT_ASSIGNED_CONTEXT ( ( #321, #68, #319 ) ) REPRESENTATION_CONTEXT ( 'NONE', 'WORKASPACE' ) );
#159 =( GEOMETRIC_REPRESENTATION_CONTEXT ( 3 ) GLOBAL_UNCERTAINTY_ASSIGNED_CONTEXT ( ( #224 ) ) GLOBAL_UNIT_ASSIGNED_CONTEXT ( ( #310, #283, #303 ) ) REPRESENTATION_CONTEXT ( 'NONE', 'WORKASPACE' ) );
#160 = ORIENTED_EDGE ( 'NONE', *, *, #282, .F. ) ;
#161 = DIRECTION ( 'NONE',  ( -0.000000000000000000, -1.000000000000000000, -0.000000000000000000 ) ) ;
#162 = EDGE_LOOP ( 'NONE', ( #132, #343, #344, #140 ) ) ;
#163 = VECTOR ( 'NONE', #49, 39.37007874015748143 ) ;
#164 = AXIS2_PLACEMENT_3D ( 'NONE', #352, #260, #41 ) ;
#165 = FACE_OUTER_BOUND ( 'NONE', #138, .T. ) ;
#166 = CARTESIAN_POINT ( 'NONE',  ( -1.148106374200643401E-17, 0.09374999999999998612, 0.000000000000000000 ) ) ;
#167 = VERTEX_POINT ( 'NONE', #265 ) ;
#168 = EDGE_CURVE ( 'NONE', #347, #244, #69, .T. ) ;
#169 = LENGTH_MEASURE_WITH_UNIT ( LENGTH_MEASURE( 0.02539999999999999897 ), #363 );
#170 =( LENGTH_UNIT ( ) NAMED_UNIT ( * ) SI_UNIT ( $, .METRE. ) );
#171 = COLOUR_RGB ( '',1.000000000000000000, 0.000000000000000000, 0.000000000000000000 ) ;
#172 = CARTESIAN_POINT ( 'NONE',  ( 0.09374999999999998612, 0.09375000000000001388, 0.000000000000000000 ) ) ;
#173 = FILL_AREA_STYLE_COLOUR ( '', #120 ) ;
#174 = DIMENSIONAL_EXPONENTS ( 1.000000000000000000, 0.000000000000000000, 0.000000000000000000, 0.000000000000000000, 0.000000000000000000, 0.000000000000000000, 0.000000000000000000 ) ;
#175 = ADVANCED_BREP_SHAPE_REPRESENTATION ( '84410', ( #55, #299, #338 ), #127 ) ;
#176 = FILL_AREA_STYLE_COLOUR ( '', #171 ) ;
#177 = DIRECTION ( 'NONE',  ( -0.000000000000000000, -1.000000000000000000, -0.000000000000000000 ) ) ;
#178 = DIMENSIONAL_EXPONENTS ( 1.000000000000000000, 0.000000000000000000, 0.000000000000000000, 0.000000000000000000, 0.000000000000000000, 0.000000000000000000, 0.000000000000000000 ) ;
#179 =( LENGTH_UNIT ( ) NAMED_UNIT ( * ) SI_UNIT ( $, .METRE. ) );
#180 = SURFACE_STYLE_FILL_AREA ( #146 ) ;
#181 = CARTESIAN_POINT ( 'NONE',  ( 0.09374999999999994449, 2.000000000000000000, 1.148106374200641552E-17 ) ) ;
#182 = ADVANCED_FACE ( 'NONE', ( #264 ), #291, .T. ) ;
#183 = SPHERICAL_SURFACE ( 'NONE', #164, 0.09374999999999998612 ) ;
#184 = DIRECTION ( 'NONE',  ( -1.000000000000000000, 0.000000000000000000, 0.000000000000000000 ) ) ;
#185 = DIMENSIONAL_EXPONENTS ( 1.000000000000000000, 0.000000000000000000, 0.000000000000000000, 0.000000000000000000, 0.000000000000000000, 0.000000000000000000, 0.000000000000000000 ) ;
#186 = CARTESIAN_POINT ( 'NONE',  ( 0.000000000000000000, 0.3125000000000000000, 0.000000000000000000 ) ) ;
#187 = AXIS2_PLACEMENT_3D ( 'NONE', #76, #301, #157 ) ;
#188 = DIRECTION ( 'NONE',  ( 0.000000000000000000, 0.000000000000000000, -1.000000000000000000 ) ) ;
#189 = LINE ( 'NONE', #192, #191 ) ;
#190 = ORIENTED_EDGE ( 'NONE', *, *, #135, .F. ) ;
#191 = VECTOR ( 'NONE', #213, 39.37007874015748143 ) ;
#192 = CARTESIAN_POINT ( 'NONE',  ( 1.148106374200643247E-17, 0.000000000000000000, 0.09374999999999997224 ) ) ;
#193 = EDGE_CURVE ( 'NONE', #167, #362, #308, .T. ) ;
#194 =( CONVERSION_BASED_UNIT ( 'INCH', #356 ) LENGTH_UNIT ( ) NAMED_UNIT ( #174 ) );
#195 = CARTESIAN_POINT ( 'NONE',  ( 0.000000000000000000, 0.3125000000000000000, 0.000000000000000000 ) ) ;
#196 = ADVANCED_FACE ( 'NONE', ( #241 ), #293, .T. ) ;
#197 = SURFACE_SIDE_STYLE ('',( #304 ) ) ;
#198 = SURFACE_SIDE_STYLE ('',( #180 ) ) ;
#199 = ORIENTED_EDGE ( 'NONE', *, *, #115, .T. ) ;
#200 = PRESENTATION_LAYER_ASSIGNMENT (  '', '', ( #357 ) ) ;
#201 = CIRCLE ( 'NONE', #38, 0.09374999999999988898 ) ;
#202 = DIMENSIONAL_EXPONENTS ( 1.000000000000000000, 0.000000000000000000, 0.000000000000000000, 0.000000000000000000, 0.000000000000000000, 0.000000000000000000, 0.000000000000000000 ) ;
#203 = FILL_AREA_STYLE ('',( #233 ) ) ;
#204 = DIRECTION ( 'NONE',  ( 0.000000000000000000, 0.000000000000000000, -1.000000000000000000 ) ) ;
#205 = PRESENTATION_LAYER_ASSIGNMENT (  '', '', ( #223 ) ) ;
#206 =( NAMED_UNIT ( * ) SI_UNIT ( $, .STERADIAN. ) SOLID_ANGLE_UNIT ( ) );
#207 = DIRECTION ( 'NONE',  ( -1.225514354332828407E-16, 1.000000000000000000, -0.000000000000000000 ) ) ;
#208 = CARTESIAN_POINT ( 'NONE',  ( -0.09374999999999972244, 2.000000000000000000, 0.000000000000000000 ) ) ;
#209 = DIRECTION ( 'NONE',  ( 1.000000000000000000, 0.000000000000000000, 0.000000000000000000 ) ) ;
#210 = DIRECTION ( 'NONE',  ( -0.000000000000000000, -1.000000000000000000, -0.000000000000000000 ) ) ;
#211 = UNCERTAINTY_MEASURE_WITH_UNIT (LENGTH_MEASURE( 1.000000000000000082E-05 ), #317, 'distance_accuracy_value', 'NONE');
#212 = PRODUCT_DEFINITION_FORMATION_WITH_SPECIFIED_SOURCE ( 'ANY', '', #334, .NOT_KNOWN. ) ;
#213 = DIRECTION ( 'NONE',  ( -0.000000000000000000, -1.000000000000000000, -0.000000000000000000 ) ) ;
#214 = EDGE_CURVE ( 'NONE', #362, #297, #133, .T. ) ;
#215 = AXIS2_PLACEMENT_3D ( 'NONE', #113, #63, #36 ) ;
#216 = STYLED_ITEM ( 'NONE', ( #226 ), #299 ) ;
#217 =( NAMED_UNIT ( * ) SI_UNIT ( $, .STERADIAN. ) SOLID_ANGLE_UNIT ( ) );
#218 = CYLINDRICAL_SURFACE ( 'NONE', #275, 0.09374999999999997224 ) ;
#219 = EDGE_CURVE ( 'NONE', #109, #167, #189, .T. ) ;
#220 = DIRECTION ( 'NONE',  ( -1.225514354332828407E-16, 1.000000000000000000, 0.000000000000000000 ) ) ;
#221 = ORIENTED_EDGE ( 'NONE', *, *, #104, .T. ) ;
#222 = MECHANICAL_DESIGN_GEOMETRIC_PRESENTATION_REPRESENTATION (  '', ( #242 ), #158 ) ;
#223 = STYLED_ITEM ( 'NONE', ( #368 ), #333 ) ;
#224 = UNCERTAINTY_MEASURE_WITH_UNIT (LENGTH_MEASURE( 1.000000000000000082E-05 ), #310, 'distance_accuracy_value', 'NONE');
#225 =( NAMED_UNIT ( * ) PLANE_ANGLE_UNIT ( ) SI_UNIT ( $, .RADIAN. ) );
#226 = PRESENTATION_STYLE_ASSIGNMENT (( #56 ) ) ;
#227 = VERTEX_POINT ( 'NONE', #326 ) ;
#228 = SURFACE_STYLE_USAGE ( .BOTH. , #232 ) ;
#229 = CARTESIAN_POINT ( 'NONE',  ( 0.000000000000000000, 0.000000000000000000, 0.000000000000000000 ) ) ;
#230 = EDGE_CURVE ( 'NONE', #367, #103, #270, .T. ) ;
#231 = PRESENTATION_LAYER_ASSIGNMENT (  '', '', ( #16 ) ) ;
#232 = SURFACE_SIDE_STYLE ('',( #82 ) ) ;
#233 = FILL_AREA_STYLE_COLOUR ( '', #7 ) ;
#234 = SURFACE_STYLE_USAGE ( .BOTH. , #313 ) ;
#235 = EDGE_CURVE ( 'NONE', #227, #298, #105, .T. ) ;
#236 = DIMENSIONAL_EXPONENTS ( 1.000000000000000000, 0.000000000000000000, 0.000000000000000000, 0.000000000000000000, 0.000000000000000000, 0.000000000000000000, 0.000000000000000000 ) ;
#237 = CLOSED_SHELL ( 'NONE', ( #182, #325, #371, #295 ) ) ;
#238 =( GEOMETRIC_REPRESENTATION_CONTEXT ( 3 ) GLOBAL_UNCERTAINTY_ASSIGNED_CONTEXT ( ( #13 ) ) GLOBAL_UNIT_ASSIGNED_CONTEXT ( ( #88, #225, #85 ) ) REPRESENTATION_CONTEXT ( 'NONE', 'WORKASPACE' ) );
#239 = CARTESIAN_POINT ( 'NONE',  ( 0.000000000000000000, 0.09375000000000001388, 0.000000000000000000 ) ) ;
#240 = DIRECTION ( 'NONE',  ( -0.000000000000000000, -1.000000000000000000, -0.000000000000000000 ) ) ;
#241 = FACE_OUTER_BOUND ( 'NONE', #101, .T. ) ;
#242 = STYLED_ITEM ( 'NONE', ( #21 ), #55 ) ;
#243 = COLOUR_RGB ( '',0.7921568627450980005, 0.8196078431372548767, 0.9333333333333333481 ) ;
#244 = VERTEX_POINT ( 'NONE', #267 ) ;
#245 = ADVANCED_FACE ( 'NONE', ( #10 ), #218, .T. ) ;
#246 = CARTESIAN_POINT ( 'NONE',  ( 0.09374999999999984734, 2.000000000000000000, 1.148106374200640935E-17 ) ) ;
#247 = FILL_AREA_STYLE_COLOUR ( '', #354 ) ;
#248 = AXIS2_PLACEMENT_3D ( 'NONE', #26, #177, #204 ) ;
#249 = PRESENTATION_LAYER_ASSIGNMENT (  '', '', ( #216 ) ) ;
#250 = DIRECTION ( 'NONE',  ( -1.000000000000000000, 0.000000000000000000, 0.000000000000000000 ) ) ;
#251 = DIRECTION ( 'NONE',  ( 1.225514354332828407E-16, -1.000000000000000000, 0.000000000000000000 ) ) ;
#252 = EDGE_LOOP ( 'NONE', ( #83, #369 ) ) ;
#253 = CIRCLE ( 'NONE', #296, 0.09374999999999995837 ) ;
#254 = EDGE_LOOP ( 'NONE', ( #18, #271, #47, #273 ) ) ;
#255 = EDGE_CURVE ( 'NONE', #298, #297, #66, .T. ) ;
#256 = FACE_OUTER_BOUND ( 'NONE', #252, .T. ) ;
#257 = DIRECTION ( 'NONE',  ( 0.000000000000000000, 0.000000000000000000, -1.000000000000000000 ) ) ;
#258 = DIMENSIONAL_EXPONENTS ( 1.000000000000000000, 0.000000000000000000, 0.000000000000000000, 0.000000000000000000, 0.000000000000000000, 0.000000000000000000, 0.000000000000000000 ) ;
#259 = MECHANICAL_DESIGN_GEOMETRIC_PRESENTATION_REPRESENTATION (  '', ( #223 ), #238 ) ;
#260 = DIRECTION ( 'NONE',  ( 0.000000000000000000, 0.000000000000000000, 1.000000000000000000 ) ) ;
#261 = AXIS2_PLACEMENT_3D ( 'NONE', #239, #324, #188 ) ;
#262 = AXIS2_PLACEMENT_3D ( 'NONE', #350, #67, #372 ) ;
#263 = CARTESIAN_POINT ( 'NONE',  ( 6.123233995736766036E-17, 2.000000000000000000, 0.000000000000000000 ) ) ;
#264 = FACE_OUTER_BOUND ( 'NONE', #360, .T. ) ;
#265 = CARTESIAN_POINT ( 'NONE',  ( 1.148106374200643401E-17, 0.09375000000000001388, 0.09374999999999998612 ) ) ;
#266 = CIRCLE ( 'NONE', #261, 0.09374999999999998612 ) ;
#267 = CARTESIAN_POINT ( 'NONE',  ( -0.09374999999999981959, 2.000000000000000000, 0.000000000000000000 ) ) ;
#268 = PRESENTATION_LAYER_ASSIGNMENT (  '', '', ( #65 ) ) ;
#269 = ORIENTED_EDGE ( 'NONE', *, *, #219, .F. ) ;
#270 = LINE ( 'NONE', #246, #163 ) ;
#271 = ORIENTED_EDGE ( 'NONE', *, *, #33, .T. ) ;
#272 = DIRECTION ( 'NONE',  ( 0.000000000000000000, 0.000000000000000000, -1.000000000000000000 ) ) ;
#273 = ORIENTED_EDGE ( 'NONE', *, *, #104, .F. ) ;
#274 = STYLED_ITEM ( 'NONE', ( #28 ), #48 ) ;
#275 = AXIS2_PLACEMENT_3D ( 'NONE', #51, #161, #272 ) ;
#276 = PRODUCT_DEFINITION_SHAPE ( 'NONE', 'NONE',  #152 ) ;
#277 = PLANE ( 'NONE',  #309 ) ;
#278 = DIRECTION ( 'NONE',  ( 0.000000000000000000, 0.000000000000000000, 1.000000000000000000 ) ) ;
#279 = SPHERICAL_SURFACE ( 'NONE', #99, 0.09374999999999998612 ) ;
#280 = CLOSED_SHELL ( 'NONE', ( #340, #48, #196, #245, #333 ) ) ;
#281 = AXIS2_PLACEMENT_3D ( 'NONE', #17, #134, #250 ) ;
#282 = EDGE_CURVE ( 'NONE', #80, #109, #9, .T. ) ;
#283 =( NAMED_UNIT ( * ) PLANE_ANGLE_UNIT ( ) SI_UNIT ( $, .RADIAN. ) );
#284 =( CONVERSION_BASED_UNIT ( 'INCH', #87 ) LENGTH_UNIT ( ) NAMED_UNIT ( #236 ) );
#285 = DIMENSIONAL_EXPONENTS ( 1.000000000000000000, 0.000000000000000000, 0.000000000000000000, 0.000000000000000000, 0.000000000000000000, 0.000000000000000000, 0.000000000000000000 ) ;
#286 = DIRECTION ( 'NONE',  ( -1.000000000000000000, 0.000000000000000000, 0.000000000000000000 ) ) ;
#287 = CIRCLE ( 'NONE', #215, 0.09374999999999968081 ) ;
#288 = SHAPE_DEFINITION_REPRESENTATION ( #276, #175 ) ;
#289 = SURFACE_STYLE_FILL_AREA ( #125 ) ;
#290 =( CONVERSION_BASED_UNIT ( 'INCH', #3 ) LENGTH_UNIT ( ) NAMED_UNIT ( #285 ) );
#291 = CYLINDRICAL_SURFACE ( 'NONE', #102, 0.09374999999999979183 ) ;
#292 = CARTESIAN_POINT ( 'NONE',  ( 6.123233995736766036E-17, 2.000000000000000000, 0.000000000000000000 ) ) ;
#293 = PLANE ( 'NONE',  #148 ) ;
#294 = DIRECTION ( 'NONE',  ( 1.224646799147353207E-16, -0.000000000000000000, 1.000000000000000000 ) ) ;
#295 = ADVANCED_FACE ( 'NONE', ( #165 ), #277, .F. ) ;
#296 = AXIS2_PLACEMENT_3D ( 'NONE', #186, #2, #124 ) ;
#297 = VERTEX_POINT ( 'NONE', #110 ) ;
#298 = VERTEX_POINT ( 'NONE', #172 ) ;
#299 = MANIFOLD_SOLID_BREP ( 'Revolve - Tool Body (Straight Shanked)', #237 ) ;
#300 =( NAMED_UNIT ( * ) SI_UNIT ( $, .STERADIAN. ) SOLID_ANGLE_UNIT ( ) );
#301 = DIRECTION ( 'NONE',  ( -0.000000000000000000, -1.000000000000000000, -0.000000000000000000 ) ) ;
#302 = MECHANICAL_DESIGN_GEOMETRIC_PRESENTATION_REPRESENTATION (  '', ( #274 ), #45 ) ;
#303 =( NAMED_UNIT ( * ) SI_UNIT ( $, .STERADIAN. ) SOLID_ANGLE_UNIT ( ) );
#304 = SURFACE_STYLE_FILL_AREA ( #139 ) ;
#305 = CARTESIAN_POINT ( 'NONE',  ( 2.680378872510324402E-16, 0.3125000000000000000, 0.000000000000000000 ) ) ;
#306 = LENGTH_MEASURE_WITH_UNIT ( LENGTH_MEASURE( 0.02539999999999999897 ), #179 );
#307 = EDGE_LOOP ( 'NONE', ( #50, #373, #77, #91 ) ) ;
#308 = CIRCLE ( 'NONE', #154, 0.09374999999999998612 ) ;
#309 = AXIS2_PLACEMENT_3D ( 'NONE', #137, #251, #361 ) ;
#310 =( CONVERSION_BASED_UNIT ( 'INCH', #169 ) LENGTH_UNIT ( ) NAMED_UNIT ( #178 ) );
#311 = APPLICATION_CONTEXT ( 'automotive_design' ) ;
#312 = SURFACE_SIDE_STYLE ('',( #147 ) ) ;
#313 = SURFACE_SIDE_STYLE ('',( #143 ) ) ;
#314 = LENGTH_MEASURE_WITH_UNIT ( LENGTH_MEASURE( 0.02539999999999999897 ), #39 );
#315 =( LENGTH_UNIT ( ) NAMED_UNIT ( * ) SI_UNIT ( $, .METRE. ) );
#316 = PRESENTATION_LAYER_ASSIGNMENT (  '', '', ( #274 ) ) ;
#317 =( CONVERSION_BASED_UNIT ( 'INCH', #314 ) LENGTH_UNIT ( ) NAMED_UNIT ( #258 ) );
#318 =( NAMED_UNIT ( * ) SI_UNIT ( $, .STERADIAN. ) SOLID_ANGLE_UNIT ( ) );
#319 =( NAMED_UNIT ( * ) SI_UNIT ( $, .STERADIAN. ) SOLID_ANGLE_UNIT ( ) );
#320 = FACE_OUTER_BOUND ( 'NONE', #254, .T. ) ;
#321 =( CONVERSION_BASED_UNIT ( 'INCH', #4 ) LENGTH_UNIT ( ) NAMED_UNIT ( #89 ) );
#322 = MECHANICAL_DESIGN_GEOMETRIC_PRESENTATION_REPRESENTATION (  '', ( #16 ), #30 ) ;
#323 = CARTESIAN_POINT ( 'NONE',  ( -0.09374999999999998612, 0.09375000000000001388, 1.148106374200643247E-17 ) ) ;
#324 = DIRECTION ( 'NONE',  ( -0.000000000000000000, -1.000000000000000000, -0.000000000000000000 ) ) ;
#325 = ADVANCED_FACE ( 'NONE', ( #256 ), #339, .F. ) ;
#326 = CARTESIAN_POINT ( 'NONE',  ( 0.000000000000000000, 0.09375000000000001388, -0.09374999999999998612 ) ) ;
#327 = UNCERTAINTY_MEASURE_WITH_UNIT (LENGTH_MEASURE( 1.000000000000000082E-05 ), #349, 'distance_accuracy_value', 'NONE');
#328 = FILL_AREA_STYLE ('',( #247 ) ) ;
#329 = UNCERTAINTY_MEASURE_WITH_UNIT (LENGTH_MEASURE( 1.000000000000000082E-05 ), #290, 'distance_accuracy_value', 'NONE');
#330 = ORIENTED_EDGE ( 'NONE', *, *, #230, .T. ) ;
#331 = PRESENTATION_STYLE_ASSIGNMENT (( #358 ) ) ;
#332 = ORIENTED_EDGE ( 'NONE', *, *, #168, .F. ) ;
#333 = ADVANCED_FACE ( 'NONE', ( #144 ), #279, .T. ) ;
#334 = PRODUCT ( '84410', '84410', '', ( #348 ) ) ;
#335 = CARTESIAN_POINT ( 'NONE',  ( 0.000000000000000000, 0.3125000000000000000, 0.000000000000000000 ) ) ;
#336 = ORIENTED_EDGE ( 'NONE', *, *, #156, .F. ) ;
#337 = CIRCLE ( 'NONE', #23, 0.09374999999999968081 ) ;
#338 = AXIS2_PLACEMENT_3D ( 'NONE', #34, #96, #209 ) ;
#339 = PLANE ( 'NONE',  #93 ) ;
#340 = ADVANCED_FACE ( 'NONE', ( #22 ), #183, .T. ) ;
#341 = ORIENTED_EDGE ( 'NONE', *, *, #282, .T. ) ;
#342 = FILL_AREA_STYLE ('',( #176 ) ) ;
#343 = ORIENTED_EDGE ( 'NONE', *, *, #42, .T. ) ;
#344 = ORIENTED_EDGE ( 'NONE', *, *, #235, .T. ) ;
#345 = AXIS2_PLACEMENT_3D ( 'NONE', #12, #294, #44 ) ;
#346 = ORIENTED_EDGE ( 'NONE', *, *, #84, .T. ) ;
#347 = VERTEX_POINT ( 'NONE', #366 ) ;
#348 = PRODUCT_CONTEXT ( 'NONE', #74, 'mechanical' ) ;
#349 =( CONVERSION_BASED_UNIT ( 'INCH', #118 ) LENGTH_UNIT ( ) NAMED_UNIT ( #185 ) );
#350 = CARTESIAN_POINT ( 'NONE',  ( 6.123233995736766036E-17, 2.000000000000000000, 0.000000000000000000 ) ) ;
#351 = EDGE_CURVE ( 'NONE', #244, #103, #201, .T. ) ;
#352 = CARTESIAN_POINT ( 'NONE',  ( -1.148106374200643401E-17, 0.09374999999999998612, 0.000000000000000000 ) ) ;
#353 = CARTESIAN_POINT ( 'NONE',  ( 0.000000000000000000, 0.000000000000000000, -0.09374999999999997224 ) ) ;
#354 = COLOUR_RGB ( '',1.000000000000000000, 0.000000000000000000, 0.000000000000000000 ) ;
#355 = PRESENTATION_STYLE_ASSIGNMENT (( #32 ) ) ;
#356 = LENGTH_MEASURE_WITH_UNIT ( LENGTH_MEASURE( 0.02539999999999999897 ), #128 );
#357 = STYLED_ITEM ( 'NONE', ( #355 ), #196 ) ;
#358 = SURFACE_STYLE_USAGE ( .BOTH. , #131 ) ;
#359 = SURFACE_STYLE_FILL_AREA ( #328 ) ;
#360 = EDGE_LOOP ( 'NONE', ( #346, #330, #52, #332 ) ) ;
#361 = DIRECTION ( 'NONE',  ( 1.000000000000000000, 1.225514354332828407E-16, 0.000000000000000000 ) ) ;
#362 = VERTEX_POINT ( 'NONE', #323 ) ;
#363 =( LENGTH_UNIT ( ) NAMED_UNIT ( * ) SI_UNIT ( $, .METRE. ) );
#364 = VECTOR ( 'NONE', #207, 39.37007874015748143 ) ;
#365 = ORIENTED_EDGE ( 'NONE', *, *, #193, .F. ) ;
#366 = CARTESIAN_POINT ( 'NONE',  ( -0.09374999999999940326, 0.3125000000000000000, 0.000000000000000000 ) ) ;
#367 = VERTEX_POINT ( 'NONE', #155 ) ;
#368 = PRESENTATION_STYLE_ASSIGNMENT (( #228 ) ) ;
#369 = ORIENTED_EDGE ( 'NONE', *, *, #33, .F. ) ;
#370 = EDGE_LOOP ( 'NONE', ( #269, #199, #11, #81, #365 ) ) ;
#371 = ADVANCED_FACE ( 'NONE', ( #320 ), #92, .T. ) ;
#372 = DIRECTION ( 'NONE',  ( -1.000000000000000000, 0.000000000000000000, 0.000000000000000000 ) ) ;
#373 = ORIENTED_EDGE ( 'NONE', *, *, #214, .T. ) ;
ENDSEC;
END-ISO-10303-21;
