ISO-10303-21;
HEADER;
FILE_DESCRIPTION (( 'STEP AP214' ),
    '1' );
FILE_NAME ('86073.STEP',
    '2023-06-23T16:36:09',
    ( '' ),
    ( '' ),
    'SwSTEP 2.0',
    'SolidWorks 2023',
    '' );
FILE_SCHEMA (( 'AUTOMOTIVE_DESIGN' ));
ENDSEC;

DATA;
#1 = DIRECTION ( 'NONE',  ( 1.000000000000000000, 0.000000000000000000, 0.000000000000000000 ) ) ;
#2 = UNCERTAINTY_MEASURE_WITH_UNIT (LENGTH_MEASURE( 1.000000000000000082E-05 ), #196, 'distance_accuracy_value', 'NONE');
#3 = LENGTH_MEASURE_WITH_UNIT ( LENGTH_MEASURE( 0.02539999999999999897 ), #49 );
#4 =( GEOMETRIC_REPRESENTATION_CONTEXT ( 3 ) GLOBAL_UNCERTAINTY_ASSIGNED_CONTEXT ( ( #48 ) ) GLOBAL_UNIT_ASSIGNED_CONTEXT ( ( #81, #273, #150 ) ) REPRESENTATION_CONTEXT ( 'NONE', 'WORKASPACE' ) );
#5 = CARTESIAN_POINT ( 'NONE',  ( 6.123233995736766036E-17, 0.000000000000000000, 0.5000000000000000000 ) ) ;
#6 = FACE_OUTER_BOUND ( 'NONE', #125, .T. ) ;
#7 = VERTEX_POINT ( 'NONE', #146 ) ;
#8 = ORIENTED_EDGE ( 'NONE', *, *, #51, .F. ) ;
#9 = STYLED_ITEM ( 'NONE', ( #260 ), #277 ) ;
#10 = ORIENTED_EDGE ( 'NONE', *, *, #279, .F. ) ;
#11 = ORIENTED_EDGE ( 'NONE', *, *, #279, .T. ) ;
#12 = DIRECTION ( 'NONE',  ( -0.000000000000000000, -1.000000000000000000, -0.000000000000000000 ) ) ;
#13 = PRODUCT_RELATED_PRODUCT_CATEGORY ( 'part', '', ( #87 ) ) ;
#14 = AXIS2_PLACEMENT_3D ( 'NONE', #123, #215, #158 ) ;
#15 = FILL_AREA_STYLE ('',( #134 ) ) ;
#16 = CARTESIAN_POINT ( 'NONE',  ( -1.224646799147351975E-16, 7.000000000000000000, 0.000000000000000000 ) ) ;
#17 =( CONVERSION_BASED_UNIT ( 'INCH', #131 ) LENGTH_UNIT ( ) NAMED_UNIT ( #188 ) );
#18 = FACE_OUTER_BOUND ( 'NONE', #206, .T. ) ;
#19 =( GEOMETRIC_REPRESENTATION_CONTEXT ( 3 ) GLOBAL_UNCERTAINTY_ASSIGNED_CONTEXT ( ( #220 ) ) GLOBAL_UNIT_ASSIGNED_CONTEXT ( ( #44, #232, #227 ) ) REPRESENTATION_CONTEXT ( 'NONE', 'WORKASPACE' ) );
#20 =( NAMED_UNIT ( * ) SI_UNIT ( $, .STERADIAN. ) SOLID_ANGLE_UNIT ( ) );
#21 = FILL_AREA_STYLE_COLOUR ( '', #209 ) ;
#22 = SURFACE_SIDE_STYLE ('',( #117 ) ) ;
#23 =( LENGTH_UNIT ( ) NAMED_UNIT ( * ) SI_UNIT ( $, .METRE. ) );
#24 =( CONVERSION_BASED_UNIT ( 'INCH', #143 ) LENGTH_UNIT ( ) NAMED_UNIT ( #287 ) );
#25 = CLOSED_SHELL ( 'NONE', ( #259, #277, #173, #169 ) ) ;
#26 = FILL_AREA_STYLE_COLOUR ( '', #247 ) ;
#27 = LINE ( 'NONE', #5, #178 ) ;
#28 = EDGE_LOOP ( 'NONE', ( #255, #8 ) ) ;
#29 = COLOUR_RGB ( '',1.000000000000000000, 0.000000000000000000, 0.000000000000000000 ) ;
#30 = CARTESIAN_POINT ( 'NONE',  ( -0.5000000000000002220, 7.000000000000000000, 0.000000000000000000 ) ) ;
#31 = EDGE_LOOP ( 'NONE', ( #207, #182, #149, #10 ) ) ;
#32 = CARTESIAN_POINT ( 'NONE',  ( 4.957883579047453271E-34, 4.250000000000000000, 0.000000000000000000 ) ) ;
#33 = FILL_AREA_STYLE_COLOUR ( '', #57 ) ;
#34 = ORIENTED_EDGE ( 'NONE', *, *, #60, .F. ) ;
#35 = STYLED_ITEM ( 'NONE', ( #195 ), #173 ) ;
#36 =( GEOMETRIC_REPRESENTATION_CONTEXT ( 3 ) GLOBAL_UNCERTAINTY_ASSIGNED_CONTEXT ( ( #170 ) ) GLOBAL_UNIT_ASSIGNED_CONTEXT ( ( #24, #118, #71 ) ) REPRESENTATION_CONTEXT ( 'NONE', 'WORKASPACE' ) );
#37 = ORIENTED_EDGE ( 'NONE', *, *, #122, .T. ) ;
#38 = CARTESIAN_POINT ( 'NONE',  ( -0.5000000000000002220, 7.000000000000000000, 0.000000000000000000 ) ) ;
#39 = SURFACE_STYLE_FILL_AREA ( #15 ) ;
#40 = SURFACE_STYLE_FILL_AREA ( #184 ) ;
#41 = STYLED_ITEM ( 'NONE', ( #69 ), #169 ) ;
#42 = AXIS2_PLACEMENT_3D ( 'NONE', #194, #309, #1 ) ;
#43 = PRESENTATION_STYLE_ASSIGNMENT (( #62 ) ) ;
#44 =( CONVERSION_BASED_UNIT ( 'INCH', #299 ) LENGTH_UNIT ( ) NAMED_UNIT ( #89 ) );
#45 = CARTESIAN_POINT ( 'NONE',  ( 0.000000000000000000, 4.250000000000000000, 0.000000000000000000 ) ) ;
#46 = CARTESIAN_POINT ( 'NONE',  ( -1.224646799147351975E-16, 7.000000000000000000, 0.000000000000000000 ) ) ;
#47 = PLANE ( 'NONE',  #159 ) ;
#48 = UNCERTAINTY_MEASURE_WITH_UNIT (LENGTH_MEASURE( 1.000000000000000082E-05 ), #81, 'distance_accuracy_value', 'NONE');
#49 =( LENGTH_UNIT ( ) NAMED_UNIT ( * ) SI_UNIT ( $, .METRE. ) );
#50 = VECTOR ( 'NONE', #267, 39.37007874015748143 ) ;
#51 = EDGE_CURVE ( 'NONE', #80, #61, #282, .T. ) ;
#52 = PLANE ( 'NONE',  #304 ) ;
#53 =( LENGTH_UNIT ( ) NAMED_UNIT ( * ) SI_UNIT ( $, .METRE. ) );
#54 = ORIENTED_EDGE ( 'NONE', *, *, #74, .F. ) ;
#55 = CIRCLE ( 'NONE', #172, 0.5000000000000000000 ) ;
#56 = VERTEX_POINT ( 'NONE', #137 ) ;
#57 = COLOUR_RGB ( '',0.7921568627450980005, 0.8196078431372548767, 0.9333333333333333481 ) ;
#58 = AXIS2_PLACEMENT_3D ( 'NONE', #45, #234, #83 ) ;
#59 = APPLICATION_CONTEXT ( 'automotive_design' ) ;
#60 = EDGE_CURVE ( 'NONE', #7, #224, #275, .T. ) ;
#61 = VERTEX_POINT ( 'NONE', #183 ) ;
#62 = SURFACE_STYLE_USAGE ( .BOTH. , #231 ) ;
#63 = SURFACE_SIDE_STYLE ('',( #185 ) ) ;
#64 = FILL_AREA_STYLE_COLOUR ( '', #181 ) ;
#65 = PRESENTATION_LAYER_ASSIGNMENT (  '', '', ( #35 ) ) ;
#66 =( LENGTH_UNIT ( ) NAMED_UNIT ( * ) SI_UNIT ( $, .METRE. ) );
#67 = DIRECTION ( 'NONE',  ( -1.000000000000000000, 0.000000000000000000, 0.000000000000000000 ) ) ;
#68 = CARTESIAN_POINT ( 'NONE',  ( 0.000000000000000000, 0.000000000000000000, 0.000000000000000000 ) ) ;
#69 = PRESENTATION_STYLE_ASSIGNMENT (( #286 ) ) ;
#70 =( CONVERSION_BASED_UNIT ( 'INCH', #270 ) LENGTH_UNIT ( ) NAMED_UNIT ( #306 ) );
#71 =( NAMED_UNIT ( * ) SI_UNIT ( $, .STERADIAN. ) SOLID_ANGLE_UNIT ( ) );
#72 = PRODUCT_DEFINITION ( 'UNKNOWN', '', #293, #114 ) ;
#73 =( LENGTH_UNIT ( ) NAMED_UNIT ( * ) SI_UNIT ( $, .METRE. ) );
#74 = EDGE_CURVE ( 'NONE', #176, #56, #127, .T. ) ;
#75 = STYLED_ITEM ( 'NONE', ( #174 ), #216 ) ;
#76 = EDGE_LOOP ( 'NONE', ( #37, #84 ) ) ;
#77 = MECHANICAL_DESIGN_GEOMETRIC_PRESENTATION_REPRESENTATION (  '', ( #41 ), #36 ) ;
#78 = PRESENTATION_LAYER_ASSIGNMENT (  '', '', ( #9 ) ) ;
#79 = DIRECTION ( 'NONE',  ( -4.453261087808552747E-17, 1.000000000000000000, 0.000000000000000000 ) ) ;
#80 = VERTEX_POINT ( 'NONE', #156 ) ;
#81 =( CONVERSION_BASED_UNIT ( 'INCH', #179 ) LENGTH_UNIT ( ) NAMED_UNIT ( #106 ) );
#82 = ORIENTED_EDGE ( 'NONE', *, *, #93, .T. ) ;
#83 = DIRECTION ( 'NONE',  ( 0.000000000000000000, -0.000000000000000000, 1.000000000000000000 ) ) ;
#84 = ORIENTED_EDGE ( 'NONE', *, *, #60, .T. ) ;
#85 = PRESENTATION_LAYER_ASSIGNMENT (  '', '', ( #115 ) ) ;
#86 = CARTESIAN_POINT ( 'NONE',  ( 6.123233995736766036E-17, 0.000000000000000000, 0.5000000000000000000 ) ) ;
#87 = PRODUCT ( '86073', '86073', '', ( #139 ) ) ;
#88 = CARTESIAN_POINT ( 'NONE',  ( 0.000000000000000000, 4.250000000000000000, 0.000000000000000000 ) ) ;
#89 = DIMENSIONAL_EXPONENTS ( 1.000000000000000000, 0.000000000000000000, 0.000000000000000000, 0.000000000000000000, 0.000000000000000000, 0.000000000000000000, 0.000000000000000000 ) ;
#90 =( GEOMETRIC_REPRESENTATION_CONTEXT ( 3 ) GLOBAL_UNCERTAINTY_ASSIGNED_CONTEXT ( ( #197 ) ) GLOBAL_UNIT_ASSIGNED_CONTEXT ( ( #17, #103, #20 ) ) REPRESENTATION_CONTEXT ( 'NONE', 'WORKASPACE' ) );
#91 = DIRECTION ( 'NONE',  ( -4.453261087808552747E-17, 1.000000000000000000, -0.000000000000000000 ) ) ;
#92 = DIRECTION ( 'NONE',  ( 0.000000000000000000, 0.000000000000000000, -1.000000000000000000 ) ) ;
#93 = EDGE_CURVE ( 'NONE', #56, #224, #214, .T. ) ;
#94 = DIRECTION ( 'NONE',  ( -0.000000000000000000, -1.000000000000000000, -0.000000000000000000 ) ) ;
#95 =( GEOMETRIC_REPRESENTATION_CONTEXT ( 3 ) GLOBAL_UNCERTAINTY_ASSIGNED_CONTEXT ( ( #163 ) ) GLOBAL_UNIT_ASSIGNED_CONTEXT ( ( #160, #262, #264 ) ) REPRESENTATION_CONTEXT ( 'NONE', 'WORKASPACE' ) );
#96 = MECHANICAL_DESIGN_GEOMETRIC_PRESENTATION_REPRESENTATION (  '', ( #35 ), #243 ) ;
#97 = CYLINDRICAL_SURFACE ( 'NONE', #253, 0.5000000000000000000 ) ;
#98 = ORIENTED_EDGE ( 'NONE', *, *, #285, .T. ) ;
#99 = ORIENTED_EDGE ( 'NONE', *, *, #74, .T. ) ;
#100 = FILL_AREA_STYLE ('',( #33 ) ) ;
#101 = ORIENTED_EDGE ( 'NONE', *, *, #51, .T. ) ;
#102 = MANIFOLD_SOLID_BREP ( 'Revolve - Tool Body (Straight Shanked)', #145 ) ;
#103 =( NAMED_UNIT ( * ) PLANE_ANGLE_UNIT ( ) SI_UNIT ( $, .RADIAN. ) );
#104 = PRESENTATION_LAYER_ASSIGNMENT (  '', '', ( #75 ) ) ;
#105 = CARTESIAN_POINT ( 'NONE',  ( -1.224646799147351975E-16, 7.000000000000000000, 0.000000000000000000 ) ) ;
#106 = DIMENSIONAL_EXPONENTS ( 1.000000000000000000, 0.000000000000000000, 0.000000000000000000, 0.000000000000000000, 0.000000000000000000, 0.000000000000000000, 0.000000000000000000 ) ;
#107 = CYLINDRICAL_SURFACE ( 'NONE', #167, 0.5000000000000000000 ) ;
#108 = DIRECTION ( 'NONE',  ( -1.000000000000000000, 0.000000000000000000, 0.000000000000000000 ) ) ;
#109 = MECHANICAL_DESIGN_GEOMETRIC_PRESENTATION_REPRESENTATION (  '', ( #75 ), #4 ) ;
#110 = AXIS2_PLACEMENT_3D ( 'NONE', #177, #294, #147 ) ;
#111 = FILL_AREA_STYLE ('',( #21 ) ) ;
#112 = CARTESIAN_POINT ( 'NONE',  ( 0.000000000000000000, 0.000000000000000000, -0.5000000000000000000 ) ) ;
#113 = FACE_OUTER_BOUND ( 'NONE', #278, .T. ) ;
#114 = PRODUCT_DEFINITION_CONTEXT ( 'detailed design', #59, 'design' ) ;
#115 = STYLED_ITEM ( 'NONE', ( #261 ), #102 ) ;
#116 = DIRECTION ( 'NONE',  ( 0.000000000000000000, -1.000000000000000000, -0.000000000000000000 ) ) ;
#117 = SURFACE_STYLE_FILL_AREA ( #269 ) ;
#118 =( NAMED_UNIT ( * ) PLANE_ANGLE_UNIT ( ) SI_UNIT ( $, .RADIAN. ) );
#119 = AXIS2_PLACEMENT_3D ( 'NONE', #161, #164, #190 ) ;
#120 = VECTOR ( 'NONE', #250, 39.37007874015748143 ) ;
#121 = EDGE_LOOP ( 'NONE', ( #223, #99, #82, #34 ) ) ;
#122 = EDGE_CURVE ( 'NONE', #224, #7, #229, .T. ) ;
#123 = CARTESIAN_POINT ( 'NONE',  ( 0.000000000000000000, 4.250000000000000000, 0.000000000000000000 ) ) ;
#124 = DIRECTION ( 'NONE',  ( 1.000000000000000000, 4.453261087808552747E-17, 0.000000000000000000 ) ) ;
#125 = EDGE_LOOP ( 'NONE', ( #289, #54 ) ) ;
#126 = ADVANCED_FACE ( 'NONE', ( #280 ), #211, .T. ) ;
#127 = CIRCLE ( 'NONE', #303, 0.5000000000000000000 ) ;
#128 = ORIENTED_EDGE ( 'NONE', *, *, #162, .T. ) ;
#129 = ORIENTED_EDGE ( 'NONE', *, *, #93, .F. ) ;
#130 = DIRECTION ( 'NONE',  ( -4.453261087808552747E-17, 1.000000000000000000, -0.000000000000000000 ) ) ;
#131 = LENGTH_MEASURE_WITH_UNIT ( LENGTH_MEASURE( 0.02539999999999999897 ), #66 );
#132 = MECHANICAL_DESIGN_GEOMETRIC_PRESENTATION_REPRESENTATION (  '', ( #115 ), #19 ) ;
#133 =( GEOMETRIC_REPRESENTATION_CONTEXT ( 3 ) GLOBAL_UNCERTAINTY_ASSIGNED_CONTEXT ( ( #239 ) ) GLOBAL_UNIT_ASSIGNED_CONTEXT ( ( #70, #271, #217 ) ) REPRESENTATION_CONTEXT ( 'NONE', 'WORKASPACE' ) );
#134 = FILL_AREA_STYLE_COLOUR ( '', #308 ) ;
#135 = CARTESIAN_POINT ( 'NONE',  ( -1.224646799147351975E-16, 7.000000000000000000, 0.000000000000000000 ) ) ;
#136 = DIRECTION ( 'NONE',  ( 0.000000000000000000, 0.000000000000000000, -1.000000000000000000 ) ) ;
#137 = CARTESIAN_POINT ( 'NONE',  ( -0.5000000000000000000, 4.250000000000000000, 0.000000000000000000 ) ) ;
#138 = EDGE_CURVE ( 'NONE', #61, #80, #218, .T. ) ;
#139 = PRODUCT_CONTEXT ( 'NONE', #266, 'mechanical' ) ;
#140 = CARTESIAN_POINT ( 'NONE',  ( 0.000000000000000000, 0.000000000000000000, 0.000000000000000000 ) ) ;
#141 = VECTOR ( 'NONE', #258, 39.37007874015748143 ) ;
#142 = PRESENTATION_LAYER_ASSIGNMENT (  '', '', ( #221 ) ) ;
#143 = LENGTH_MEASURE_WITH_UNIT ( LENGTH_MEASURE( 0.02539999999999999897 ), #73 );
#144 = ADVANCED_FACE ( 'NONE', ( #18 ), #263, .T. ) ;
#145 = CLOSED_SHELL ( 'NONE', ( #144, #198, #126, #225 ) ) ;
#146 = CARTESIAN_POINT ( 'NONE',  ( 0.5000000000000000000, 7.000000000000000000, 6.123233995736767268E-17 ) ) ;
#147 = DIRECTION ( 'NONE',  ( -1.000000000000000000, 0.000000000000000000, 0.000000000000000000 ) ) ;
#148 = DIRECTION ( 'NONE',  ( 4.453261087808552747E-17, -1.000000000000000000, 0.000000000000000000 ) ) ;
#149 = ORIENTED_EDGE ( 'NONE', *, *, #162, .F. ) ;
#150 =( NAMED_UNIT ( * ) SI_UNIT ( $, .STERADIAN. ) SOLID_ANGLE_UNIT ( ) );
#151 = AXIS2_PLACEMENT_3D ( 'NONE', #105, #300, #213 ) ;
#152 = ORIENTED_EDGE ( 'NONE', *, *, #122, .F. ) ;
#153 = FACE_OUTER_BOUND ( 'NONE', #31, .T. ) ;
#154 = ORIENTED_EDGE ( 'NONE', *, *, #244, .T. ) ;
#155 = SHAPE_DEFINITION_REPRESENTATION ( #296, #252 ) ;
#156 = CARTESIAN_POINT ( 'NONE',  ( 6.123233995736766036E-17, 4.250000000000000000, 0.5000000000000000000 ) ) ;
#157 =( LENGTH_UNIT ( ) NAMED_UNIT ( * ) SI_UNIT ( $, .METRE. ) );
#158 = DIRECTION ( 'NONE',  ( 0.000000000000000000, 0.000000000000000000, -1.000000000000000000 ) ) ;
#159 = AXIS2_PLACEMENT_3D ( 'NONE', #140, #116, #245 ) ;
#160 =( CONVERSION_BASED_UNIT ( 'INCH', #281 ) LENGTH_UNIT ( ) NAMED_UNIT ( #240 ) );
#161 = CARTESIAN_POINT ( 'NONE',  ( 0.000000000000000000, 4.250000000000000000, 0.000000000000000000 ) ) ;
#162 = EDGE_CURVE ( 'NONE', #295, #276, #171, .T. ) ;
#163 = UNCERTAINTY_MEASURE_WITH_UNIT (LENGTH_MEASURE( 1.000000000000000082E-05 ), #160, 'distance_accuracy_value', 'NONE');
#164 = DIRECTION ( 'NONE',  ( -0.000000000000000000, -1.000000000000000000, -0.000000000000000000 ) ) ;
#165 = CARTESIAN_POINT ( 'NONE',  ( 0.000000000000000000, 0.000000000000000000, 0.000000000000000000 ) ) ;
#166 = AXIS2_PLACEMENT_3D ( 'NONE', #46, #130, #108 ) ;
#167 = AXIS2_PLACEMENT_3D ( 'NONE', #228, #212, #226 ) ;
#168 = CARTESIAN_POINT ( 'NONE',  ( 0.5000000000000000000, 4.250000000000000000, 6.123233995736767268E-17 ) ) ;
#169 = ADVANCED_FACE ( 'NONE', ( #265 ), #47, .T. ) ;
#170 = UNCERTAINTY_MEASURE_WITH_UNIT (LENGTH_MEASURE( 1.000000000000000082E-05 ), #24, 'distance_accuracy_value', 'NONE');
#171 = CIRCLE ( 'NONE', #292, 0.5000000000000000000 ) ;
#172 = AXIS2_PLACEMENT_3D ( 'NONE', #238, #94, #92 ) ;
#173 = ADVANCED_FACE ( 'NONE', ( #113 ), #97, .T. ) ;
#174 = PRESENTATION_STYLE_ASSIGNMENT (( #254 ) ) ;
#175 = CARTESIAN_POINT ( 'NONE',  ( 0.4999999999999999445, 7.000000000000000000, 6.123233995736767268E-17 ) ) ;
#176 = VERTEX_POINT ( 'NONE', #168 ) ;
#177 = CARTESIAN_POINT ( 'NONE',  ( 0.000000000000000000, 4.250000000000000000, 0.000000000000000000 ) ) ;
#178 = VECTOR ( 'NONE', #202, 39.37007874015748143 ) ;
#179 = LENGTH_MEASURE_WITH_UNIT ( LENGTH_MEASURE( 0.02539999999999999897 ), #53 );
#180 = LINE ( 'NONE', #112, #50 ) ;
#181 = COLOUR_RGB ( '',0.7921568627450980005, 0.8196078431372548767, 0.9333333333333333481 ) ;
#182 = ORIENTED_EDGE ( 'NONE', *, *, #237, .T. ) ;
#183 = CARTESIAN_POINT ( 'NONE',  ( 0.000000000000000000, 4.250000000000000000, -0.5000000000000000000 ) ) ;
#184 = FILL_AREA_STYLE ('',( #64 ) ) ;
#185 = SURFACE_STYLE_FILL_AREA ( #257 ) ;
#186 = DIRECTION ( 'NONE',  ( -1.000000000000000000, 0.000000000000000000, 0.000000000000000000 ) ) ;
#187 = PRESENTATION_LAYER_ASSIGNMENT (  '', '', ( #41 ) ) ;
#188 = DIMENSIONAL_EXPONENTS ( 1.000000000000000000, 0.000000000000000000, 0.000000000000000000, 0.000000000000000000, 0.000000000000000000, 0.000000000000000000, 0.000000000000000000 ) ;
#189 = PLANE ( 'NONE',  #58 ) ;
#190 = DIRECTION ( 'NONE',  ( 0.000000000000000000, 0.000000000000000000, -1.000000000000000000 ) ) ;
#191 = APPLICATION_PROTOCOL_DEFINITION ( 'draft international standard', 'automotive_design', 1998, #266 ) ;
#192 = SURFACE_SIDE_STYLE ('',( #307 ) ) ;
#193 = AXIS2_PLACEMENT_3D ( 'NONE', #135, #283, #67 ) ;
#194 = CARTESIAN_POINT ( 'NONE',  ( 0.000000000000000000, 0.000000000000000000, 0.000000000000000000 ) ) ;
#195 = PRESENTATION_STYLE_ASSIGNMENT (( #242 ) ) ;
#196 =( CONVERSION_BASED_UNIT ( 'INCH', #3 ) LENGTH_UNIT ( ) NAMED_UNIT ( #233 ) );
#197 = UNCERTAINTY_MEASURE_WITH_UNIT (LENGTH_MEASURE( 1.000000000000000082E-05 ), #17, 'distance_accuracy_value', 'NONE');
#198 = ADVANCED_FACE ( 'NONE', ( #6 ), #203, .F. ) ;
#199 = AXIS2_PLACEMENT_3D ( 'NONE', #32, #79, #222 ) ;
#200 = MECHANICAL_DESIGN_GEOMETRIC_PRESENTATION_REPRESENTATION (  '', ( #9 ), #95 ) ;
#201 =( NAMED_UNIT ( * ) PLANE_ANGLE_UNIT ( ) SI_UNIT ( $, .RADIAN. ) );
#202 = DIRECTION ( 'NONE',  ( -0.000000000000000000, -1.000000000000000000, -0.000000000000000000 ) ) ;
#203 = PLANE ( 'NONE',  #199 ) ;
#204 = EDGE_LOOP ( 'NONE', ( #128, #98 ) ) ;
#205 = AXIS2_PLACEMENT_3D ( 'NONE', #16, #284, #186 ) ;
#206 = EDGE_LOOP ( 'NONE', ( #291, #154, #152, #129 ) ) ;
#207 = ORIENTED_EDGE ( 'NONE', *, *, #138, .T. ) ;
#208 = FILL_AREA_STYLE_COLOUR ( '', #29 ) ;
#209 = COLOUR_RGB ( '',1.000000000000000000, 0.000000000000000000, 0.000000000000000000 ) ;
#210 = CIRCLE ( 'NONE', #110, 0.5000000000000000000 ) ;
#211 = CYLINDRICAL_SURFACE ( 'NONE', #193, 0.5000000000000001110 ) ;
#212 = DIRECTION ( 'NONE',  ( -0.000000000000000000, -1.000000000000000000, -0.000000000000000000 ) ) ;
#213 = DIRECTION ( 'NONE',  ( -1.000000000000000000, 0.000000000000000000, 0.000000000000000000 ) ) ;
#214 = LINE ( 'NONE', #38, #141 ) ;
#215 = DIRECTION ( 'NONE',  ( -0.000000000000000000, -1.000000000000000000, -0.000000000000000000 ) ) ;
#216 = MANIFOLD_SOLID_BREP ( 'Revolve - Cutting Edge', #25 ) ;
#217 =( NAMED_UNIT ( * ) SI_UNIT ( $, .STERADIAN. ) SOLID_ANGLE_UNIT ( ) );
#218 = CIRCLE ( 'NONE', #119, 0.5000000000000000000 ) ;
#219 = EDGE_CURVE ( 'NONE', #56, #176, #210, .T. ) ;
#220 = UNCERTAINTY_MEASURE_WITH_UNIT (LENGTH_MEASURE( 1.000000000000000082E-05 ), #44, 'distance_accuracy_value', 'NONE');
#221 = STYLED_ITEM ( 'NONE', ( #43 ), #259 ) ;
#222 = DIRECTION ( 'NONE',  ( -1.000000000000000000, -4.453261087808552747E-17, 0.000000000000000000 ) ) ;
#223 = ORIENTED_EDGE ( 'NONE', *, *, #244, .F. ) ;
#224 = VERTEX_POINT ( 'NONE', #30 ) ;
#225 = ADVANCED_FACE ( 'NONE', ( #274 ), #52, .F. ) ;
#226 = DIRECTION ( 'NONE',  ( 0.000000000000000000, 0.000000000000000000, -1.000000000000000000 ) ) ;
#227 =( NAMED_UNIT ( * ) SI_UNIT ( $, .STERADIAN. ) SOLID_ANGLE_UNIT ( ) );
#228 = CARTESIAN_POINT ( 'NONE',  ( 0.000000000000000000, 0.000000000000000000, 0.000000000000000000 ) ) ;
#229 = CIRCLE ( 'NONE', #205, 0.5000000000000001110 ) ;
#230 = DIRECTION ( 'NONE',  ( -1.000000000000000000, 0.000000000000000000, 0.000000000000000000 ) ) ;
#231 = SURFACE_SIDE_STYLE ('',( #39 ) ) ;
#232 =( NAMED_UNIT ( * ) PLANE_ANGLE_UNIT ( ) SI_UNIT ( $, .RADIAN. ) );
#233 = DIMENSIONAL_EXPONENTS ( 1.000000000000000000, 0.000000000000000000, 0.000000000000000000, 0.000000000000000000, 0.000000000000000000, 0.000000000000000000, 0.000000000000000000 ) ;
#234 = DIRECTION ( 'NONE',  ( 0.000000000000000000, 1.000000000000000000, 0.000000000000000000 ) ) ;
#235 = APPLICATION_PROTOCOL_DEFINITION ( 'draft international standard', 'automotive_design', 1998, #59 ) ;
#236 = DIRECTION ( 'NONE',  ( 0.000000000000000000, 0.000000000000000000, -1.000000000000000000 ) ) ;
#237 = EDGE_CURVE ( 'NONE', #80, #276, #27, .T. ) ;
#238 = CARTESIAN_POINT ( 'NONE',  ( 0.000000000000000000, 0.000000000000000000, 0.000000000000000000 ) ) ;
#239 = UNCERTAINTY_MEASURE_WITH_UNIT (LENGTH_MEASURE( 1.000000000000000082E-05 ), #70, 'distance_accuracy_value', 'NONE');
#240 = DIMENSIONAL_EXPONENTS ( 1.000000000000000000, 0.000000000000000000, 0.000000000000000000, 0.000000000000000000, 0.000000000000000000, 0.000000000000000000, 0.000000000000000000 ) ;
#241 = CARTESIAN_POINT ( 'NONE',  ( 0.000000000000000000, 0.000000000000000000, -0.5000000000000000000 ) ) ;
#242 = SURFACE_STYLE_USAGE ( .BOTH. , #22 ) ;
#243 =( GEOMETRIC_REPRESENTATION_CONTEXT ( 3 ) GLOBAL_UNCERTAINTY_ASSIGNED_CONTEXT ( ( #2 ) ) GLOBAL_UNIT_ASSIGNED_CONTEXT ( ( #196, #201, #272 ) ) REPRESENTATION_CONTEXT ( 'NONE', 'WORKASPACE' ) );
#244 = EDGE_CURVE ( 'NONE', #176, #7, #288, .T. ) ;
#245 = DIRECTION ( 'NONE',  ( 0.000000000000000000, 0.000000000000000000, -1.000000000000000000 ) ) ;
#246 = CARTESIAN_POINT ( 'NONE',  ( 0.5000000000000000000, 7.000000000000000000, 0.000000000000000000 ) ) ;
#247 = COLOUR_RGB ( '',1.000000000000000000, 0.000000000000000000, 0.000000000000000000 ) ;
#248 = MECHANICAL_DESIGN_GEOMETRIC_PRESENTATION_REPRESENTATION (  '', ( #221 ), #90 ) ;
#249 = SURFACE_SIDE_STYLE ('',( #290 ) ) ;
#250 = DIRECTION ( 'NONE',  ( -4.453261087808552747E-17, 1.000000000000000000, -0.000000000000000000 ) ) ;
#251 = ORIENTED_EDGE ( 'NONE', *, *, #237, .F. ) ;
#252 = ADVANCED_BREP_SHAPE_REPRESENTATION ( '86073', ( #216, #102, #42 ), #133 ) ;
#253 = AXIS2_PLACEMENT_3D ( 'NONE', #165, #268, #236 ) ;
#254 = SURFACE_STYLE_USAGE ( .BOTH. , #249 ) ;
#255 = ORIENTED_EDGE ( 'NONE', *, *, #138, .F. ) ;
#256 = SURFACE_STYLE_USAGE ( .BOTH. , #305 ) ;
#257 = FILL_AREA_STYLE ('',( #208 ) ) ;
#258 = DIRECTION ( 'NONE',  ( -4.453261087808552747E-17, 1.000000000000000000, -0.000000000000000000 ) ) ;
#259 = ADVANCED_FACE ( 'NONE', ( #153 ), #107, .T. ) ;
#260 = PRESENTATION_STYLE_ASSIGNMENT (( #298 ) ) ;
#261 = PRESENTATION_STYLE_ASSIGNMENT (( #256 ) ) ;
#262 =( NAMED_UNIT ( * ) PLANE_ANGLE_UNIT ( ) SI_UNIT ( $, .RADIAN. ) );
#263 = CYLINDRICAL_SURFACE ( 'NONE', #166, 0.5000000000000001110 ) ;
#264 =( NAMED_UNIT ( * ) SI_UNIT ( $, .STERADIAN. ) SOLID_ANGLE_UNIT ( ) );
#265 = FACE_OUTER_BOUND ( 'NONE', #204, .T. ) ;
#266 = APPLICATION_CONTEXT ( 'automotive_design' ) ;
#267 = DIRECTION ( 'NONE',  ( -0.000000000000000000, -1.000000000000000000, -0.000000000000000000 ) ) ;
#268 = DIRECTION ( 'NONE',  ( -0.000000000000000000, -1.000000000000000000, -0.000000000000000000 ) ) ;
#269 = FILL_AREA_STYLE ('',( #26 ) ) ;
#270 = LENGTH_MEASURE_WITH_UNIT ( LENGTH_MEASURE( 0.02539999999999999897 ), #23 );
#271 =( NAMED_UNIT ( * ) PLANE_ANGLE_UNIT ( ) SI_UNIT ( $, .RADIAN. ) );
#272 =( NAMED_UNIT ( * ) SI_UNIT ( $, .STERADIAN. ) SOLID_ANGLE_UNIT ( ) );
#273 =( NAMED_UNIT ( * ) PLANE_ANGLE_UNIT ( ) SI_UNIT ( $, .RADIAN. ) );
#274 = FACE_OUTER_BOUND ( 'NONE', #76, .T. ) ;
#275 = CIRCLE ( 'NONE', #151, 0.5000000000000001110 ) ;
#276 = VERTEX_POINT ( 'NONE', #86 ) ;
#277 = ADVANCED_FACE ( 'NONE', ( #301 ), #189, .T. ) ;
#278 = EDGE_LOOP ( 'NONE', ( #251, #101, #11, #297 ) ) ;
#279 = EDGE_CURVE ( 'NONE', #61, #295, #180, .T. ) ;
#280 = FACE_OUTER_BOUND ( 'NONE', #121, .T. ) ;
#281 = LENGTH_MEASURE_WITH_UNIT ( LENGTH_MEASURE( 0.02539999999999999897 ), #157 );
#282 = CIRCLE ( 'NONE', #14, 0.5000000000000000000 ) ;
#283 = DIRECTION ( 'NONE',  ( -4.453261087808552747E-17, 1.000000000000000000, -0.000000000000000000 ) ) ;
#284 = DIRECTION ( 'NONE',  ( -4.453261087808552747E-17, 1.000000000000000000, -0.000000000000000000 ) ) ;
#285 = EDGE_CURVE ( 'NONE', #276, #295, #55, .T. ) ;
#286 = SURFACE_STYLE_USAGE ( .BOTH. , #192 ) ;
#287 = DIMENSIONAL_EXPONENTS ( 1.000000000000000000, 0.000000000000000000, 0.000000000000000000, 0.000000000000000000, 0.000000000000000000, 0.000000000000000000, 0.000000000000000000 ) ;
#288 = LINE ( 'NONE', #175, #120 ) ;
#289 = ORIENTED_EDGE ( 'NONE', *, *, #219, .F. ) ;
#290 = SURFACE_STYLE_FILL_AREA ( #100 ) ;
#291 = ORIENTED_EDGE ( 'NONE', *, *, #219, .T. ) ;
#292 = AXIS2_PLACEMENT_3D ( 'NONE', #68, #12, #136 ) ;
#293 = PRODUCT_DEFINITION_FORMATION_WITH_SPECIFIED_SOURCE ( 'ANY', '', #87, .NOT_KNOWN. ) ;
#294 = DIRECTION ( 'NONE',  ( -4.453261087808552747E-17, 1.000000000000000000, -0.000000000000000000 ) ) ;
#295 = VERTEX_POINT ( 'NONE', #241 ) ;
#296 = PRODUCT_DEFINITION_SHAPE ( 'NONE', 'NONE',  #72 ) ;
#297 = ORIENTED_EDGE ( 'NONE', *, *, #285, .F. ) ;
#298 = SURFACE_STYLE_USAGE ( .BOTH. , #63 ) ;
#299 = LENGTH_MEASURE_WITH_UNIT ( LENGTH_MEASURE( 0.02539999999999999897 ), #302 );
#300 = DIRECTION ( 'NONE',  ( -4.453261087808552747E-17, 1.000000000000000000, -0.000000000000000000 ) ) ;
#301 = FACE_OUTER_BOUND ( 'NONE', #28, .T. ) ;
#302 =( LENGTH_UNIT ( ) NAMED_UNIT ( * ) SI_UNIT ( $, .METRE. ) );
#303 = AXIS2_PLACEMENT_3D ( 'NONE', #88, #91, #230 ) ;
#304 = AXIS2_PLACEMENT_3D ( 'NONE', #246, #148, #124 ) ;
#305 = SURFACE_SIDE_STYLE ('',( #40 ) ) ;
#306 = DIMENSIONAL_EXPONENTS ( 1.000000000000000000, 0.000000000000000000, 0.000000000000000000, 0.000000000000000000, 0.000000000000000000, 0.000000000000000000, 0.000000000000000000 ) ;
#307 = SURFACE_STYLE_FILL_AREA ( #111 ) ;
#308 = COLOUR_RGB ( '',1.000000000000000000, 0.000000000000000000, 0.000000000000000000 ) ;
#309 = DIRECTION ( 'NONE',  ( 0.000000000000000000, 0.000000000000000000, 1.000000000000000000 ) ) ;
ENDSEC;
END-ISO-10303-21;
