ISO-10303-21;
HEADER;
FILE_DESCRIPTION (( 'STEP AP214' ),
    '1' );
FILE_NAME ('59760.STEP',
    '2023-07-24T15:35:02',
    ( '' ),
    ( '' ),
    'SwSTEP 2.0',
    'SolidWorks 2023',
    '' );
FILE_SCHEMA (( 'AUTOMOTIVE_DESIGN' ));
ENDSEC;

DATA;
#1 = FACE_OUTER_BOUND ( 'NONE', #231, .T. ) ;
#2 = ORIENTED_EDGE ( 'NONE', *, *, #247, .T. ) ;
#3 = EDGE_LOOP ( 'NONE', ( #2, #364 ) ) ;
#4 =( GEOMETRIC_REPRESENTATION_CONTEXT ( 3 ) GLOBAL_UNCERTAINTY_ASSIGNED_CONTEXT ( ( #66 ) ) GLOBAL_UNIT_ASSIGNED_CONTEXT ( ( #280, #185, #274 ) ) REPRESENTATION_CONTEXT ( 'NONE', 'WORKASPACE' ) );
#5 = AXIS2_PLACEMENT_3D ( 'NONE', #12, #129, #296 ) ;
#6 =( LENGTH_UNIT ( ) NAMED_UNIT ( * ) SI_UNIT ( .MILLI., .METRE. ) );
#7 = VERTEX_POINT ( 'NONE', #130 ) ;
#8 = STYLED_ITEM ( 'NONE', ( #237 ), #213 ) ;
#9 = CIRCLE ( 'NONE', #267, 10.00000000000000178 ) ;
#10 = CYLINDRICAL_SURFACE ( 'NONE', #199, 9.999999999999998224 ) ;
#11 = FILL_AREA_STYLE ('',( #156 ) ) ;
#12 = CARTESIAN_POINT ( 'NONE',  ( 1.102182119232617911E-15, 1.000000000000000000, 9.000000000000001776 ) ) ;
#13 = FACE_OUTER_BOUND ( 'NONE', #331, .T. ) ;
#14 = MECHANICAL_DESIGN_GEOMETRIC_PRESENTATION_REPRESENTATION (  '', ( #23 ), #306 ) ;
#15 = UNCERTAINTY_MEASURE_WITH_UNIT (LENGTH_MEASURE( 1.000000000000000082E-05 ), #26, 'distance_accuracy_value', 'NONE');
#16 = STYLED_ITEM ( 'NONE', ( #234 ), #164 ) ;
#17 = AXIS2_PLACEMENT_3D ( 'NONE', #151, #276, #221 ) ;
#18 = CARTESIAN_POINT ( 'NONE',  ( 9.999999999999996447, 100.0000000000000000, 1.224646799147353059E-15 ) ) ;
#19 = SURFACE_STYLE_FILL_AREA ( #51 ) ;
#20 = UNCERTAINTY_MEASURE_WITH_UNIT (LENGTH_MEASURE( 1.000000000000000082E-05 ), #111, 'distance_accuracy_value', 'NONE');
#21 = SURFACE_SIDE_STYLE ('',( #19 ) ) ;
#22 = ADVANCED_FACE ( 'NONE', ( #190 ), #162, .T. ) ;
#23 = STYLED_ITEM ( 'NONE', ( #158 ), #22 ) ;
#24 = PRESENTATION_LAYER_ASSIGNMENT (  '', '', ( #183 ) ) ;
#25 =( NAMED_UNIT ( * ) PLANE_ANGLE_UNIT ( ) SI_UNIT ( $, .RADIAN. ) );
#26 =( LENGTH_UNIT ( ) NAMED_UNIT ( * ) SI_UNIT ( .MILLI., .METRE. ) );
#27 = ORIENTED_EDGE ( 'NONE', *, *, #349, .T. ) ;
#28 =( LENGTH_UNIT ( ) NAMED_UNIT ( * ) SI_UNIT ( .MILLI., .METRE. ) );
#29 =( NAMED_UNIT ( * ) SI_UNIT ( $, .STERADIAN. ) SOLID_ANGLE_UNIT ( ) );
#30 = SURFACE_STYLE_USAGE ( .BOTH. , #286 ) ;
#31 = ORIENTED_EDGE ( 'NONE', *, *, #359, .F. ) ;
#32 = CIRCLE ( 'NONE', #76, 10.00000000000000000 ) ;
#33 = DIRECTION ( 'NONE',  ( -0.000000000000000000, -1.000000000000000000, -0.000000000000000000 ) ) ;
#34 = AXIS2_PLACEMENT_3D ( 'NONE', #71, #186, #320 ) ;
#35 = PRESENTATION_LAYER_ASSIGNMENT (  '', '', ( #89 ) ) ;
#36 = DIRECTION ( 'NONE',  ( -0.000000000000000000, -1.000000000000000000, -0.000000000000000000 ) ) ;
#37 = FILL_AREA_STYLE_COLOUR ( '', #119 ) ;
#38 = MECHANICAL_DESIGN_GEOMETRIC_PRESENTATION_REPRESENTATION (  '', ( #89 ), #266 ) ;
#39 = PRESENTATION_LAYER_ASSIGNMENT (  '', '', ( #69 ) ) ;
#40 = VERTEX_POINT ( 'NONE', #362 ) ;
#41 = FILL_AREA_STYLE ('',( #241 ) ) ;
#42 =( GEOMETRIC_REPRESENTATION_CONTEXT ( 3 ) GLOBAL_UNCERTAINTY_ASSIGNED_CONTEXT ( ( #102 ) ) GLOBAL_UNIT_ASSIGNED_CONTEXT ( ( #28, #200, #138 ) ) REPRESENTATION_CONTEXT ( 'NONE', 'WORKASPACE' ) );
#43 = CIRCLE ( 'NONE', #58, 10.00000000000000355 ) ;
#44 = DIRECTION ( 'NONE',  ( -1.236440607496819135E-16, 1.000000000000000000, -0.000000000000000000 ) ) ;
#45 = DIRECTION ( 'NONE',  ( -0.000000000000000000, -1.000000000000000000, -0.000000000000000000 ) ) ;
#46 = CARTESIAN_POINT ( 'NONE',  ( -1.347111479062089982E-15, 100.0000000000000000, 0.000000000000000000 ) ) ;
#47 = SURFACE_STYLE_USAGE ( .BOTH. , #127 ) ;
#48 = FILL_AREA_STYLE ('',( #53 ) ) ;
#49 = DIRECTION ( 'NONE',  ( -1.000000000000000000, 0.000000000000000000, 0.000000000000000000 ) ) ;
#50 = CIRCLE ( 'NONE', #100, 9.999999999999994671 ) ;
#51 = FILL_AREA_STYLE ('',( #275 ) ) ;
#52 = ORIENTED_EDGE ( 'NONE', *, *, #339, .F. ) ;
#53 = FILL_AREA_STYLE_COLOUR ( '', #271 ) ;
#54 = CARTESIAN_POINT ( 'NONE',  ( -10.00000000000000000, 100.0000000000000000, 0.000000000000000000 ) ) ;
#55 = CARTESIAN_POINT ( 'NONE',  ( 0.000000000000000000, 1.000000000000000000, -9.000000000000001776 ) ) ;
#56 = PRESENTATION_STYLE_ASSIGNMENT (( #254 ) ) ;
#57 = MECHANICAL_DESIGN_GEOMETRIC_PRESENTATION_REPRESENTATION (  '', ( #183 ), #68 ) ;
#58 = AXIS2_PLACEMENT_3D ( 'NONE', #46, #273, #270 ) ;
#59 = DIRECTION ( 'NONE',  ( 0.000000000000000000, 0.000000000000000000, 1.000000000000000000 ) ) ;
#60 = VERTEX_POINT ( 'NONE', #236 ) ;
#61 = FACE_OUTER_BOUND ( 'NONE', #232, .T. ) ;
#62 = DIRECTION ( 'NONE',  ( 1.000000000000000000, 0.000000000000000000, 0.000000000000000000 ) ) ;
#63 = CARTESIAN_POINT ( 'NONE',  ( 0.000000000000000000, 0.000000000000000000, 0.000000000000000000 ) ) ;
#64 = VERTEX_POINT ( 'NONE', #90 ) ;
#65 = PRESENTATION_LAYER_ASSIGNMENT (  '', '', ( #16 ) ) ;
#66 = UNCERTAINTY_MEASURE_WITH_UNIT (LENGTH_MEASURE( 1.000000000000000082E-05 ), #280, 'distance_accuracy_value', 'NONE');
#67 = PRESENTATION_STYLE_ASSIGNMENT (( #133 ) ) ;
#68 =( GEOMETRIC_REPRESENTATION_CONTEXT ( 3 ) GLOBAL_UNCERTAINTY_ASSIGNED_CONTEXT ( ( #15 ) ) GLOBAL_UNIT_ASSIGNED_CONTEXT ( ( #26, #141, #173 ) ) REPRESENTATION_CONTEXT ( 'NONE', 'WORKASPACE' ) );
#69 = STYLED_ITEM ( 'NONE', ( #154 ), #218 ) ;
#70 = CARTESIAN_POINT ( 'NONE',  ( 0.000000000000000000, 40.00000000000000000, 0.000000000000000000 ) ) ;
#71 = CARTESIAN_POINT ( 'NONE',  ( 0.000000000000000000, 0.000000000000000000, 0.000000000000000000 ) ) ;
#72 = EDGE_CURVE ( 'NONE', #197, #209, #192, .T. ) ;
#73 =( NAMED_UNIT ( * ) PLANE_ANGLE_UNIT ( ) SI_UNIT ( $, .RADIAN. ) );
#74 = CARTESIAN_POINT ( 'NONE',  ( 10.00000000000000178, 100.0000000000000000, 0.000000000000000000 ) ) ;
#75 = ORIENTED_EDGE ( 'NONE', *, *, #339, .T. ) ;
#76 = AXIS2_PLACEMENT_3D ( 'NONE', #259, #36, #84 ) ;
#77 = CARTESIAN_POINT ( 'NONE',  ( 0.000000000000000000, 1.000000000000000000, 0.000000000000000000 ) ) ;
#78 = AXIS2_PLACEMENT_3D ( 'NONE', #344, #168, #285 ) ;
#79 = MECHANICAL_DESIGN_GEOMETRIC_PRESENTATION_REPRESENTATION (  '', ( #8 ), #223 ) ;
#80 =( GEOMETRIC_REPRESENTATION_CONTEXT ( 3 ) GLOBAL_UNCERTAINTY_ASSIGNED_CONTEXT ( ( #309 ) ) GLOBAL_UNIT_ASSIGNED_CONTEXT ( ( #333, #189, #302 ) ) REPRESENTATION_CONTEXT ( 'NONE', 'WORKASPACE' ) );
#81 =( LENGTH_UNIT ( ) NAMED_UNIT ( * ) SI_UNIT ( .MILLI., .METRE. ) );
#82 = APPLICATION_PROTOCOL_DEFINITION ( 'draft international standard', 'automotive_design', 1998, #260 ) ;
#83 = FILL_AREA_STYLE ('',( #226 ) ) ;
#84 = DIRECTION ( 'NONE',  ( 0.000000000000000000, 0.000000000000000000, -1.000000000000000000 ) ) ;
#85 = PRESENTATION_STYLE_ASSIGNMENT (( #30 ) ) ;
#86 = ORIENTED_EDGE ( 'NONE', *, *, #247, .F. ) ;
#87 = SURFACE_STYLE_USAGE ( .BOTH. , #366 ) ;
#88 = PRODUCT_CONTEXT ( 'NONE', #260, 'mechanical' ) ;
#89 = STYLED_ITEM ( 'NONE', ( #317 ), #112 ) ;
#90 = CARTESIAN_POINT ( 'NONE',  ( 10.00000000000000355, 100.0000000000000000, 1.224646799147353651E-15 ) ) ;
#91 = AXIS2_PLACEMENT_3D ( 'NONE', #74, #327, #180 ) ;
#92 = EDGE_CURVE ( 'NONE', #135, #256, #32, .T. ) ;
#93 = DIRECTION ( 'NONE',  ( -1.000000000000000000, 0.000000000000000000, 0.000000000000000000 ) ) ;
#94 = CYLINDRICAL_SURFACE ( 'NONE', #346, 10.00000000000000178 ) ;
#95 = CARTESIAN_POINT ( 'NONE',  ( 1.224646799147353454E-15, 0.000000000000000000, 10.00000000000000178 ) ) ;
#96 = ADVANCED_FACE ( 'NONE', ( #61 ), #143, .T. ) ;
#97 = PRESENTATION_LAYER_ASSIGNMENT (  '', '', ( #367 ) ) ;
#98 = SURFACE_STYLE_USAGE ( .BOTH. , #347 ) ;
#99 = ORIENTED_EDGE ( 'NONE', *, *, #238, .T. ) ;
#100 = AXIS2_PLACEMENT_3D ( 'NONE', #342, #204, #114 ) ;
#101 = PRODUCT_DEFINITION ( 'UNKNOWN', '', #288, #345 ) ;
#102 = UNCERTAINTY_MEASURE_WITH_UNIT (LENGTH_MEASURE( 1.000000000000000082E-05 ), #28, 'distance_accuracy_value', 'NONE');
#103 = EDGE_CURVE ( 'NONE', #256, #197, #196, .T. ) ;
#104 = ORIENTED_EDGE ( 'NONE', *, *, #238, .F. ) ;
#105 = PRESENTATION_LAYER_ASSIGNMENT (  '', '', ( #8 ) ) ;
#106 = AXIS2_PLACEMENT_3D ( 'NONE', #77, #132, #248 ) ;
#107 = FACE_OUTER_BOUND ( 'NONE', #3, .T. ) ;
#108 = DIRECTION ( 'NONE',  ( 0.000000000000000000, 0.000000000000000000, -1.000000000000000000 ) ) ;
#109 = DIRECTION ( 'NONE',  ( 0.000000000000000000, 0.000000000000000000, -1.000000000000000000 ) ) ;
#110 = CLOSED_SHELL ( 'NONE', ( #188, #164, #207, #161, #22, #112 ) ) ;
#111 =( LENGTH_UNIT ( ) NAMED_UNIT ( * ) SI_UNIT ( .MILLI., .METRE. ) );
#112 = ADVANCED_FACE ( 'NONE', ( #1 ), #314, .T. ) ;
#113 = EDGE_LOOP ( 'NONE', ( #166, #283, #201, #211 ) ) ;
#114 = DIRECTION ( 'NONE',  ( -1.000000000000000000, 0.000000000000000000, 0.000000000000000000 ) ) ;
#115 = VECTOR ( 'NONE', #249, 1000.000000000000000 ) ;
#116 = FILL_AREA_STYLE_COLOUR ( '', #206 ) ;
#117 = FILL_AREA_STYLE ('',( #37 ) ) ;
#118 = ORIENTED_EDGE ( 'NONE', *, *, #359, .T. ) ;
#119 = COLOUR_RGB ( '',0.7921568627450980005, 0.8196078431372548767, 0.9333333333333333481 ) ;
#120 = CARTESIAN_POINT ( 'NONE',  ( 0.000000000000000000, 0.000000000000000000, 0.000000000000000000 ) ) ;
#121 = VECTOR ( 'NONE', #33, 1000.000000000000000 ) ;
#122 =( GEOMETRIC_REPRESENTATION_CONTEXT ( 3 ) GLOBAL_UNCERTAINTY_ASSIGNED_CONTEXT ( ( #20 ) ) GLOBAL_UNIT_ASSIGNED_CONTEXT ( ( #111, #340, #337 ) ) REPRESENTATION_CONTEXT ( 'NONE', 'WORKASPACE' ) );
#123 = AXIS2_PLACEMENT_3D ( 'NONE', #243, #44, #49 ) ;
#124 = PLANE ( 'NONE',  #91 ) ;
#125 = CARTESIAN_POINT ( 'NONE',  ( 1.224646799147353256E-15, 40.00000000000000000, 10.00000000000000000 ) ) ;
#126 = EDGE_CURVE ( 'NONE', #135, #40, #145, .T. ) ;
#127 = SURFACE_SIDE_STYLE ('',( #360 ) ) ;
#128 = SURFACE_STYLE_FILL_AREA ( #11 ) ;
#129 = DIRECTION ( 'NONE',  ( 1.000000000000000000, 0.000000000000000000, -1.224646799147353207E-16 ) ) ;
#130 = CARTESIAN_POINT ( 'NONE',  ( -9.999999999999987566, 40.00000000000000000, 0.000000000000000000 ) ) ;
#131 = VECTOR ( 'NONE', #353, 1000.000000000000000 ) ;
#132 = DIRECTION ( 'NONE',  ( -0.000000000000000000, -1.000000000000000000, -0.000000000000000000 ) ) ;
#133 = SURFACE_STYLE_USAGE ( .BOTH. , #279 ) ;
#134 = DIRECTION ( 'NONE',  ( -1.000000000000000000, 0.000000000000000000, 0.000000000000000000 ) ) ;
#135 = VERTEX_POINT ( 'NONE', #125 ) ;
#136 = PLANE ( 'NONE',  #242 ) ;
#137 = COLOUR_RGB ( '',1.000000000000000000, 0.000000000000000000, 0.000000000000000000 ) ;
#138 =( NAMED_UNIT ( * ) SI_UNIT ( $, .STERADIAN. ) SOLID_ANGLE_UNIT ( ) );
#139 = ORIENTED_EDGE ( 'NONE', *, *, #258, .F. ) ;
#140 = ADVANCED_FACE ( 'NONE', ( #351 ), #148, .F. ) ;
#141 =( NAMED_UNIT ( * ) PLANE_ANGLE_UNIT ( ) SI_UNIT ( $, .RADIAN. ) );
#142 = VERTEX_POINT ( 'NONE', #187 ) ;
#143 = CYLINDRICAL_SURFACE ( 'NONE', #165, 9.999999999999998224 ) ;
#144 = EDGE_LOOP ( 'NONE', ( #224, #307 ) ) ;
#145 = LINE ( 'NONE', #95, #131 ) ;
#146 = DIRECTION ( 'NONE',  ( -1.000000000000000000, 0.000000000000000000, 0.000000000000000000 ) ) ;
#147 = EDGE_CURVE ( 'NONE', #209, #60, #293, .T. ) ;
#148 = PLANE ( 'NONE',  #299 ) ;
#149 = AXIS2_PLACEMENT_3D ( 'NONE', #225, #59, #62 ) ;
#150 = DIRECTION ( 'NONE',  ( -0.000000000000000000, -1.000000000000000000, -0.000000000000000000 ) ) ;
#151 = CARTESIAN_POINT ( 'NONE',  ( 6.071532165918824830E-15, 40.00000000000000000, 0.000000000000000000 ) ) ;
#152 = AXIS2_PLACEMENT_3D ( 'NONE', #369, #363, #257 ) ;
#153 =( GEOMETRIC_REPRESENTATION_CONTEXT ( 3 ) GLOBAL_UNCERTAINTY_ASSIGNED_CONTEXT ( ( #298 ) ) GLOBAL_UNIT_ASSIGNED_CONTEXT ( ( #354, #73, #159 ) ) REPRESENTATION_CONTEXT ( 'NONE', 'WORKASPACE' ) );
#154 = PRESENTATION_STYLE_ASSIGNMENT (( #47 ) ) ;
#155 = UNCERTAINTY_MEASURE_WITH_UNIT (LENGTH_MEASURE( 1.000000000000000082E-05 ), #6, 'distance_accuracy_value', 'NONE');
#156 = FILL_AREA_STYLE_COLOUR ( '', #252 ) ;
#157 = LINE ( 'NONE', #18, #115 ) ;
#158 = PRESENTATION_STYLE_ASSIGNMENT (( #329 ) ) ;
#159 =( NAMED_UNIT ( * ) SI_UNIT ( $, .STERADIAN. ) SOLID_ANGLE_UNIT ( ) );
#160 = MECHANICAL_DESIGN_GEOMETRIC_PRESENTATION_REPRESENTATION (  '', ( #16 ), #122 ) ;
#161 = ADVANCED_FACE ( 'NONE', ( #250 ), #352, .T. ) ;
#162 = CYLINDRICAL_SURFACE ( 'NONE', #34, 10.00000000000000178 ) ;
#163 =( LENGTH_UNIT ( ) NAMED_UNIT ( * ) SI_UNIT ( .MILLI., .METRE. ) );
#164 = ADVANCED_FACE ( 'NONE', ( #300 ), #261, .T. ) ;
#165 = AXIS2_PLACEMENT_3D ( 'NONE', #343, #287, #146 ) ;
#166 = ORIENTED_EDGE ( 'NONE', *, *, #126, .F. ) ;
#167 = PRODUCT_DEFINITION_SHAPE ( 'NONE', 'NONE',  #101 ) ;
#168 = DIRECTION ( 'NONE',  ( 0.000000000000000000, 1.000000000000000000, 0.000000000000000000 ) ) ;
#169 = SHAPE_DEFINITION_REPRESENTATION ( #167, #240 ) ;
#170 = FILL_AREA_STYLE ('',( #116 ) ) ;
#171 = ORIENTED_EDGE ( 'NONE', *, *, #177, .F. ) ;
#172 = APPLICATION_PROTOCOL_DEFINITION ( 'draft international standard', 'automotive_design', 1998, #245 ) ;
#173 =( NAMED_UNIT ( * ) SI_UNIT ( $, .STERADIAN. ) SOLID_ANGLE_UNIT ( ) );
#174 = COLOUR_RGB ( '',1.000000000000000000, 0.000000000000000000, 0.000000000000000000 ) ;
#175 = DIRECTION ( 'NONE',  ( 0.000000000000000000, 0.000000000000000000, -1.000000000000000000 ) ) ;
#176 = CIRCLE ( 'NONE', #123, 10.00000000000000355 ) ;
#177 = EDGE_CURVE ( 'NONE', #7, #202, #222, .T. ) ;
#178 = PRESENTATION_LAYER_ASSIGNMENT (  '', '', ( #23 ) ) ;
#179 = DIRECTION ( 'NONE',  ( -1.236440607496819135E-16, 1.000000000000000000, 0.000000000000000000 ) ) ;
#180 = DIRECTION ( 'NONE',  ( 1.000000000000000000, 1.236440607496819135E-16, 0.000000000000000000 ) ) ;
#181 = DIRECTION ( 'NONE',  ( 0.000000000000000000, 0.000000000000000000, -1.000000000000000000 ) ) ;
#182 = COLOUR_RGB ( '',1.000000000000000000, 0.000000000000000000, 0.000000000000000000 ) ;
#183 = STYLED_ITEM ( 'NONE', ( #56 ), #207 ) ;
#184 = DIRECTION ( 'NONE',  ( 0.000000000000000000, 0.000000000000000000, -1.000000000000000000 ) ) ;
#185 =( NAMED_UNIT ( * ) PLANE_ANGLE_UNIT ( ) SI_UNIT ( $, .RADIAN. ) );
#186 = DIRECTION ( 'NONE',  ( -0.000000000000000000, -1.000000000000000000, -0.000000000000000000 ) ) ;
#187 = CARTESIAN_POINT ( 'NONE',  ( 10.00000000000000178, 40.00000000000000000, 1.224646799147353651E-15 ) ) ;
#188 = ADVANCED_FACE ( 'NONE', ( #319 ), #94, .T. ) ;
#189 =( NAMED_UNIT ( * ) PLANE_ANGLE_UNIT ( ) SI_UNIT ( $, .RADIAN. ) );
#190 = FACE_OUTER_BOUND ( 'NONE', #113, .T. ) ;
#191 = AXIS2_PLACEMENT_3D ( 'NONE', #55, #93, #290 ) ;
#192 = CIRCLE ( 'NONE', #191, 1.000000000000000888 ) ;
#193 = AXIS2_PLACEMENT_3D ( 'NONE', #310, #45, #109 ) ;
#194 = PRODUCT ( '59760', '59760', '', ( #88 ) ) ;
#195 = EDGE_CURVE ( 'NONE', #142, #7, #50, .T. ) ;
#196 = LINE ( 'NONE', #203, #121 ) ;
#197 = VERTEX_POINT ( 'NONE', #335 ) ;
#198 = STYLED_ITEM ( 'NONE', ( #67 ), #161 ) ;
#199 = AXIS2_PLACEMENT_3D ( 'NONE', #244, #305, #134 ) ;
#200 =( NAMED_UNIT ( * ) PLANE_ANGLE_UNIT ( ) SI_UNIT ( $, .RADIAN. ) );
#201 = ORIENTED_EDGE ( 'NONE', *, *, #103, .T. ) ;
#202 = VERTEX_POINT ( 'NONE', #289 ) ;
#203 = CARTESIAN_POINT ( 'NONE',  ( 0.000000000000000000, 0.000000000000000000, -10.00000000000000178 ) ) ;
#204 = DIRECTION ( 'NONE',  ( -1.236440607496819135E-16, 1.000000000000000000, -0.000000000000000000 ) ) ;
#205 = SURFACE_STYLE_FILL_AREA ( #230 ) ;
#206 = COLOUR_RGB ( '',1.000000000000000000, 0.000000000000000000, 0.000000000000000000 ) ;
#207 = ADVANCED_FACE ( 'NONE', ( #228 ), #136, .T. ) ;
#208 =( NAMED_UNIT ( * ) PLANE_ANGLE_UNIT ( ) SI_UNIT ( $, .RADIAN. ) );
#209 = VERTEX_POINT ( 'NONE', #210 ) ;
#210 = CARTESIAN_POINT ( 'NONE',  ( 0.000000000000000000, 0.000000000000000000, -9.000000000000001776 ) ) ;
#211 = ORIENTED_EDGE ( 'NONE', *, *, #322, .F. ) ;
#212 = DIRECTION ( 'NONE',  ( 0.000000000000000000, -1.000000000000000000, -0.000000000000000000 ) ) ;
#213 = MANIFOLD_SOLID_BREP ( 'Revolve - Cutting Edge', #110 ) ;
#214 = UNCERTAINTY_MEASURE_WITH_UNIT (LENGTH_MEASURE( 1.000000000000000082E-05 ), #163, 'distance_accuracy_value', 'NONE');
#215 = CARTESIAN_POINT ( 'NONE',  ( 0.000000000000000000, 1.000000000000000000, 0.000000000000000000 ) ) ;
#216 = SURFACE_STYLE_USAGE ( .BOTH. , #246 ) ;
#217 = AXIS2_PLACEMENT_3D ( 'NONE', #215, #326, #181 ) ;
#218 = MANIFOLD_SOLID_BREP ( 'Revolve - Tool Body (Straight Shanked)', #315 ) ;
#219 = COLOUR_RGB ( '',0.7921568627450980005, 0.8196078431372548767, 0.9333333333333333481 ) ;
#220 = DIRECTION ( 'NONE',  ( -1.000000000000000000, -1.236440607496819135E-16, 0.000000000000000000 ) ) ;
#221 = DIRECTION ( 'NONE',  ( -1.000000000000000000, 0.000000000000000000, 0.000000000000000000 ) ) ;
#222 = LINE ( 'NONE', #54, #357 ) ;
#223 =( GEOMETRIC_REPRESENTATION_CONTEXT ( 3 ) GLOBAL_UNCERTAINTY_ASSIGNED_CONTEXT ( ( #155 ) ) GLOBAL_UNIT_ASSIGNED_CONTEXT ( ( #6, #208, #291 ) ) REPRESENTATION_CONTEXT ( 'NONE', 'WORKASPACE' ) );
#224 = ORIENTED_EDGE ( 'NONE', *, *, #349, .F. ) ;
#225 = CARTESIAN_POINT ( 'NONE',  ( 0.000000000000000000, 0.000000000000000000, 0.000000000000000000 ) ) ;
#226 = FILL_AREA_STYLE_COLOUR ( '', #137 ) ;
#227 =( NAMED_UNIT ( * ) PLANE_ANGLE_UNIT ( ) SI_UNIT ( $, .RADIAN. ) );
#228 = FACE_OUTER_BOUND ( 'NONE', #292, .T. ) ;
#229 = ORIENTED_EDGE ( 'NONE', *, *, #177, .T. ) ;
#230 = FILL_AREA_STYLE ('',( #370 ) ) ;
#231 = EDGE_LOOP ( 'NONE', ( #348, #235 ) ) ;
#232 = EDGE_LOOP ( 'NONE', ( #52, #304, #229, #139 ) ) ;
#233 = MECHANICAL_DESIGN_GEOMETRIC_PRESENTATION_REPRESENTATION (  '', ( #367 ), #42 ) ;
#234 = PRESENTATION_STYLE_ASSIGNMENT (( #216 ) ) ;
#235 = ORIENTED_EDGE ( 'NONE', *, *, #92, .F. ) ;
#236 = CARTESIAN_POINT ( 'NONE',  ( 1.163414459189985682E-15, 0.000000000000000000, 9.000000000000001776 ) ) ;
#237 = PRESENTATION_STYLE_ASSIGNMENT (( #98 ) ) ;
#238 = EDGE_CURVE ( 'NONE', #60, #209, #308, .T. ) ;
#239 = EDGE_LOOP ( 'NONE', ( #31, #265, #358, #104 ) ) ;
#240 = ADVANCED_BREP_SHAPE_REPRESENTATION ( '59760', ( #213, #218, #149 ), #153 ) ;
#241 = FILL_AREA_STYLE_COLOUR ( '', #219 ) ;
#242 = AXIS2_PLACEMENT_3D ( 'NONE', #63, #212, #263 ) ;
#243 = CARTESIAN_POINT ( 'NONE',  ( -1.347111479062089982E-15, 100.0000000000000000, 0.000000000000000000 ) ) ;
#244 = CARTESIAN_POINT ( 'NONE',  ( -1.347111479062090180E-15, 100.0000000000000000, 0.000000000000000000 ) ) ;
#245 = APPLICATION_CONTEXT ( 'automotive_design' ) ;
#246 = SURFACE_SIDE_STYLE ('',( #128 ) ) ;
#247 = EDGE_CURVE ( 'NONE', #202, #64, #43, .T. ) ;
#248 = DIRECTION ( 'NONE',  ( 0.000000000000000000, 0.000000000000000000, -1.000000000000000000 ) ) ;
#249 = DIRECTION ( 'NONE',  ( -1.236440607496819135E-16, 1.000000000000000000, -0.000000000000000000 ) ) ;
#250 = FACE_OUTER_BOUND ( 'NONE', #239, .T. ) ;
#251 = DIRECTION ( 'NONE',  ( -1.236440607496819135E-16, 1.000000000000000000, -0.000000000000000000 ) ) ;
#252 = COLOUR_RGB ( '',1.000000000000000000, 0.000000000000000000, 0.000000000000000000 ) ;
#253 = ADVANCED_FACE ( 'NONE', ( #107 ), #124, .F. ) ;
#254 = SURFACE_STYLE_USAGE ( .BOTH. , #312 ) ;
#255 = SURFACE_STYLE_FILL_AREA ( #170 ) ;
#256 = VERTEX_POINT ( 'NONE', #297 ) ;
#257 = DIRECTION ( 'NONE',  ( 0.000000000000000000, 0.000000000000000000, -1.000000000000000000 ) ) ;
#258 = EDGE_CURVE ( 'NONE', #64, #202, #176, .T. ) ;
#259 = CARTESIAN_POINT ( 'NONE',  ( 0.000000000000000000, 40.00000000000000000, 0.000000000000000000 ) ) ;
#260 = APPLICATION_CONTEXT ( 'automotive_design' ) ;
#261 = TOROIDAL_SURFACE ( 'NONE', #152, 9.000000000000001776, 1.000000000000000444 ) ;
#262 = ORIENTED_EDGE ( 'NONE', *, *, #126, .T. ) ;
#263 = DIRECTION ( 'NONE',  ( 0.000000000000000000, 0.000000000000000000, -1.000000000000000000 ) ) ;
#264 = ADVANCED_FACE ( 'NONE', ( #13 ), #10, .T. ) ;
#265 = ORIENTED_EDGE ( 'NONE', *, *, #322, .T. ) ;
#266 =( GEOMETRIC_REPRESENTATION_CONTEXT ( 3 ) GLOBAL_UNCERTAINTY_ASSIGNED_CONTEXT ( ( #214 ) ) GLOBAL_UNIT_ASSIGNED_CONTEXT ( ( #163, #25, #29 ) ) REPRESENTATION_CONTEXT ( 'NONE', 'WORKASPACE' ) );
#267 = AXIS2_PLACEMENT_3D ( 'NONE', #303, #278, #356 ) ;
#268 = ORIENTED_EDGE ( 'NONE', *, *, #301, .F. ) ;
#269 = PRODUCT_RELATED_PRODUCT_CATEGORY ( 'part', '', ( #194 ) ) ;
#270 = DIRECTION ( 'NONE',  ( -1.000000000000000000, 0.000000000000000000, 0.000000000000000000 ) ) ;
#271 = COLOUR_RGB ( '',1.000000000000000000, 0.000000000000000000, 0.000000000000000000 ) ;
#272 = AXIS2_PLACEMENT_3D ( 'NONE', #120, #150, #108 ) ;
#273 = DIRECTION ( 'NONE',  ( -1.236440607496819135E-16, 1.000000000000000000, -0.000000000000000000 ) ) ;
#274 =( NAMED_UNIT ( * ) SI_UNIT ( $, .STERADIAN. ) SOLID_ANGLE_UNIT ( ) );
#275 = FILL_AREA_STYLE_COLOUR ( '', #182 ) ;
#276 = DIRECTION ( 'NONE',  ( -1.236440607496819135E-16, 1.000000000000000000, -0.000000000000000000 ) ) ;
#277 = MECHANICAL_DESIGN_GEOMETRIC_PRESENTATION_REPRESENTATION (  '', ( #69 ), #80 ) ;
#278 = DIRECTION ( 'NONE',  ( -0.000000000000000000, -1.000000000000000000, -0.000000000000000000 ) ) ;
#279 = SURFACE_SIDE_STYLE ('',( #328 ) ) ;
#280 =( LENGTH_UNIT ( ) NAMED_UNIT ( * ) SI_UNIT ( .MILLI., .METRE. ) );
#281 = SURFACE_STYLE_FILL_AREA ( #83 ) ;
#282 = ORIENTED_EDGE ( 'NONE', *, *, #72, .F. ) ;
#283 = ORIENTED_EDGE ( 'NONE', *, *, #92, .T. ) ;
#284 = CIRCLE ( 'NONE', #324, 10.00000000000000000 ) ;
#285 = DIRECTION ( 'NONE',  ( 0.000000000000000000, -0.000000000000000000, 1.000000000000000000 ) ) ;
#286 = SURFACE_SIDE_STYLE ('',( #255 ) ) ;
#287 = DIRECTION ( 'NONE',  ( -1.236440607496819135E-16, 1.000000000000000000, -0.000000000000000000 ) ) ;
#288 = PRODUCT_DEFINITION_FORMATION_WITH_SPECIFIED_SOURCE ( 'ANY', '', #194, .NOT_KNOWN. ) ;
#289 = CARTESIAN_POINT ( 'NONE',  ( -10.00000000000000533, 100.0000000000000000, 0.000000000000000000 ) ) ;
#290 = DIRECTION ( 'NONE',  ( 0.000000000000000000, 0.000000000000000000, 1.000000000000000000 ) ) ;
#291 =( NAMED_UNIT ( * ) SI_UNIT ( $, .STERADIAN. ) SOLID_ANGLE_UNIT ( ) );
#292 = EDGE_LOOP ( 'NONE', ( #313, #99 ) ) ;
#293 = CIRCLE ( 'NONE', #193, 9.000000000000001776 ) ;
#294 = SURFACE_STYLE_FILL_AREA ( #117 ) ;
#295 = ORIENTED_EDGE ( 'NONE', *, *, #103, .F. ) ;
#296 = DIRECTION ( 'NONE',  ( -1.224646799147353454E-16, 0.000000000000000000, -1.000000000000000000 ) ) ;
#297 = CARTESIAN_POINT ( 'NONE',  ( 0.000000000000000000, 40.00000000000000000, -10.00000000000000000 ) ) ;
#298 = UNCERTAINTY_MEASURE_WITH_UNIT (LENGTH_MEASURE( 1.000000000000000082E-05 ), #354, 'distance_accuracy_value', 'NONE');
#299 = AXIS2_PLACEMENT_3D ( 'NONE', #325, #179, #220 ) ;
#300 = FACE_OUTER_BOUND ( 'NONE', #311, .T. ) ;
#301 = EDGE_CURVE ( 'NONE', #197, #40, #9, .T. ) ;
#302 =( NAMED_UNIT ( * ) SI_UNIT ( $, .STERADIAN. ) SOLID_ANGLE_UNIT ( ) );
#303 = CARTESIAN_POINT ( 'NONE',  ( 0.000000000000000000, 1.000000000000000000, 0.000000000000000000 ) ) ;
#304 = ORIENTED_EDGE ( 'NONE', *, *, #195, .T. ) ;
#305 = DIRECTION ( 'NONE',  ( -1.236440607496819135E-16, 1.000000000000000000, -0.000000000000000000 ) ) ;
#306 =( GEOMETRIC_REPRESENTATION_CONTEXT ( 3 ) GLOBAL_UNCERTAINTY_ASSIGNED_CONTEXT ( ( #355 ) ) GLOBAL_UNIT_ASSIGNED_CONTEXT ( ( #81, #227, #336 ) ) REPRESENTATION_CONTEXT ( 'NONE', 'WORKASPACE' ) );
#307 = ORIENTED_EDGE ( 'NONE', *, *, #195, .F. ) ;
#308 = CIRCLE ( 'NONE', #272, 9.000000000000001776 ) ;
#309 = UNCERTAINTY_MEASURE_WITH_UNIT (LENGTH_MEASURE( 1.000000000000000082E-05 ), #333, 'distance_accuracy_value', 'NONE');
#310 = CARTESIAN_POINT ( 'NONE',  ( 0.000000000000000000, 0.000000000000000000, 0.000000000000000000 ) ) ;
#311 = EDGE_LOOP ( 'NONE', ( #350, #118, #318, #282 ) ) ;
#312 = SURFACE_SIDE_STYLE ('',( #281 ) ) ;
#313 = ORIENTED_EDGE ( 'NONE', *, *, #147, .T. ) ;
#314 = PLANE ( 'NONE',  #78 ) ;
#315 = CLOSED_SHELL ( 'NONE', ( #264, #140, #96, #253 ) ) ;
#316 = CIRCLE ( 'NONE', #5, 1.000000000000000888 ) ;
#317 = PRESENTATION_STYLE_ASSIGNMENT (( #87 ) ) ;
#318 = ORIENTED_EDGE ( 'NONE', *, *, #147, .F. ) ;
#319 = FACE_OUTER_BOUND ( 'NONE', #338, .T. ) ;
#320 = DIRECTION ( 'NONE',  ( 0.000000000000000000, 0.000000000000000000, -1.000000000000000000 ) ) ;
#321 = MECHANICAL_DESIGN_GEOMETRIC_PRESENTATION_REPRESENTATION (  '', ( #198 ), #4 ) ;
#322 = EDGE_CURVE ( 'NONE', #40, #197, #368, .T. ) ;
#323 = PRESENTATION_LAYER_ASSIGNMENT (  '', '', ( #198 ) ) ;
#324 = AXIS2_PLACEMENT_3D ( 'NONE', #70, #330, #184 ) ;
#325 = CARTESIAN_POINT ( 'NONE',  ( 6.071532165918824830E-15, 40.00000000000000000, 0.000000000000000000 ) ) ;
#326 = DIRECTION ( 'NONE',  ( -0.000000000000000000, -1.000000000000000000, -0.000000000000000000 ) ) ;
#327 = DIRECTION ( 'NONE',  ( 1.236440607496819135E-16, -1.000000000000000000, 0.000000000000000000 ) ) ;
#328 = SURFACE_STYLE_FILL_AREA ( #48 ) ;
#329 = SURFACE_STYLE_USAGE ( .BOTH. , #21 ) ;
#330 = DIRECTION ( 'NONE',  ( -0.000000000000000000, -1.000000000000000000, -0.000000000000000000 ) ) ;
#331 = EDGE_LOOP ( 'NONE', ( #27, #75, #86, #171 ) ) ;
#332 = EDGE_CURVE ( 'NONE', #256, #135, #284, .T. ) ;
#333 =( LENGTH_UNIT ( ) NAMED_UNIT ( * ) SI_UNIT ( .MILLI., .METRE. ) );
#334 = CIRCLE ( 'NONE', #17, 9.999999999999994671 ) ;
#335 = CARTESIAN_POINT ( 'NONE',  ( 0.000000000000000000, 1.000000000000000000, -10.00000000000000178 ) ) ;
#336 =( NAMED_UNIT ( * ) SI_UNIT ( $, .STERADIAN. ) SOLID_ANGLE_UNIT ( ) );
#337 =( NAMED_UNIT ( * ) SI_UNIT ( $, .STERADIAN. ) SOLID_ANGLE_UNIT ( ) );
#338 = EDGE_LOOP ( 'NONE', ( #341, #262, #268, #295 ) ) ;
#339 = EDGE_CURVE ( 'NONE', #142, #64, #157, .T. ) ;
#340 =( NAMED_UNIT ( * ) PLANE_ANGLE_UNIT ( ) SI_UNIT ( $, .RADIAN. ) );
#341 = ORIENTED_EDGE ( 'NONE', *, *, #332, .T. ) ;
#342 = CARTESIAN_POINT ( 'NONE',  ( 6.071532165918824830E-15, 40.00000000000000000, 0.000000000000000000 ) ) ;
#343 = CARTESIAN_POINT ( 'NONE',  ( -1.347111479062090180E-15, 100.0000000000000000, 0.000000000000000000 ) ) ;
#344 = CARTESIAN_POINT ( 'NONE',  ( 0.000000000000000000, 40.00000000000000000, 0.000000000000000000 ) ) ;
#345 = PRODUCT_DEFINITION_CONTEXT ( 'detailed design', #245, 'design' ) ;
#346 = AXIS2_PLACEMENT_3D ( 'NONE', #365, #361, #175 ) ;
#347 = SURFACE_SIDE_STYLE ('',( #294 ) ) ;
#348 = ORIENTED_EDGE ( 'NONE', *, *, #332, .F. ) ;
#349 = EDGE_CURVE ( 'NONE', #7, #142, #334, .T. ) ;
#350 = ORIENTED_EDGE ( 'NONE', *, *, #301, .T. ) ;
#351 = FACE_OUTER_BOUND ( 'NONE', #144, .T. ) ;
#352 = TOROIDAL_SURFACE ( 'NONE', #217, 9.000000000000001776, 1.000000000000000444 ) ;
#353 = DIRECTION ( 'NONE',  ( -0.000000000000000000, -1.000000000000000000, -0.000000000000000000 ) ) ;
#354 =( LENGTH_UNIT ( ) NAMED_UNIT ( * ) SI_UNIT ( .MILLI., .METRE. ) );
#355 = UNCERTAINTY_MEASURE_WITH_UNIT (LENGTH_MEASURE( 1.000000000000000082E-05 ), #81, 'distance_accuracy_value', 'NONE');
#356 = DIRECTION ( 'NONE',  ( 0.000000000000000000, 0.000000000000000000, -1.000000000000000000 ) ) ;
#357 = VECTOR ( 'NONE', #251, 1000.000000000000000 ) ;
#358 = ORIENTED_EDGE ( 'NONE', *, *, #72, .T. ) ;
#359 = EDGE_CURVE ( 'NONE', #40, #60, #316, .T. ) ;
#360 = SURFACE_STYLE_FILL_AREA ( #41 ) ;
#361 = DIRECTION ( 'NONE',  ( -0.000000000000000000, -1.000000000000000000, -0.000000000000000000 ) ) ;
#362 = CARTESIAN_POINT ( 'NONE',  ( 1.224646799147353256E-15, 1.000000000000000000, 10.00000000000000178 ) ) ;
#363 = DIRECTION ( 'NONE',  ( -0.000000000000000000, -1.000000000000000000, -0.000000000000000000 ) ) ;
#364 = ORIENTED_EDGE ( 'NONE', *, *, #258, .T. ) ;
#365 = CARTESIAN_POINT ( 'NONE',  ( 0.000000000000000000, 0.000000000000000000, 0.000000000000000000 ) ) ;
#366 = SURFACE_SIDE_STYLE ('',( #205 ) ) ;
#367 = STYLED_ITEM ( 'NONE', ( #85 ), #188 ) ;
#368 = CIRCLE ( 'NONE', #106, 10.00000000000000178 ) ;
#369 = CARTESIAN_POINT ( 'NONE',  ( 0.000000000000000000, 1.000000000000000000, 0.000000000000000000 ) ) ;
#370 = FILL_AREA_STYLE_COLOUR ( '', #174 ) ;
ENDSEC;
END-ISO-10303-21;
