ISO-10303-21;
HEADER;
FILE_DESCRIPTION (( 'STEP AP214' ),
    '1' );
FILE_NAME ('81710.STEP',
    '2023-06-23T02:50:11',
    ( '' ),
    ( '' ),
    'SwSTEP 2.0',
    'SolidWorks 2023',
    '' );
FILE_SCHEMA (( 'AUTOMOTIVE_DESIGN' ));
ENDSEC;

DATA;
#1 = LENGTH_MEASURE_WITH_UNIT ( LENGTH_MEASURE( 0.02539999999999999897 ), #206 );
#2 = DIRECTION ( 'NONE',  ( 0.000000000000000000, 0.000000000000000000, -1.000000000000000000 ) ) ;
#3 =( LENGTH_UNIT ( ) NAMED_UNIT ( * ) SI_UNIT ( $, .METRE. ) );
#4 = FACE_OUTER_BOUND ( 'NONE', #81, .T. ) ;
#5 =( CONVERSION_BASED_UNIT ( 'INCH', #27 ) LENGTH_UNIT ( ) NAMED_UNIT ( #297 ) );
#6 = EDGE_CURVE ( 'NONE', #15, #267, #125, .T. ) ;
#7 = VECTOR ( 'NONE', #141, 39.37007874015748143 ) ;
#8 = UNCERTAINTY_MEASURE_WITH_UNIT (LENGTH_MEASURE( 1.000000000000000082E-05 ), #231, 'distance_accuracy_value', 'NONE');
#9 = EDGE_LOOP ( 'NONE', ( #245, #185, #58, #106 ) ) ;
#10 = ADVANCED_BREP_SHAPE_REPRESENTATION ( '81710', ( #193, #309, #295 ), #248 ) ;
#11 = EDGE_CURVE ( 'NONE', #15, #130, #274, .T. ) ;
#12 = STYLED_ITEM ( 'NONE', ( #19 ), #260 ) ;
#13 = DIRECTION ( 'NONE',  ( 0.000000000000000000, 0.000000000000000000, -1.000000000000000000 ) ) ;
#14 = DIRECTION ( 'NONE',  ( 1.000000000000000000, 4.082155997157848133E-17, 0.000000000000000000 ) ) ;
#15 = VERTEX_POINT ( 'NONE', #301 ) ;
#16 = DIRECTION ( 'NONE',  ( -4.082155997157848133E-17, 1.000000000000000000, -0.000000000000000000 ) ) ;
#17 = DIRECTION ( 'NONE',  ( 0.000000000000000000, 0.000000000000000000, -1.000000000000000000 ) ) ;
#18 = DIRECTION ( 'NONE',  ( -1.000000000000000000, -4.082155997157848133E-17, 0.000000000000000000 ) ) ;
#19 = PRESENTATION_STYLE_ASSIGNMENT (( #46 ) ) ;
#20 = LENGTH_MEASURE_WITH_UNIT ( LENGTH_MEASURE( 0.02539999999999999897 ), #257 );
#21 = CYLINDRICAL_SURFACE ( 'NONE', #121, 0.1250000000000000000 ) ;
#22 = PRESENTATION_LAYER_ASSIGNMENT (  '', '', ( #256 ) ) ;
#23 =( NAMED_UNIT ( * ) PLANE_ANGLE_UNIT ( ) SI_UNIT ( $, .RADIAN. ) );
#24 = PLANE ( 'NONE',  #243 ) ;
#25 = CARTESIAN_POINT ( 'NONE',  ( -0.1250000000000001110, 3.000000000000000444, 0.000000000000000000 ) ) ;
#26 = ORIENTED_EDGE ( 'NONE', *, *, #52, .T. ) ;
#27 = LENGTH_MEASURE_WITH_UNIT ( LENGTH_MEASURE( 0.02539999999999999897 ), #3 );
#28 = CIRCLE ( 'NONE', #136, 0.1250000000000000833 ) ;
#29 = STYLED_ITEM ( 'NONE', ( #178 ), #193 ) ;
#30 = ORIENTED_EDGE ( 'NONE', *, *, #291, .F. ) ;
#31 = COLOUR_RGB ( '',1.000000000000000000, 0.000000000000000000, 0.000000000000000000 ) ;
#32 = FACE_OUTER_BOUND ( 'NONE', #162, .T. ) ;
#33 = ORIENTED_EDGE ( 'NONE', *, *, #241, .F. ) ;
#34 =( NAMED_UNIT ( * ) PLANE_ANGLE_UNIT ( ) SI_UNIT ( $, .RADIAN. ) );
#35 = UNCERTAINTY_MEASURE_WITH_UNIT (LENGTH_MEASURE( 1.000000000000000082E-05 ), #5, 'distance_accuracy_value', 'NONE');
#36 = CARTESIAN_POINT ( 'NONE',  ( 1.530808498934191509E-17, 0.000000000000000000, 0.1250000000000000000 ) ) ;
#37 = PRODUCT_DEFINITION_SHAPE ( 'NONE', 'NONE',  #183 ) ;
#38 = CIRCLE ( 'NONE', #239, 0.1250000000000000278 ) ;
#39 = DIRECTION ( 'NONE',  ( 0.000000000000000000, 0.000000000000000000, -1.000000000000000000 ) ) ;
#40 = ORIENTED_EDGE ( 'NONE', *, *, #101, .T. ) ;
#41 = DIMENSIONAL_EXPONENTS ( 1.000000000000000000, 0.000000000000000000, 0.000000000000000000, 0.000000000000000000, 0.000000000000000000, 0.000000000000000000, 0.000000000000000000 ) ;
#42 =( NAMED_UNIT ( * ) PLANE_ANGLE_UNIT ( ) SI_UNIT ( $, .RADIAN. ) );
#43 = CARTESIAN_POINT ( 'NONE',  ( 0.000000000000000000, 0.000000000000000000, 0.000000000000000000 ) ) ;
#44 = CARTESIAN_POINT ( 'NONE',  ( 7.582401355855259480E-33, 1.500000000000000222, 0.000000000000000000 ) ) ;
#45 = EDGE_LOOP ( 'NONE', ( #237, #143 ) ) ;
#46 = SURFACE_STYLE_USAGE ( .BOTH. , #71 ) ;
#47 = SURFACE_SIDE_STYLE ('',( #90 ) ) ;
#48 = CARTESIAN_POINT ( 'NONE',  ( 0.000000000000000000, 0.000000000000000000, 0.000000000000000000 ) ) ;
#49 = AXIS2_PLACEMENT_3D ( 'NONE', #48, #289, #236 ) ;
#50 =( NAMED_UNIT ( * ) PLANE_ANGLE_UNIT ( ) SI_UNIT ( $, .RADIAN. ) );
#51 = PRESENTATION_LAYER_ASSIGNMENT (  '', '', ( #149 ) ) ;
#52 = EDGE_CURVE ( 'NONE', #161, #215, #199, .T. ) ;
#53 = LINE ( 'NONE', #25, #109 ) ;
#54 = FILL_AREA_STYLE ('',( #98 ) ) ;
#55 = FILL_AREA_STYLE ('',( #262 ) ) ;
#56 = CLOSED_SHELL ( 'NONE', ( #62, #167, #78, #122 ) ) ;
#57 = AXIS2_PLACEMENT_3D ( 'NONE', #77, #230, #116 ) ;
#58 = ORIENTED_EDGE ( 'NONE', *, *, #275, .T. ) ;
#59 = DIRECTION ( 'NONE',  ( 0.000000000000000000, 0.000000000000000000, 1.000000000000000000 ) ) ;
#60 = DIRECTION ( 'NONE',  ( -1.000000000000000000, 0.000000000000000000, 0.000000000000000000 ) ) ;
#61 = COLOUR_RGB ( '',0.7921568627450980005, 0.8196078431372548767, 0.9333333333333333481 ) ;
#62 = ADVANCED_FACE ( 'NONE', ( #196 ), #64, .T. ) ;
#63 = ORIENTED_EDGE ( 'NONE', *, *, #101, .F. ) ;
#64 = CYLINDRICAL_SURFACE ( 'NONE', #273, 0.1250000000000000555 ) ;
#65 = APPLICATION_PROTOCOL_DEFINITION ( 'draft international standard', 'automotive_design', 1998, #296 ) ;
#66 = UNCERTAINTY_MEASURE_WITH_UNIT (LENGTH_MEASURE( 1.000000000000000082E-05 ), #138, 'distance_accuracy_value', 'NONE');
#67 = STYLED_ITEM ( 'NONE', ( #204 ), #189 ) ;
#68 = DIMENSIONAL_EXPONENTS ( 1.000000000000000000, 0.000000000000000000, 0.000000000000000000, 0.000000000000000000, 0.000000000000000000, 0.000000000000000000, 0.000000000000000000 ) ;
#69 = PRESENTATION_STYLE_ASSIGNMENT (( #219 ) ) ;
#70 = SURFACE_STYLE_FILL_AREA ( #179 ) ;
#71 = SURFACE_SIDE_STYLE ('',( #258 ) ) ;
#72 = CIRCLE ( 'NONE', #201, 0.1250000000000000000 ) ;
#73 = SURFACE_SIDE_STYLE ('',( #70 ) ) ;
#74 = DIRECTION ( 'NONE',  ( 0.000000000000000000, -0.000000000000000000, 1.000000000000000000 ) ) ;
#75 = FACE_OUTER_BOUND ( 'NONE', #45, .T. ) ;
#76 = FACE_OUTER_BOUND ( 'NONE', #229, .T. ) ;
#77 = CARTESIAN_POINT ( 'NONE',  ( 7.582401355855259480E-33, 1.500000000000000222, 0.000000000000000000 ) ) ;
#78 = ADVANCED_FACE ( 'NONE', ( #268 ), #104, .T. ) ;
#79 =( NAMED_UNIT ( * ) SI_UNIT ( $, .STERADIAN. ) SOLID_ANGLE_UNIT ( ) );
#80 = LINE ( 'NONE', #266, #7 ) ;
#81 = EDGE_LOOP ( 'NONE', ( #63, #293 ) ) ;
#82 = FILL_AREA_STYLE_COLOUR ( '', #288 ) ;
#83 = VECTOR ( 'NONE', #85, 39.37007874015748143 ) ;
#84 = CIRCLE ( 'NONE', #49, 0.1250000000000000000 ) ;
#85 = DIRECTION ( 'NONE',  ( -0.000000000000000000, -1.000000000000000000, -0.000000000000000000 ) ) ;
#86 = CARTESIAN_POINT ( 'NONE',  ( 0.000000000000000000, 0.000000000000000000, 0.000000000000000000 ) ) ;
#87 = DIRECTION ( 'NONE',  ( 4.082155997157848133E-17, -1.000000000000000000, 0.000000000000000000 ) ) ;
#88 = MECHANICAL_DESIGN_GEOMETRIC_PRESENTATION_REPRESENTATION (  '', ( #67 ), #93 ) ;
#89 =( NAMED_UNIT ( * ) PLANE_ANGLE_UNIT ( ) SI_UNIT ( $, .RADIAN. ) );
#90 = SURFACE_STYLE_FILL_AREA ( #137 ) ;
#91 =( NAMED_UNIT ( * ) SI_UNIT ( $, .STERADIAN. ) SOLID_ANGLE_UNIT ( ) );
#92 = MECHANICAL_DESIGN_GEOMETRIC_PRESENTATION_REPRESENTATION (  '', ( #29 ), #166 ) ;
#93 =( GEOMETRIC_REPRESENTATION_CONTEXT ( 3 ) GLOBAL_UNCERTAINTY_ASSIGNED_CONTEXT ( ( #8 ) ) GLOBAL_UNIT_ASSIGNED_CONTEXT ( ( #231, #23, #157 ) ) REPRESENTATION_CONTEXT ( 'NONE', 'WORKASPACE' ) );
#94 = SURFACE_STYLE_USAGE ( .BOTH. , #73 ) ;
#95 = PRODUCT_RELATED_PRODUCT_CATEGORY ( 'part', '', ( #220 ) ) ;
#96 = DIMENSIONAL_EXPONENTS ( 1.000000000000000000, 0.000000000000000000, 0.000000000000000000, 0.000000000000000000, 0.000000000000000000, 0.000000000000000000, 0.000000000000000000 ) ;
#97 = MECHANICAL_DESIGN_GEOMETRIC_PRESENTATION_REPRESENTATION (  '', ( #256 ), #205 ) ;
#98 = FILL_AREA_STYLE_COLOUR ( '', #233 ) ;
#99 = AXIS2_PLACEMENT_3D ( 'NONE', #306, #16, #200 ) ;
#100 = LENGTH_MEASURE_WITH_UNIT ( LENGTH_MEASURE( 0.02539999999999999897 ), #115 );
#101 = EDGE_CURVE ( 'NONE', #267, #15, #299, .T. ) ;
#102 = MECHANICAL_DESIGN_GEOMETRIC_PRESENTATION_REPRESENTATION (  '', ( #264 ), #126 ) ;
#103 = CARTESIAN_POINT ( 'NONE',  ( -0.1250000000000001388, 3.000000000000000444, 0.000000000000000000 ) ) ;
#104 = CYLINDRICAL_SURFACE ( 'NONE', #99, 0.1250000000000000555 ) ;
#105 = APPLICATION_CONTEXT ( 'automotive_design' ) ;
#106 = ORIENTED_EDGE ( 'NONE', *, *, #111, .F. ) ;
#107 = DIRECTION ( 'NONE',  ( -4.082155997157848133E-17, 1.000000000000000000, -0.000000000000000000 ) ) ;
#108 =( GEOMETRIC_REPRESENTATION_CONTEXT ( 3 ) GLOBAL_UNCERTAINTY_ASSIGNED_CONTEXT ( ( #276 ) ) GLOBAL_UNIT_ASSIGNED_CONTEXT ( ( #280, #34, #226 ) ) REPRESENTATION_CONTEXT ( 'NONE', 'WORKASPACE' ) );
#109 = VECTOR ( 'NONE', #294, 39.37007874015748143 ) ;
#110 = AXIS2_PLACEMENT_3D ( 'NONE', #170, #135, #150 ) ;
#111 = EDGE_CURVE ( 'NONE', #215, #161, #28, .T. ) ;
#112 =( NAMED_UNIT ( * ) SI_UNIT ( $, .STERADIAN. ) SOLID_ANGLE_UNIT ( ) );
#113 = SURFACE_STYLE_USAGE ( .BOTH. , #47 ) ;
#114 =( CONVERSION_BASED_UNIT ( 'INCH', #20 ) LENGTH_UNIT ( ) NAMED_UNIT ( #197 ) );
#115 =( LENGTH_UNIT ( ) NAMED_UNIT ( * ) SI_UNIT ( $, .METRE. ) );
#116 = DIRECTION ( 'NONE',  ( -1.000000000000000000, 0.000000000000000000, 0.000000000000000000 ) ) ;
#117 =( NAMED_UNIT ( * ) PLANE_ANGLE_UNIT ( ) SI_UNIT ( $, .RADIAN. ) );
#118 = EDGE_LOOP ( 'NONE', ( #171, #198, #165, #127 ) ) ;
#119 =( NAMED_UNIT ( * ) PLANE_ANGLE_UNIT ( ) SI_UNIT ( $, .RADIAN. ) );
#120 = AXIS2_PLACEMENT_3D ( 'NONE', #151, #222, #39 ) ;
#121 = AXIS2_PLACEMENT_3D ( 'NONE', #238, #158, #211 ) ;
#122 = ADVANCED_FACE ( 'NONE', ( #32 ), #300, .F. ) ;
#123 = CARTESIAN_POINT ( 'NONE',  ( 0.1250000000000000278, 1.500000000000000222, 1.530808498934192433E-17 ) ) ;
#124 = EDGE_CURVE ( 'NONE', #272, #215, #217, .T. ) ;
#125 = CIRCLE ( 'NONE', #120, 0.1250000000000000278 ) ;
#126 =( GEOMETRIC_REPRESENTATION_CONTEXT ( 3 ) GLOBAL_UNCERTAINTY_ASSIGNED_CONTEXT ( ( #66 ) ) GLOBAL_UNIT_ASSIGNED_CONTEXT ( ( #138, #42, #112 ) ) REPRESENTATION_CONTEXT ( 'NONE', 'WORKASPACE' ) );
#127 = ORIENTED_EDGE ( 'NONE', *, *, #275, .F. ) ;
#128 = LENGTH_MEASURE_WITH_UNIT ( LENGTH_MEASURE( 0.02539999999999999897 ), #246 );
#129 = CARTESIAN_POINT ( 'NONE',  ( 0.000000000000000000, 0.000000000000000000, 0.000000000000000000 ) ) ;
#130 = VERTEX_POINT ( 'NONE', #36 ) ;
#131 = CARTESIAN_POINT ( 'NONE',  ( 1.530808498934191509E-17, 0.000000000000000000, 0.1250000000000000000 ) ) ;
#132 = FILL_AREA_STYLE ('',( #82 ) ) ;
#133 = ORIENTED_EDGE ( 'NONE', *, *, #305, .T. ) ;
#134 = PRODUCT_DEFINITION_CONTEXT ( 'detailed design', #105, 'design' ) ;
#135 = DIRECTION ( 'NONE',  ( -4.082155997157848133E-17, 1.000000000000000000, -0.000000000000000000 ) ) ;
#136 = AXIS2_PLACEMENT_3D ( 'NONE', #164, #107, #60 ) ;
#137 = FILL_AREA_STYLE ('',( #156 ) ) ;
#138 =( CONVERSION_BASED_UNIT ( 'INCH', #177 ) LENGTH_UNIT ( ) NAMED_UNIT ( #41 ) );
#139 = DIRECTION ( 'NONE',  ( 0.000000000000000000, 1.000000000000000000, 0.000000000000000000 ) ) ;
#140 = DIRECTION ( 'NONE',  ( -4.082155997157848133E-17, 1.000000000000000000, 0.000000000000000000 ) ) ;
#141 = DIRECTION ( 'NONE',  ( -0.000000000000000000, -1.000000000000000000, -0.000000000000000000 ) ) ;
#142 = ADVANCED_FACE ( 'NONE', ( #148 ), #192, .T. ) ;
#143 = ORIENTED_EDGE ( 'NONE', *, *, #250, .F. ) ;
#144 =( CONVERSION_BASED_UNIT ( 'INCH', #100 ) LENGTH_UNIT ( ) NAMED_UNIT ( #96 ) );
#145 = AXIS2_PLACEMENT_3D ( 'NONE', #203, #139, #74 ) ;
#146 = DIRECTION ( 'NONE',  ( -1.000000000000000000, 0.000000000000000000, 0.000000000000000000 ) ) ;
#147 = AXIS2_PLACEMENT_3D ( 'NONE', #259, #154, #2 ) ;
#148 = FACE_OUTER_BOUND ( 'NONE', #181, .T. ) ;
#149 = STYLED_ITEM ( 'NONE', ( #69 ), #142 ) ;
#150 = DIRECTION ( 'NONE',  ( -1.000000000000000000, 0.000000000000000000, 0.000000000000000000 ) ) ;
#151 = CARTESIAN_POINT ( 'NONE',  ( 0.000000000000000000, 1.500000000000000222, 0.000000000000000000 ) ) ;
#152 = PRODUCT_DEFINITION_FORMATION_WITH_SPECIFIED_SOURCE ( 'ANY', '', #220, .NOT_KNOWN. ) ;
#153 = ORIENTED_EDGE ( 'NONE', *, *, #111, .T. ) ;
#154 = DIRECTION ( 'NONE',  ( 0.000000000000000000, -1.000000000000000000, -0.000000000000000000 ) ) ;
#155 = AXIS2_PLACEMENT_3D ( 'NONE', #247, #298, #224 ) ;
#156 = FILL_AREA_STYLE_COLOUR ( '', #31 ) ;
#157 =( NAMED_UNIT ( * ) SI_UNIT ( $, .STERADIAN. ) SOLID_ANGLE_UNIT ( ) );
#158 = DIRECTION ( 'NONE',  ( -0.000000000000000000, -1.000000000000000000, -0.000000000000000000 ) ) ;
#159 =( NAMED_UNIT ( * ) SI_UNIT ( $, .STERADIAN. ) SOLID_ANGLE_UNIT ( ) );
#160 = PRESENTATION_LAYER_ASSIGNMENT (  '', '', ( #264 ) ) ;
#161 = VERTEX_POINT ( 'NONE', #103 ) ;
#162 = EDGE_LOOP ( 'NONE', ( #26, #153 ) ) ;
#163 = APPLICATION_PROTOCOL_DEFINITION ( 'draft international standard', 'automotive_design', 1998, #105 ) ;
#164 = CARTESIAN_POINT ( 'NONE',  ( -6.123233995736772199E-17, 3.000000000000000444, 0.000000000000000000 ) ) ;
#165 = ORIENTED_EDGE ( 'NONE', *, *, #52, .F. ) ;
#166 =( GEOMETRIC_REPRESENTATION_CONTEXT ( 3 ) GLOBAL_UNCERTAINTY_ASSIGNED_CONTEXT ( ( #186 ) ) GLOBAL_UNIT_ASSIGNED_CONTEXT ( ( #114, #50, #235 ) ) REPRESENTATION_CONTEXT ( 'NONE', 'WORKASPACE' ) );
#167 = ADVANCED_FACE ( 'NONE', ( #75 ), #24, .F. ) ;
#168 = PRODUCT_CONTEXT ( 'NONE', #296, 'mechanical' ) ;
#169 = DIRECTION ( 'NONE',  ( -4.082155997157848133E-17, 1.000000000000000000, -0.000000000000000000 ) ) ;
#170 = CARTESIAN_POINT ( 'NONE',  ( -6.123233995736772199E-17, 3.000000000000000444, 0.000000000000000000 ) ) ;
#171 = ORIENTED_EDGE ( 'NONE', *, *, #172, .T. ) ;
#172 = EDGE_CURVE ( 'NONE', #218, #272, #265, .T. ) ;
#173 = DIRECTION ( 'NONE',  ( -4.082155997157848133E-17, 1.000000000000000000, -0.000000000000000000 ) ) ;
#174 = COLOUR_RGB ( '',0.7921568627450980005, 0.8196078431372548767, 0.9333333333333333481 ) ;
#175 = PLANE ( 'NONE',  #147 ) ;
#176 = FILL_AREA_STYLE_COLOUR ( '', #174 ) ;
#177 = LENGTH_MEASURE_WITH_UNIT ( LENGTH_MEASURE( 0.02539999999999999897 ), #251 );
#178 = PRESENTATION_STYLE_ASSIGNMENT (( #94 ) ) ;
#179 = FILL_AREA_STYLE ('',( #176 ) ) ;
#180 =( GEOMETRIC_REPRESENTATION_CONTEXT ( 3 ) GLOBAL_UNCERTAINTY_ASSIGNED_CONTEXT ( ( #281 ) ) GLOBAL_UNIT_ASSIGNED_CONTEXT ( ( #287, #89, #91 ) ) REPRESENTATION_CONTEXT ( 'NONE', 'WORKASPACE' ) );
#181 = EDGE_LOOP ( 'NONE', ( #40, #191, #33, #30 ) ) ;
#182 = CARTESIAN_POINT ( 'NONE',  ( 0.000000000000000000, 1.500000000000000222, -0.1250000000000000278 ) ) ;
#183 = PRODUCT_DEFINITION ( 'UNKNOWN', '', #152, #134 ) ;
#184 = PRESENTATION_LAYER_ASSIGNMENT (  '', '', ( #29 ) ) ;
#185 = ORIENTED_EDGE ( 'NONE', *, *, #250, .T. ) ;
#186 = UNCERTAINTY_MEASURE_WITH_UNIT (LENGTH_MEASURE( 1.000000000000000082E-05 ), #114, 'distance_accuracy_value', 'NONE');
#187 = SHAPE_DEFINITION_REPRESENTATION ( #37, #10 ) ;
#188 = DIRECTION ( 'NONE',  ( -0.000000000000000000, -1.000000000000000000, -0.000000000000000000 ) ) ;
#189 = ADVANCED_FACE ( 'NONE', ( #202 ), #175, .T. ) ;
#190 = SURFACE_SIDE_STYLE ('',( #216 ) ) ;
#191 = ORIENTED_EDGE ( 'NONE', *, *, #11, .T. ) ;
#192 = CYLINDRICAL_SURFACE ( 'NONE', #269, 0.1250000000000000000 ) ;
#193 = MANIFOLD_SOLID_BREP ( 'Revolve - Cutting Edge', #221 ) ;
#194 = DIRECTION ( 'NONE',  ( -1.000000000000000000, 0.000000000000000000, 0.000000000000000000 ) ) ;
#195 = SURFACE_STYLE_USAGE ( .BOTH. , #190 ) ;
#196 = FACE_OUTER_BOUND ( 'NONE', #118, .T. ) ;
#197 = DIMENSIONAL_EXPONENTS ( 1.000000000000000000, 0.000000000000000000, 0.000000000000000000, 0.000000000000000000, 0.000000000000000000, 0.000000000000000000, 0.000000000000000000 ) ;
#198 = ORIENTED_EDGE ( 'NONE', *, *, #124, .T. ) ;
#199 = CIRCLE ( 'NONE', #110, 0.1250000000000000833 ) ;
#200 = DIRECTION ( 'NONE',  ( -1.000000000000000000, 0.000000000000000000, 0.000000000000000000 ) ) ;
#201 = AXIS2_PLACEMENT_3D ( 'NONE', #43, #228, #17 ) ;
#202 = FACE_OUTER_BOUND ( 'NONE', #252, .T. ) ;
#203 = CARTESIAN_POINT ( 'NONE',  ( 0.000000000000000000, 1.500000000000000222, 0.000000000000000000 ) ) ;
#204 = PRESENTATION_STYLE_ASSIGNMENT (( #113 ) ) ;
#205 =( GEOMETRIC_REPRESENTATION_CONTEXT ( 3 ) GLOBAL_UNCERTAINTY_ASSIGNED_CONTEXT ( ( #304 ) ) GLOBAL_UNIT_ASSIGNED_CONTEXT ( ( #144, #117, #79 ) ) REPRESENTATION_CONTEXT ( 'NONE', 'WORKASPACE' ) );
#206 =( LENGTH_UNIT ( ) NAMED_UNIT ( * ) SI_UNIT ( $, .METRE. ) );
#207 =( LENGTH_UNIT ( ) NAMED_UNIT ( * ) SI_UNIT ( $, .METRE. ) );
#208 = PLANE ( 'NONE',  #145 ) ;
#209 = ORIENTED_EDGE ( 'NONE', *, *, #291, .T. ) ;
#210 = PRESENTATION_LAYER_ASSIGNMENT (  '', '', ( #12 ) ) ;
#211 = DIRECTION ( 'NONE',  ( 0.000000000000000000, 0.000000000000000000, -1.000000000000000000 ) ) ;
#212 = ORIENTED_EDGE ( 'NONE', *, *, #305, .F. ) ;
#213 = SURFACE_SIDE_STYLE ('',( #240 ) ) ;
#214 = MECHANICAL_DESIGN_GEOMETRIC_PRESENTATION_REPRESENTATION (  '', ( #149 ), #108 ) ;
#215 = VERTEX_POINT ( 'NONE', #255 ) ;
#216 = SURFACE_STYLE_FILL_AREA ( #54 ) ;
#217 = LINE ( 'NONE', #249, #227 ) ;
#218 = VERTEX_POINT ( 'NONE', #283 ) ;
#219 = SURFACE_STYLE_USAGE ( .BOTH. , #277 ) ;
#220 = PRODUCT ( '81710', '81710', '', ( #168 ) ) ;
#221 = CLOSED_SHELL ( 'NONE', ( #142, #254, #260, #189 ) ) ;
#222 = DIRECTION ( 'NONE',  ( -0.000000000000000000, -1.000000000000000000, -0.000000000000000000 ) ) ;
#223 = DIMENSIONAL_EXPONENTS ( 1.000000000000000000, 0.000000000000000000, 0.000000000000000000, 0.000000000000000000, 0.000000000000000000, 0.000000000000000000, 0.000000000000000000 ) ;
#224 = DIRECTION ( 'NONE',  ( 0.000000000000000000, 0.000000000000000000, -1.000000000000000000 ) ) ;
#225 = VERTEX_POINT ( 'NONE', #253 ) ;
#226 =( NAMED_UNIT ( * ) SI_UNIT ( $, .STERADIAN. ) SOLID_ANGLE_UNIT ( ) );
#227 = VECTOR ( 'NONE', #173, 39.37007874015748143 ) ;
#228 = DIRECTION ( 'NONE',  ( -0.000000000000000000, -1.000000000000000000, -0.000000000000000000 ) ) ;
#229 = EDGE_LOOP ( 'NONE', ( #302, #279, #209, #212 ) ) ;
#230 = DIRECTION ( 'NONE',  ( -4.082155997157848133E-17, 1.000000000000000000, -0.000000000000000000 ) ) ;
#231 =( CONVERSION_BASED_UNIT ( 'INCH', #232 ) LENGTH_UNIT ( ) NAMED_UNIT ( #68 ) );
#232 = LENGTH_MEASURE_WITH_UNIT ( LENGTH_MEASURE( 0.02539999999999999897 ), #207 );
#233 = COLOUR_RGB ( '',1.000000000000000000, 0.000000000000000000, 0.000000000000000000 ) ;
#234 = PRESENTATION_STYLE_ASSIGNMENT (( #292 ) ) ;
#235 =( NAMED_UNIT ( * ) SI_UNIT ( $, .STERADIAN. ) SOLID_ANGLE_UNIT ( ) );
#236 = DIRECTION ( 'NONE',  ( 0.000000000000000000, 0.000000000000000000, -1.000000000000000000 ) ) ;
#237 = ORIENTED_EDGE ( 'NONE', *, *, #172, .F. ) ;
#238 = CARTESIAN_POINT ( 'NONE',  ( 0.000000000000000000, 0.000000000000000000, 0.000000000000000000 ) ) ;
#239 = AXIS2_PLACEMENT_3D ( 'NONE', #44, #263, #146 ) ;
#240 = SURFACE_STYLE_FILL_AREA ( #55 ) ;
#241 = EDGE_CURVE ( 'NONE', #225, #130, #72, .T. ) ;
#242 = AXIS2_PLACEMENT_3D ( 'NONE', #303, #87, #14 ) ;
#243 = AXIS2_PLACEMENT_3D ( 'NONE', #286, #140, #18 ) ;
#244 = CARTESIAN_POINT ( 'NONE',  ( -6.123233995736772199E-17, 3.000000000000000444, 0.000000000000000000 ) ) ;
#245 = ORIENTED_EDGE ( 'NONE', *, *, #124, .F. ) ;
#246 =( LENGTH_UNIT ( ) NAMED_UNIT ( * ) SI_UNIT ( $, .METRE. ) );
#247 = CARTESIAN_POINT ( 'NONE',  ( 0.000000000000000000, 1.500000000000000222, 0.000000000000000000 ) ) ;
#248 =( GEOMETRIC_REPRESENTATION_CONTEXT ( 3 ) GLOBAL_UNCERTAINTY_ASSIGNED_CONTEXT ( ( #35 ) ) GLOBAL_UNIT_ASSIGNED_CONTEXT ( ( #5, #119, #159 ) ) REPRESENTATION_CONTEXT ( 'NONE', 'WORKASPACE' ) );
#249 = CARTESIAN_POINT ( 'NONE',  ( 0.1249999999999999861, 3.000000000000000444, 1.530808498934192125E-17 ) ) ;
#250 = EDGE_CURVE ( 'NONE', #272, #218, #38, .T. ) ;
#251 =( LENGTH_UNIT ( ) NAMED_UNIT ( * ) SI_UNIT ( $, .METRE. ) );
#252 = EDGE_LOOP ( 'NONE', ( #290, #133 ) ) ;
#253 = CARTESIAN_POINT ( 'NONE',  ( 0.000000000000000000, 0.000000000000000000, -0.1250000000000000000 ) ) ;
#254 = ADVANCED_FACE ( 'NONE', ( #4 ), #208, .T. ) ;
#255 = CARTESIAN_POINT ( 'NONE',  ( 0.1250000000000000278, 3.000000000000000444, 1.530808498934192433E-17 ) ) ;
#256 = STYLED_ITEM ( 'NONE', ( #234 ), #309 ) ;
#257 =( LENGTH_UNIT ( ) NAMED_UNIT ( * ) SI_UNIT ( $, .METRE. ) );
#258 = SURFACE_STYLE_FILL_AREA ( #307 ) ;
#259 = CARTESIAN_POINT ( 'NONE',  ( 0.000000000000000000, 0.000000000000000000, 0.000000000000000000 ) ) ;
#260 = ADVANCED_FACE ( 'NONE', ( #76 ), #21, .T. ) ;
#261 = MECHANICAL_DESIGN_GEOMETRIC_PRESENTATION_REPRESENTATION (  '', ( #12 ), #180 ) ;
#262 = FILL_AREA_STYLE_COLOUR ( '', #61 ) ;
#263 = DIRECTION ( 'NONE',  ( -4.082155997157848133E-17, 1.000000000000000000, -0.000000000000000000 ) ) ;
#264 = STYLED_ITEM ( 'NONE', ( #278 ), #254 ) ;
#265 = CIRCLE ( 'NONE', #57, 0.1250000000000000278 ) ;
#266 = CARTESIAN_POINT ( 'NONE',  ( 0.000000000000000000, 0.000000000000000000, -0.1250000000000000000 ) ) ;
#267 = VERTEX_POINT ( 'NONE', #182 ) ;
#268 = FACE_OUTER_BOUND ( 'NONE', #9, .T. ) ;
#269 = AXIS2_PLACEMENT_3D ( 'NONE', #86, #188, #13 ) ;
#270 = DIRECTION ( 'NONE',  ( 1.000000000000000000, 0.000000000000000000, 0.000000000000000000 ) ) ;
#271 = PRESENTATION_LAYER_ASSIGNMENT (  '', '', ( #67 ) ) ;
#272 = VERTEX_POINT ( 'NONE', #123 ) ;
#273 = AXIS2_PLACEMENT_3D ( 'NONE', #244, #169, #194 ) ;
#274 = LINE ( 'NONE', #131, #83 ) ;
#275 = EDGE_CURVE ( 'NONE', #218, #161, #53, .T. ) ;
#276 = UNCERTAINTY_MEASURE_WITH_UNIT (LENGTH_MEASURE( 1.000000000000000082E-05 ), #280, 'distance_accuracy_value', 'NONE');
#277 = SURFACE_SIDE_STYLE ('',( #282 ) ) ;
#278 = PRESENTATION_STYLE_ASSIGNMENT (( #195 ) ) ;
#279 = ORIENTED_EDGE ( 'NONE', *, *, #6, .T. ) ;
#280 =( CONVERSION_BASED_UNIT ( 'INCH', #128 ) LENGTH_UNIT ( ) NAMED_UNIT ( #223 ) );
#281 = UNCERTAINTY_MEASURE_WITH_UNIT (LENGTH_MEASURE( 1.000000000000000082E-05 ), #287, 'distance_accuracy_value', 'NONE');
#282 = SURFACE_STYLE_FILL_AREA ( #132 ) ;
#283 = CARTESIAN_POINT ( 'NONE',  ( -0.1250000000000000278, 1.500000000000000222, 0.000000000000000000 ) ) ;
#284 = DIMENSIONAL_EXPONENTS ( 1.000000000000000000, 0.000000000000000000, 0.000000000000000000, 0.000000000000000000, 0.000000000000000000, 0.000000000000000000, 0.000000000000000000 ) ;
#285 = COLOUR_RGB ( '',1.000000000000000000, 0.000000000000000000, 0.000000000000000000 ) ;
#286 = CARTESIAN_POINT ( 'NONE',  ( 1.041499849070736731E-34, 1.500000000000000222, 0.000000000000000000 ) ) ;
#287 =( CONVERSION_BASED_UNIT ( 'INCH', #1 ) LENGTH_UNIT ( ) NAMED_UNIT ( #284 ) );
#288 = COLOUR_RGB ( '',1.000000000000000000, 0.000000000000000000, 0.000000000000000000 ) ;
#289 = DIRECTION ( 'NONE',  ( -0.000000000000000000, -1.000000000000000000, -0.000000000000000000 ) ) ;
#290 = ORIENTED_EDGE ( 'NONE', *, *, #241, .T. ) ;
#291 = EDGE_CURVE ( 'NONE', #267, #225, #80, .T. ) ;
#292 = SURFACE_STYLE_USAGE ( .BOTH. , #213 ) ;
#293 = ORIENTED_EDGE ( 'NONE', *, *, #6, .F. ) ;
#294 = DIRECTION ( 'NONE',  ( -4.082155997157848133E-17, 1.000000000000000000, -0.000000000000000000 ) ) ;
#295 = AXIS2_PLACEMENT_3D ( 'NONE', #129, #59, #270 ) ;
#296 = APPLICATION_CONTEXT ( 'automotive_design' ) ;
#297 = DIMENSIONAL_EXPONENTS ( 1.000000000000000000, 0.000000000000000000, 0.000000000000000000, 0.000000000000000000, 0.000000000000000000, 0.000000000000000000, 0.000000000000000000 ) ;
#298 = DIRECTION ( 'NONE',  ( -0.000000000000000000, -1.000000000000000000, -0.000000000000000000 ) ) ;
#299 = CIRCLE ( 'NONE', #155, 0.1250000000000000278 ) ;
#300 = PLANE ( 'NONE',  #242 ) ;
#301 = CARTESIAN_POINT ( 'NONE',  ( 1.530808498934191817E-17, 1.500000000000000222, 0.1250000000000000278 ) ) ;
#302 = ORIENTED_EDGE ( 'NONE', *, *, #11, .F. ) ;
#303 = CARTESIAN_POINT ( 'NONE',  ( 0.1250000000000000278, 3.000000000000000444, 0.000000000000000000 ) ) ;
#304 = UNCERTAINTY_MEASURE_WITH_UNIT (LENGTH_MEASURE( 1.000000000000000082E-05 ), #144, 'distance_accuracy_value', 'NONE');
#305 = EDGE_CURVE ( 'NONE', #130, #225, #84, .T. ) ;
#306 = CARTESIAN_POINT ( 'NONE',  ( -6.123233995736772199E-17, 3.000000000000000444, 0.000000000000000000 ) ) ;
#307 = FILL_AREA_STYLE ('',( #308 ) ) ;
#308 = FILL_AREA_STYLE_COLOUR ( '', #285 ) ;
#309 = MANIFOLD_SOLID_BREP ( 'Revolve - Tool Body (Straight Shanked)', #56 ) ;
ENDSEC;
END-ISO-10303-21;
