ISO-10303-21;
HEADER;
FILE_DESCRIPTION (( 'STEP AP214' ),
    '1' );
FILE_NAME ('59849W.STEP',
    '2023-06-22T23:31:33',
    ( '' ),
    ( '' ),
    'SwSTEP 2.0',
    'SolidWorks 2023',
    '' );
FILE_SCHEMA (( 'AUTOMOTIVE_DESIGN' ));
ENDSEC;

DATA;
#1 = DIRECTION ( 'NONE',  ( -1.000000000000000000, 5.442874662877122010E-17, 0.000000000000000000 ) ) ;
#2 = DIMENSIONAL_EXPONENTS ( 1.000000000000000000, 0.000000000000000000, 0.000000000000000000, 0.000000000000000000, 0.000000000000000000, 0.000000000000000000, 0.000000000000000000 ) ;
#3 = FACE_OUTER_BOUND ( 'NONE', #270, .T. ) ;
#4 = SURFACE_SIDE_STYLE ('',( #28 ) ) ;
#5 = AXIS2_PLACEMENT_3D ( 'NONE', #207, #287, #1 ) ;
#6 = ORIENTED_EDGE ( 'NONE', *, *, #13, .F. ) ;
#7 = ORIENTED_EDGE ( 'NONE', *, *, #149, .T. ) ;
#8 = ORIENTED_EDGE ( 'NONE', *, *, #248, .T. ) ;
#9 =( LENGTH_UNIT ( ) NAMED_UNIT ( * ) SI_UNIT ( $, .METRE. ) );
#10 =( GEOMETRIC_REPRESENTATION_CONTEXT ( 3 ) GLOBAL_UNCERTAINTY_ASSIGNED_CONTEXT ( ( #155 ) ) GLOBAL_UNIT_ASSIGNED_CONTEXT ( ( #15, #220, #262 ) ) REPRESENTATION_CONTEXT ( 'NONE', 'WORKASPACE' ) );
#11 = ORIENTED_EDGE ( 'NONE', *, *, #234, .F. ) ;
#12 = VERTEX_POINT ( 'NONE', #246 ) ;
#13 = EDGE_CURVE ( 'NONE', #36, #112, #259, .T. ) ;
#14 = PRODUCT ( '59849W', '59849W', '', ( #182 ) ) ;
#15 =( CONVERSION_BASED_UNIT ( 'INCH', #87 ) LENGTH_UNIT ( ) NAMED_UNIT ( #181 ) );
#16 =( GEOMETRIC_REPRESENTATION_CONTEXT ( 3 ) GLOBAL_UNCERTAINTY_ASSIGNED_CONTEXT ( ( #129 ) ) GLOBAL_UNIT_ASSIGNED_CONTEXT ( ( #243, #272, #152 ) ) REPRESENTATION_CONTEXT ( 'NONE', 'WORKASPACE' ) );
#17 = CARTESIAN_POINT ( 'NONE',  ( 3.827021247335478926E-17, 0.000000000000000000, 0.3125000000000000000 ) ) ;
#18 = AXIS2_PLACEMENT_3D ( 'NONE', #263, #208, #307 ) ;
#19 = CARTESIAN_POINT ( 'NONE',  ( 0.000000000000000000, 0.7500000000000001110, 0.000000000000000000 ) ) ;
#20 = PLANE ( 'NONE',  #102 ) ;
#21 = DIRECTION ( 'NONE',  ( 0.000000000000000000, 0.000000000000000000, 1.000000000000000000 ) ) ;
#22 = MECHANICAL_DESIGN_GEOMETRIC_PRESENTATION_REPRESENTATION (  '', ( #278 ), #41 ) ;
#23 =( NAMED_UNIT ( * ) PLANE_ANGLE_UNIT ( ) SI_UNIT ( $, .RADIAN. ) );
#24 = PRESENTATION_STYLE_ASSIGNMENT (( #235 ) ) ;
#25 = LINE ( 'NONE', #77, #191 ) ;
#26 = DIRECTION ( 'NONE',  ( 0.000000000000000000, 0.000000000000000000, -1.000000000000000000 ) ) ;
#27 = CARTESIAN_POINT ( 'NONE',  ( -1.516480271171051896E-32, 0.7499999999999998890, 0.000000000000000000 ) ) ;
#28 = SURFACE_STYLE_FILL_AREA ( #154 ) ;
#29 = UNCERTAINTY_MEASURE_WITH_UNIT (LENGTH_MEASURE( 1.000000000000000082E-05 ), #46, 'distance_accuracy_value', 'NONE');
#30 = STYLED_ITEM ( 'NONE', ( #296 ), #61 ) ;
#31 = SURFACE_STYLE_USAGE ( .BOTH. , #194 ) ;
#32 = PRODUCT_DEFINITION_FORMATION_WITH_SPECIFIED_SOURCE ( 'ANY', '', #14, .NOT_KNOWN. ) ;
#33 = ORIENTED_EDGE ( 'NONE', *, *, #185, .F. ) ;
#34 = APPLICATION_PROTOCOL_DEFINITION ( 'draft international standard', 'automotive_design', 1998, #37 ) ;
#35 = SURFACE_STYLE_FILL_AREA ( #271 ) ;
#36 = VERTEX_POINT ( 'NONE', #17 ) ;
#37 = APPLICATION_CONTEXT ( 'automotive_design' ) ;
#38 = COLOUR_RGB ( '',1.000000000000000000, 0.000000000000000000, 0.000000000000000000 ) ;
#39 = ORIENTED_EDGE ( 'NONE', *, *, #55, .T. ) ;
#40 = ORIENTED_EDGE ( 'NONE', *, *, #153, .T. ) ;
#41 =( GEOMETRIC_REPRESENTATION_CONTEXT ( 3 ) GLOBAL_UNCERTAINTY_ASSIGNED_CONTEXT ( ( #293 ) ) GLOBAL_UNIT_ASSIGNED_CONTEXT ( ( #81, #216, #247 ) ) REPRESENTATION_CONTEXT ( 'NONE', 'WORKASPACE' ) );
#42 = PRESENTATION_STYLE_ASSIGNMENT (( #280 ) ) ;
#43 =( GEOMETRIC_REPRESENTATION_CONTEXT ( 3 ) GLOBAL_UNCERTAINTY_ASSIGNED_CONTEXT ( ( #212 ) ) GLOBAL_UNIT_ASSIGNED_CONTEXT ( ( #53, #23, #119 ) ) REPRESENTATION_CONTEXT ( 'NONE', 'WORKASPACE' ) );
#44 = CARTESIAN_POINT ( 'NONE',  ( 3.827021247335478926E-17, 0.7500000000000001110, 0.3125000000000000000 ) ) ;
#45 = DIRECTION ( 'NONE',  ( 5.442874662877122626E-17, 1.000000000000000000, -0.000000000000000000 ) ) ;
#46 =( CONVERSION_BASED_UNIT ( 'INCH', #289 ) LENGTH_UNIT ( ) NAMED_UNIT ( #146 ) );
#47 =( GEOMETRIC_REPRESENTATION_CONTEXT ( 3 ) GLOBAL_UNCERTAINTY_ASSIGNED_CONTEXT ( ( #74 ) ) GLOBAL_UNIT_ASSIGNED_CONTEXT ( ( #69, #223, #75 ) ) REPRESENTATION_CONTEXT ( 'NONE', 'WORKASPACE' ) );
#48 = DIRECTION ( 'NONE',  ( 0.000000000000000000, 0.000000000000000000, -1.000000000000000000 ) ) ;
#49 = DIMENSIONAL_EXPONENTS ( 1.000000000000000000, 0.000000000000000000, 0.000000000000000000, 0.000000000000000000, 0.000000000000000000, 0.000000000000000000, 0.000000000000000000 ) ;
#50 =( LENGTH_UNIT ( ) NAMED_UNIT ( * ) SI_UNIT ( $, .METRE. ) );
#51 = DIRECTION ( 'NONE',  ( 5.442874662877122626E-17, 1.000000000000000000, -0.000000000000000000 ) ) ;
#52 = CARTESIAN_POINT ( 'NONE',  ( 0.3125000000000000000, 3.000000000000000444, 0.000000000000000000 ) ) ;
#53 =( CONVERSION_BASED_UNIT ( 'INCH', #233 ) LENGTH_UNIT ( ) NAMED_UNIT ( #256 ) );
#54 = LENGTH_MEASURE_WITH_UNIT ( LENGTH_MEASURE( 0.02539999999999999897 ), #238 );
#55 = EDGE_CURVE ( 'NONE', #64, #12, #160, .T. ) ;
#56 = DIRECTION ( 'NONE',  ( -0.000000000000000000, -1.000000000000000000, -0.000000000000000000 ) ) ;
#57 = DIRECTION ( 'NONE',  ( 5.442874662877122626E-17, 1.000000000000000000, -0.000000000000000000 ) ) ;
#58 = FILL_AREA_STYLE_COLOUR ( '', #126 ) ;
#59 = VERTEX_POINT ( 'NONE', #100 ) ;
#60 = SURFACE_STYLE_FILL_AREA ( #132 ) ;
#61 = ADVANCED_FACE ( 'NONE', ( #269 ), #156, .T. ) ;
#62 =( GEOMETRIC_REPRESENTATION_CONTEXT ( 3 ) GLOBAL_UNCERTAINTY_ASSIGNED_CONTEXT ( ( #249 ) ) GLOBAL_UNIT_ASSIGNED_CONTEXT ( ( #95, #211, #266 ) ) REPRESENTATION_CONTEXT ( 'NONE', 'WORKASPACE' ) );
#63 = VERTEX_POINT ( 'NONE', #301 ) ;
#64 = VERTEX_POINT ( 'NONE', #228 ) ;
#65 = APPLICATION_CONTEXT ( 'automotive_design' ) ;
#66 = AXIS2_PLACEMENT_3D ( 'NONE', #144, #92, #292 ) ;
#67 = PLANE ( 'NONE',  #5 ) ;
#68 = PRESENTATION_STYLE_ASSIGNMENT (( #179 ) ) ;
#69 =( CONVERSION_BASED_UNIT ( 'INCH', #305 ) LENGTH_UNIT ( ) NAMED_UNIT ( #49 ) );
#70 = EDGE_CURVE ( 'NONE', #277, #110, #302, .T. ) ;
#71 = AXIS2_PLACEMENT_3D ( 'NONE', #52, #162, #261 ) ;
#72 = FACE_OUTER_BOUND ( 'NONE', #88, .T. ) ;
#73 = MECHANICAL_DESIGN_GEOMETRIC_PRESENTATION_REPRESENTATION (  '', ( #128 ), #306 ) ;
#74 = UNCERTAINTY_MEASURE_WITH_UNIT (LENGTH_MEASURE( 1.000000000000000082E-05 ), #69, 'distance_accuracy_value', 'NONE');
#75 =( NAMED_UNIT ( * ) SI_UNIT ( $, .STERADIAN. ) SOLID_ANGLE_UNIT ( ) );
#76 = DIRECTION ( 'NONE',  ( 0.000000000000000000, 0.000000000000000000, -1.000000000000000000 ) ) ;
#77 = CARTESIAN_POINT ( 'NONE',  ( 3.827021247335478926E-17, 0.000000000000000000, 0.3125000000000000000 ) ) ;
#78 = ADVANCED_FACE ( 'NONE', ( #231 ), #20, .T. ) ;
#79 = PRESENTATION_LAYER_ASSIGNMENT (  '', '', ( #255 ) ) ;
#80 = PRODUCT_RELATED_PRODUCT_CATEGORY ( 'part', '', ( #14 ) ) ;
#81 =( CONVERSION_BASED_UNIT ( 'INCH', #158 ) LENGTH_UNIT ( ) NAMED_UNIT ( #203 ) );
#82 = CIRCLE ( 'NONE', #18, 0.3124999999999998890 ) ;
#83 = EDGE_LOOP ( 'NONE', ( #199, #130 ) ) ;
#84 = PRODUCT_DEFINITION ( 'UNKNOWN', '', #32, #106 ) ;
#85 = ORIENTED_EDGE ( 'NONE', *, *, #268, .T. ) ;
#86 = CARTESIAN_POINT ( 'NONE',  ( 0.000000000000000000, 0.000000000000000000, -0.3125000000000000000 ) ) ;
#87 = LENGTH_MEASURE_WITH_UNIT ( LENGTH_MEASURE( 0.02539999999999999897 ), #50 );
#88 = EDGE_LOOP ( 'NONE', ( #251, #172, #108, #250 ) ) ;
#89 = DIRECTION ( 'NONE',  ( 0.000000000000000000, 0.000000000000000000, -1.000000000000000000 ) ) ;
#90 = AXIS2_PLACEMENT_3D ( 'NONE', #264, #57, #244 ) ;
#91 = FACE_OUTER_BOUND ( 'NONE', #215, .T. ) ;
#92 = DIRECTION ( 'NONE',  ( 5.442874662877122626E-17, 1.000000000000000000, -0.000000000000000000 ) ) ;
#93 = DIRECTION ( 'NONE',  ( -0.000000000000000000, -1.000000000000000000, -0.000000000000000000 ) ) ;
#94 = SURFACE_SIDE_STYLE ('',( #60 ) ) ;
#95 =( CONVERSION_BASED_UNIT ( 'INCH', #54 ) LENGTH_UNIT ( ) NAMED_UNIT ( #308 ) );
#96 = COLOUR_RGB ( '',0.7921568627450980005, 0.8196078431372548767, 0.9333333333333333481 ) ;
#97 = DIRECTION ( 'NONE',  ( 5.442874662877122010E-17, 1.000000000000000000, -0.000000000000000000 ) ) ;
#98 = CYLINDRICAL_SURFACE ( 'NONE', #237, 0.3124999999999999445 ) ;
#99 = PRESENTATION_STYLE_ASSIGNMENT (( #184 ) ) ;
#100 = CARTESIAN_POINT ( 'NONE',  ( 0.3125000000000000000, 3.000000000000000444, 3.827021247335477694E-17 ) ) ;
#101 = CARTESIAN_POINT ( 'NONE',  ( 0.000000000000000000, 0.000000000000000000, 0.000000000000000000 ) ) ;
#102 = AXIS2_PLACEMENT_3D ( 'NONE', #111, #198, #300 ) ;
#103 = FILL_AREA_STYLE_COLOUR ( '', #96 ) ;
#104 = SURFACE_STYLE_USAGE ( .BOTH. , #4 ) ;
#105 = ADVANCED_FACE ( 'NONE', ( #275 ), #295, .T. ) ;
#106 = PRODUCT_DEFINITION_CONTEXT ( 'detailed design', #37, 'design' ) ;
#107 = EDGE_LOOP ( 'NONE', ( #131, #33 ) ) ;
#108 = ORIENTED_EDGE ( 'NONE', *, *, #248, .F. ) ;
#109 = COLOUR_RGB ( '',1.000000000000000000, 0.000000000000000000, 0.000000000000000000 ) ;
#110 = VERTEX_POINT ( 'NONE', #44 ) ;
#111 = CARTESIAN_POINT ( 'NONE',  ( 0.000000000000000000, 0.7500000000000001110, 0.000000000000000000 ) ) ;
#112 = VERTEX_POINT ( 'NONE', #221 ) ;
#113 = FACE_OUTER_BOUND ( 'NONE', #107, .T. ) ;
#114 = DIRECTION ( 'NONE',  ( 0.000000000000000000, -1.000000000000000000, -0.000000000000000000 ) ) ;
#115 = AXIS2_PLACEMENT_3D ( 'NONE', #141, #122, #76 ) ;
#116 = DIRECTION ( 'NONE',  ( -0.000000000000000000, -1.000000000000000000, -0.000000000000000000 ) ) ;
#117 = DIRECTION ( 'NONE',  ( 1.000000000000000000, 0.000000000000000000, 0.000000000000000000 ) ) ;
#118 = MECHANICAL_DESIGN_GEOMETRIC_PRESENTATION_REPRESENTATION (  '', ( #288 ), #62 ) ;
#119 =( NAMED_UNIT ( * ) SI_UNIT ( $, .STERADIAN. ) SOLID_ANGLE_UNIT ( ) );
#120 = FILL_AREA_STYLE ('',( #209 ) ) ;
#121 = CARTESIAN_POINT ( 'NONE',  ( 0.000000000000000000, 0.000000000000000000, 0.000000000000000000 ) ) ;
#122 = DIRECTION ( 'NONE',  ( -0.000000000000000000, -1.000000000000000000, -0.000000000000000000 ) ) ;
#123 = COLOUR_RGB ( '',0.7921568627450980005, 0.8196078431372548767, 0.9333333333333333481 ) ;
#124 = DIRECTION ( 'NONE',  ( -0.000000000000000000, -1.000000000000000000, -0.000000000000000000 ) ) ;
#125 = CYLINDRICAL_SURFACE ( 'NONE', #115, 0.3125000000000000000 ) ;
#126 = COLOUR_RGB ( '',1.000000000000000000, 0.000000000000000000, 0.000000000000000000 ) ;
#127 = AXIS2_PLACEMENT_3D ( 'NONE', #139, #114, #89 ) ;
#128 = STYLED_ITEM ( 'NONE', ( #99 ), #159 ) ;
#129 = UNCERTAINTY_MEASURE_WITH_UNIT (LENGTH_MEASURE( 1.000000000000000082E-05 ), #243, 'distance_accuracy_value', 'NONE');
#130 = ORIENTED_EDGE ( 'NONE', *, *, #153, .F. ) ;
#131 = ORIENTED_EDGE ( 'NONE', *, *, #166, .F. ) ;
#132 = FILL_AREA_STYLE ('',( #240 ) ) ;
#133 = COLOUR_RGB ( '',1.000000000000000000, 0.000000000000000000, 0.000000000000000000 ) ;
#134 = ORIENTED_EDGE ( 'NONE', *, *, #291, .T. ) ;
#135 = DIRECTION ( 'NONE',  ( 5.442874662877122626E-17, 1.000000000000000000, -0.000000000000000000 ) ) ;
#136 = FILL_AREA_STYLE_COLOUR ( '', #38 ) ;
#137 = CARTESIAN_POINT ( 'NONE',  ( 0.000000000000000000, 0.000000000000000000, 0.000000000000000000 ) ) ;
#138 = DIRECTION ( 'NONE',  ( 0.000000000000000000, 0.000000000000000000, -1.000000000000000000 ) ) ;
#139 = CARTESIAN_POINT ( 'NONE',  ( 0.000000000000000000, 0.000000000000000000, 0.000000000000000000 ) ) ;
#140 = ADVANCED_FACE ( 'NONE', ( #145 ), #206, .F. ) ;
#141 = CARTESIAN_POINT ( 'NONE',  ( 0.000000000000000000, 0.000000000000000000, 0.000000000000000000 ) ) ;
#142 = VECTOR ( 'NONE', #239, 39.37007874015748143 ) ;
#143 = VECTOR ( 'NONE', #174, 39.37007874015748143 ) ;
#144 = CARTESIAN_POINT ( 'NONE',  ( 1.224646799147352714E-16, 3.000000000000000444, 0.000000000000000000 ) ) ;
#145 = FACE_OUTER_BOUND ( 'NONE', #217, .T. ) ;
#146 = DIMENSIONAL_EXPONENTS ( 1.000000000000000000, 0.000000000000000000, 0.000000000000000000, 0.000000000000000000, 0.000000000000000000, 0.000000000000000000, 0.000000000000000000 ) ;
#147 = DIRECTION ( 'NONE',  ( -1.000000000000000000, 0.000000000000000000, 0.000000000000000000 ) ) ;
#148 =( NAMED_UNIT ( * ) PLANE_ANGLE_UNIT ( ) SI_UNIT ( $, .RADIAN. ) );
#149 = EDGE_CURVE ( 'NONE', #112, #36, #176, .T. ) ;
#150 = SURFACE_SIDE_STYLE ('',( #188 ) ) ;
#151 =( NAMED_UNIT ( * ) SI_UNIT ( $, .STERADIAN. ) SOLID_ANGLE_UNIT ( ) );
#152 =( NAMED_UNIT ( * ) SI_UNIT ( $, .STERADIAN. ) SOLID_ANGLE_UNIT ( ) );
#153 = EDGE_CURVE ( 'NONE', #110, #277, #180, .T. ) ;
#154 = FILL_AREA_STYLE ('',( #58 ) ) ;
#155 = UNCERTAINTY_MEASURE_WITH_UNIT (LENGTH_MEASURE( 1.000000000000000082E-05 ), #15, 'distance_accuracy_value', 'NONE');
#156 = PLANE ( 'NONE',  #127 ) ;
#157 = ORIENTED_EDGE ( 'NONE', *, *, #13, .T. ) ;
#158 = LENGTH_MEASURE_WITH_UNIT ( LENGTH_MEASURE( 0.02539999999999999897 ), #9 );
#159 = ADVANCED_FACE ( 'NONE', ( #3 ), #125, .T. ) ;
#160 = LINE ( 'NONE', #230, #142 ) ;
#161 = CARTESIAN_POINT ( 'NONE',  ( 1.224646799147352714E-16, 3.000000000000000444, 0.000000000000000000 ) ) ;
#162 = DIRECTION ( 'NONE',  ( -5.442874662877122010E-17, -1.000000000000000000, 0.000000000000000000 ) ) ;
#163 = MANIFOLD_SOLID_BREP ( 'Revolve - Tool Body (Straight Shanked)', #260 ) ;
#164 = MECHANICAL_DESIGN_GEOMETRIC_PRESENTATION_REPRESENTATION (  '', ( #255 ), #16 ) ;
#165 = CARTESIAN_POINT ( 'NONE',  ( 0.3125000000000000555, 3.000000000000000444, 3.827021247335477694E-17 ) ) ;
#166 = EDGE_CURVE ( 'NONE', #64, #63, #190, .T. ) ;
#167 = MANIFOLD_SOLID_BREP ( 'Revolve - Cutting Edge', #276 ) ;
#168 = FILL_AREA_STYLE ('',( #258 ) ) ;
#169 = LENGTH_MEASURE_WITH_UNIT ( LENGTH_MEASURE( 0.02539999999999999897 ), #224 );
#170 = PRESENTATION_LAYER_ASSIGNMENT (  '', '', ( #278 ) ) ;
#171 = AXIS2_PLACEMENT_3D ( 'NONE', #121, #21, #117 ) ;
#172 = ORIENTED_EDGE ( 'NONE', *, *, #234, .T. ) ;
#173 = ORIENTED_EDGE ( 'NONE', *, *, #214, .T. ) ;
#174 = DIRECTION ( 'NONE',  ( -0.000000000000000000, -1.000000000000000000, -0.000000000000000000 ) ) ;
#175 = ORIENTED_EDGE ( 'NONE', *, *, #149, .F. ) ;
#176 = CIRCLE ( 'NONE', #226, 0.3125000000000000000 ) ;
#177 = FILL_AREA_STYLE ('',( #136 ) ) ;
#178 = DIRECTION ( 'NONE',  ( 0.000000000000000000, 0.000000000000000000, -1.000000000000000000 ) ) ;
#179 = SURFACE_STYLE_USAGE ( .BOTH. , #281 ) ;
#180 = CIRCLE ( 'NONE', #242, 0.3125000000000000000 ) ;
#181 = DIMENSIONAL_EXPONENTS ( 1.000000000000000000, 0.000000000000000000, 0.000000000000000000, 0.000000000000000000, 0.000000000000000000, 0.000000000000000000, 0.000000000000000000 ) ;
#182 = PRODUCT_CONTEXT ( 'NONE', #65, 'mechanical' ) ;
#183 = CYLINDRICAL_SURFACE ( 'NONE', #205, 0.3124999999999999445 ) ;
#184 = SURFACE_STYLE_USAGE ( .BOTH. , #309 ) ;
#185 = EDGE_CURVE ( 'NONE', #63, #64, #236, .T. ) ;
#186 = LINE ( 'NONE', #165, #210 ) ;
#187 = CARTESIAN_POINT ( 'NONE',  ( 0.000000000000000000, 0.7500000000000001110, -0.3125000000000000000 ) ) ;
#188 = SURFACE_STYLE_FILL_AREA ( #168 ) ;
#189 = CARTESIAN_POINT ( 'NONE',  ( 0.000000000000000000, 0.7500000000000001110, 0.000000000000000000 ) ) ;
#190 = CIRCLE ( 'NONE', #90, 0.3125000000000000000 ) ;
#191 = VECTOR ( 'NONE', #56, 39.37007874015748143 ) ;
#192 = ORIENTED_EDGE ( 'NONE', *, *, #70, .T. ) ;
#193 = ORIENTED_EDGE ( 'NONE', *, *, #185, .T. ) ;
#194 = SURFACE_SIDE_STYLE ('',( #35 ) ) ;
#195 = AXIS2_PLACEMENT_3D ( 'NONE', #283, #253, #138 ) ;
#196 = ORIENTED_EDGE ( 'NONE', *, *, #268, .F. ) ;
#197 = DIRECTION ( 'NONE',  ( -1.000000000000000000, 0.000000000000000000, 0.000000000000000000 ) ) ;
#198 = DIRECTION ( 'NONE',  ( 0.000000000000000000, 1.000000000000000000, 0.000000000000000000 ) ) ;
#199 = ORIENTED_EDGE ( 'NONE', *, *, #70, .F. ) ;
#200 = PRESENTATION_LAYER_ASSIGNMENT (  '', '', ( #30 ) ) ;
#201 = LINE ( 'NONE', #86, #143 ) ;
#202 = APPLICATION_PROTOCOL_DEFINITION ( 'draft international standard', 'automotive_design', 1998, #65 ) ;
#203 = DIMENSIONAL_EXPONENTS ( 1.000000000000000000, 0.000000000000000000, 0.000000000000000000, 0.000000000000000000, 0.000000000000000000, 0.000000000000000000, 0.000000000000000000 ) ;
#204 = MECHANICAL_DESIGN_GEOMETRIC_PRESENTATION_REPRESENTATION (  '', ( #303 ), #47 ) ;
#205 = AXIS2_PLACEMENT_3D ( 'NONE', #161, #51, #257 ) ;
#206 = PLANE ( 'NONE',  #71 ) ;
#207 = CARTESIAN_POINT ( 'NONE',  ( 4.628888218092148898E-34, 0.7500000000000001110, 0.000000000000000000 ) ) ;
#208 = DIRECTION ( 'NONE',  ( 5.442874662877122626E-17, 1.000000000000000000, -0.000000000000000000 ) ) ;
#209 = FILL_AREA_STYLE_COLOUR ( '', #133 ) ;
#210 = VECTOR ( 'NONE', #97, 39.37007874015748143 ) ;
#211 =( NAMED_UNIT ( * ) PLANE_ANGLE_UNIT ( ) SI_UNIT ( $, .RADIAN. ) );
#212 = UNCERTAINTY_MEASURE_WITH_UNIT (LENGTH_MEASURE( 1.000000000000000082E-05 ), #53, 'distance_accuracy_value', 'NONE');
#213 = ORIENTED_EDGE ( 'NONE', *, *, #291, .F. ) ;
#214 = EDGE_CURVE ( 'NONE', #277, #112, #201, .T. ) ;
#215 = EDGE_LOOP ( 'NONE', ( #11, #193, #39, #213 ) ) ;
#216 =( NAMED_UNIT ( * ) PLANE_ANGLE_UNIT ( ) SI_UNIT ( $, .RADIAN. ) );
#217 = EDGE_LOOP ( 'NONE', ( #8, #134 ) ) ;
#218 = PRESENTATION_LAYER_ASSIGNMENT (  '', '', ( #288 ) ) ;
#219 = CIRCLE ( 'NONE', #66, 0.3124999999999998890 ) ;
#220 =( NAMED_UNIT ( * ) PLANE_ANGLE_UNIT ( ) SI_UNIT ( $, .RADIAN. ) );
#221 = CARTESIAN_POINT ( 'NONE',  ( 0.000000000000000000, 0.000000000000000000, -0.3125000000000000000 ) ) ;
#222 = DIRECTION ( 'NONE',  ( -0.000000000000000000, -1.000000000000000000, -0.000000000000000000 ) ) ;
#223 =( NAMED_UNIT ( * ) PLANE_ANGLE_UNIT ( ) SI_UNIT ( $, .RADIAN. ) );
#224 =( LENGTH_UNIT ( ) NAMED_UNIT ( * ) SI_UNIT ( $, .METRE. ) );
#225 = MECHANICAL_DESIGN_GEOMETRIC_PRESENTATION_REPRESENTATION (  '', ( #30 ), #10 ) ;
#226 = AXIS2_PLACEMENT_3D ( 'NONE', #101, #93, #26 ) ;
#227 = ADVANCED_BREP_SHAPE_REPRESENTATION ( '59849W', ( #167, #163, #171 ), #43 ) ;
#228 = CARTESIAN_POINT ( 'NONE',  ( -0.3125000000000000000, 0.7499999999999998890, 0.000000000000000000 ) ) ;
#229 = ADVANCED_FACE ( 'NONE', ( #113 ), #67, .F. ) ;
#230 = CARTESIAN_POINT ( 'NONE',  ( -0.3124999999999998335, 3.000000000000000444, 0.000000000000000000 ) ) ;
#231 = FACE_OUTER_BOUND ( 'NONE', #83, .T. ) ;
#232 = DIRECTION ( 'NONE',  ( 0.000000000000000000, 0.000000000000000000, -1.000000000000000000 ) ) ;
#233 = LENGTH_MEASURE_WITH_UNIT ( LENGTH_MEASURE( 0.02539999999999999897 ), #290 );
#234 = EDGE_CURVE ( 'NONE', #63, #59, #186, .T. ) ;
#235 = SURFACE_STYLE_USAGE ( .BOTH. , #150 ) ;
#236 = CIRCLE ( 'NONE', #267, 0.3125000000000000000 ) ;
#237 = AXIS2_PLACEMENT_3D ( 'NONE', #285, #45, #147 ) ;
#238 =( LENGTH_UNIT ( ) NAMED_UNIT ( * ) SI_UNIT ( $, .METRE. ) );
#239 = DIRECTION ( 'NONE',  ( 5.442874662877122010E-17, 1.000000000000000000, -0.000000000000000000 ) ) ;
#240 = FILL_AREA_STYLE_COLOUR ( '', #109 ) ;
#241 =( LENGTH_UNIT ( ) NAMED_UNIT ( * ) SI_UNIT ( $, .METRE. ) );
#242 = AXIS2_PLACEMENT_3D ( 'NONE', #189, #124, #48 ) ;
#243 =( CONVERSION_BASED_UNIT ( 'INCH', #169 ) LENGTH_UNIT ( ) NAMED_UNIT ( #2 ) );
#244 = DIRECTION ( 'NONE',  ( -1.000000000000000000, 0.000000000000000000, 0.000000000000000000 ) ) ;
#245 = PRESENTATION_LAYER_ASSIGNMENT (  '', '', ( #128 ) ) ;
#246 = CARTESIAN_POINT ( 'NONE',  ( -0.3124999999999997224, 3.000000000000000444, 0.000000000000000000 ) ) ;
#247 =( NAMED_UNIT ( * ) SI_UNIT ( $, .STERADIAN. ) SOLID_ANGLE_UNIT ( ) );
#248 = EDGE_CURVE ( 'NONE', #12, #59, #82, .T. ) ;
#249 = UNCERTAINTY_MEASURE_WITH_UNIT (LENGTH_MEASURE( 1.000000000000000082E-05 ), #95, 'distance_accuracy_value', 'NONE');
#250 = ORIENTED_EDGE ( 'NONE', *, *, #55, .F. ) ;
#251 = ORIENTED_EDGE ( 'NONE', *, *, #166, .T. ) ;
#252 = AXIS2_PLACEMENT_3D ( 'NONE', #19, #116, #178 ) ;
#253 = DIRECTION ( 'NONE',  ( -0.000000000000000000, -1.000000000000000000, -0.000000000000000000 ) ) ;
#254 = EDGE_LOOP ( 'NONE', ( #196, #40, #173, #6 ) ) ;
#255 = STYLED_ITEM ( 'NONE', ( #42 ), #105 ) ;
#256 = DIMENSIONAL_EXPONENTS ( 1.000000000000000000, 0.000000000000000000, 0.000000000000000000, 0.000000000000000000, 0.000000000000000000, 0.000000000000000000, 0.000000000000000000 ) ;
#257 = DIRECTION ( 'NONE',  ( -1.000000000000000000, 0.000000000000000000, 0.000000000000000000 ) ) ;
#258 = FILL_AREA_STYLE_COLOUR ( '', #123 ) ;
#259 = CIRCLE ( 'NONE', #298, 0.3125000000000000000 ) ;
#260 = CLOSED_SHELL ( 'NONE', ( #265, #229, #304, #140 ) ) ;
#261 = DIRECTION ( 'NONE',  ( 1.000000000000000000, -5.442874662877122010E-17, 0.000000000000000000 ) ) ;
#262 =( NAMED_UNIT ( * ) SI_UNIT ( $, .STERADIAN. ) SOLID_ANGLE_UNIT ( ) );
#263 = CARTESIAN_POINT ( 'NONE',  ( 1.224646799147352714E-16, 3.000000000000000444, 0.000000000000000000 ) ) ;
#264 = CARTESIAN_POINT ( 'NONE',  ( -1.516480271171051896E-32, 0.7499999999999998890, 0.000000000000000000 ) ) ;
#265 = ADVANCED_FACE ( 'NONE', ( #72 ), #183, .T. ) ;
#266 =( NAMED_UNIT ( * ) SI_UNIT ( $, .STERADIAN. ) SOLID_ANGLE_UNIT ( ) );
#267 = AXIS2_PLACEMENT_3D ( 'NONE', #27, #135, #197 ) ;
#268 = EDGE_CURVE ( 'NONE', #110, #36, #25, .T. ) ;
#269 = FACE_OUTER_BOUND ( 'NONE', #297, .T. ) ;
#270 = EDGE_LOOP ( 'NONE', ( #192, #85, #175, #274 ) ) ;
#271 = FILL_AREA_STYLE ('',( #103 ) ) ;
#272 =( NAMED_UNIT ( * ) PLANE_ANGLE_UNIT ( ) SI_UNIT ( $, .RADIAN. ) );
#273 = PRODUCT_DEFINITION_SHAPE ( 'NONE', 'NONE',  #84 ) ;
#274 = ORIENTED_EDGE ( 'NONE', *, *, #214, .F. ) ;
#275 = FACE_OUTER_BOUND ( 'NONE', #254, .T. ) ;
#276 = CLOSED_SHELL ( 'NONE', ( #159, #78, #105, #61 ) ) ;
#277 = VERTEX_POINT ( 'NONE', #187 ) ;
#278 = STYLED_ITEM ( 'NONE', ( #299 ), #167 ) ;
#279 = SURFACE_STYLE_FILL_AREA ( #177 ) ;
#280 = SURFACE_STYLE_USAGE ( .BOTH. , #94 ) ;
#281 = SURFACE_SIDE_STYLE ('',( #279 ) ) ;
#282 =( LENGTH_UNIT ( ) NAMED_UNIT ( * ) SI_UNIT ( $, .METRE. ) );
#283 = CARTESIAN_POINT ( 'NONE',  ( 0.000000000000000000, 0.000000000000000000, 0.000000000000000000 ) ) ;
#284 = SHAPE_DEFINITION_REPRESENTATION ( #273, #227 ) ;
#285 = CARTESIAN_POINT ( 'NONE',  ( 1.224646799147352714E-16, 3.000000000000000444, 0.000000000000000000 ) ) ;
#286 = SURFACE_STYLE_FILL_AREA ( #120 ) ;
#287 = DIRECTION ( 'NONE',  ( 5.442874662877122010E-17, 1.000000000000000000, -0.000000000000000000 ) ) ;
#288 = STYLED_ITEM ( 'NONE', ( #24 ), #163 ) ;
#289 = LENGTH_MEASURE_WITH_UNIT ( LENGTH_MEASURE( 0.02539999999999999897 ), #241 );
#290 =( LENGTH_UNIT ( ) NAMED_UNIT ( * ) SI_UNIT ( $, .METRE. ) );
#291 = EDGE_CURVE ( 'NONE', #59, #12, #219, .T. ) ;
#292 = DIRECTION ( 'NONE',  ( -1.000000000000000000, 0.000000000000000000, 0.000000000000000000 ) ) ;
#293 = UNCERTAINTY_MEASURE_WITH_UNIT (LENGTH_MEASURE( 1.000000000000000082E-05 ), #81, 'distance_accuracy_value', 'NONE');
#294 = PRESENTATION_LAYER_ASSIGNMENT (  '', '', ( #303 ) ) ;
#295 = CYLINDRICAL_SURFACE ( 'NONE', #195, 0.3125000000000000000 ) ;
#296 = PRESENTATION_STYLE_ASSIGNMENT (( #104 ) ) ;
#297 = EDGE_LOOP ( 'NONE', ( #7, #157 ) ) ;
#298 = AXIS2_PLACEMENT_3D ( 'NONE', #137, #222, #232 ) ;
#299 = PRESENTATION_STYLE_ASSIGNMENT (( #31 ) ) ;
#300 = DIRECTION ( 'NONE',  ( 0.000000000000000000, -0.000000000000000000, 1.000000000000000000 ) ) ;
#301 = CARTESIAN_POINT ( 'NONE',  ( 0.3125000000000000000, 0.7499999999999998890, 3.827021247335477694E-17 ) ) ;
#302 = CIRCLE ( 'NONE', #252, 0.3125000000000000000 ) ;
#303 = STYLED_ITEM ( 'NONE', ( #68 ), #78 ) ;
#304 = ADVANCED_FACE ( 'NONE', ( #91 ), #98, .T. ) ;
#305 = LENGTH_MEASURE_WITH_UNIT ( LENGTH_MEASURE( 0.02539999999999999897 ), #282 );
#306 =( GEOMETRIC_REPRESENTATION_CONTEXT ( 3 ) GLOBAL_UNCERTAINTY_ASSIGNED_CONTEXT ( ( #29 ) ) GLOBAL_UNIT_ASSIGNED_CONTEXT ( ( #46, #148, #151 ) ) REPRESENTATION_CONTEXT ( 'NONE', 'WORKASPACE' ) );
#307 = DIRECTION ( 'NONE',  ( -1.000000000000000000, 0.000000000000000000, 0.000000000000000000 ) ) ;
#308 = DIMENSIONAL_EXPONENTS ( 1.000000000000000000, 0.000000000000000000, 0.000000000000000000, 0.000000000000000000, 0.000000000000000000, 0.000000000000000000, 0.000000000000000000 ) ;
#309 = SURFACE_SIDE_STYLE ('',( #286 ) ) ;
ENDSEC;
END-ISO-10303-21;
