ISO-10303-21;
HEADER;
FILE_DESCRIPTION (( 'STEP AP214' ),
    '1' );
FILE_NAME ('Micro_MMBM-030-15.STEP',
    '2021-09-03T16:33:04',
    ( '' ),
    ( '' ),
    'SwSTEP 2.0',
    'SolidWorks 2020',
    '' );
FILE_SCHEMA (( 'AUTOMOTIVE_DESIGN' ));
ENDSEC;

DATA;
#1 = DIRECTION ( 'NONE',  ( 1.000000000000000000, 0.0000000000000000000, -0.0000000000000000000 ) ) ;
#2 = AXIS2_PLACEMENT_3D ( 'NONE', #316, #189, #261 ) ;
#3 = DIRECTION ( 'NONE',  ( -0.0000000000000000000, -0.0000000000000000000, -1.000000000000000000 ) ) ;
#4 = LINE ( 'NONE', #65, #290 ) ;
#5 = CARTESIAN_POINT ( 'NONE',  ( 0.0000000000000000000, 0.0000000000000000000, 2.244094000000000033 ) ) ;
#6 = VERTEX_POINT ( 'NONE', #348 ) ;
#7 = DIRECTION ( 'NONE',  ( -1.000000000000000000, 0.0000000000000000000, 0.0000000000000000000 ) ) ;
#8 = ORIENTED_EDGE ( 'NONE', *, *, #280, .T. ) ;
#9 = DIMENSIONAL_EXPONENTS ( 1.000000000000000000, 0.0000000000000000000, 0.0000000000000000000, 0.0000000000000000000, 0.0000000000000000000, 0.0000000000000000000, 0.0000000000000000000 ) ;
#10 = CARTESIAN_POINT ( 'NONE',  ( 0.0000000000000000000, 0.0000000000000000000, 2.229093999999999465 ) ) ;
#11 = FILL_AREA_STYLE ('',( #197 ) ) ;
#12 = ORIENTED_EDGE ( 'NONE', *, *, #151, .F. ) ;
#13 = CIRCLE ( 'NONE', #68, 0.05904909450000001003 ) ;
#14 = EDGE_LOOP ( 'NONE', ( #44, #164, #196, #256 ) ) ;
#15 = ADVANCED_FACE ( 'NONE', ( #23, #29 ), #146, .T. ) ;
#16 = DIRECTION ( 'NONE',  ( -1.000000000000000000, 0.0000000000000000000, 0.0000000000000000000 ) ) ;
#17 = APPLICATION_CONTEXT ( 'automotive_design' ) ;
#18 = CARTESIAN_POINT ( 'NONE',  ( -0.1031100000000002570, 0.0000000000000000000, 2.244094000000000033 ) ) ;
#19 = EDGE_LOOP ( 'NONE', ( #340, #74 ) ) ;
#20 = ORIENTED_EDGE ( 'NONE', *, *, #49, .T. ) ;
#21 = COLOUR_RGB ( '',0.7921568627450980005, 0.8196078431372548767, 0.9333333333333333481 ) ;
#22 = CARTESIAN_POINT ( 'NONE',  ( 0.05904909450000001003, 7.231428457197458695E-18, 0.1181100000000000066 ) ) ;
#23 = FACE_BOUND ( 'NONE', #43, .T. ) ;
#24 = PLANE ( 'NONE',  #306 ) ;
#25 = AXIS2_PLACEMENT_3D ( 'NONE', #171, #173, #47 ) ;
#26 = SHAPE_DEFINITION_REPRESENTATION ( #327, #375 ) ;
#27 = CARTESIAN_POINT ( 'NONE',  ( -0.05708650000000008162, 0.0000000000000000000, 0.5905510000000000481 ) ) ;
#28 =( LENGTH_UNIT ( ) NAMED_UNIT ( * ) SI_UNIT ( $, .METRE. ) );
#29 = FACE_OUTER_BOUND ( 'NONE', #19, .T. ) ;
#30 = ORIENTED_EDGE ( 'NONE', *, *, #181, .T. ) ;
#31 = CYLINDRICAL_SURFACE ( 'NONE', #155, 0.1181100000000000066 ) ;
#32 = AXIS2_PLACEMENT_3D ( 'NONE', #5, #302, #184 ) ;
#33 = LINE ( 'NONE', #123, #140 ) ;
#34 = CARTESIAN_POINT ( 'NONE',  ( -0.05904909450000001003, 0.0000000000000000000, 0.1181100000000000066 ) ) ;
#35 = APPLICATION_CONTEXT ( 'automotive_design' ) ;
#36 = CARTESIAN_POINT ( 'NONE',  ( -0.1181100000000000066, 0.0000000000000000000, 0.5905510000000000481 ) ) ;
#37 = AXIS2_PLACEMENT_3D ( 'NONE', #246, #215, #7 ) ;
#38 = PRESENTATION_STYLE_ASSIGNMENT (( #161 ) ) ;
#39 = ORIENTED_EDGE ( 'NONE', *, *, #84, .F. ) ;
#40 = EDGE_LOOP ( 'NONE', ( #310, #8, #227, #198 ) ) ;
#41 = ADVANCED_FACE ( 'NONE', ( #117 ), #349, .T. ) ;
#42 = DIRECTION ( 'NONE',  ( -0.0000000000000000000, -0.0000000000000000000, -1.000000000000000000 ) ) ;
#43 = EDGE_LOOP ( 'NONE', ( #108, #110 ) ) ;
#44 = ORIENTED_EDGE ( 'NONE', *, *, #303, .T. ) ;
#45 = LINE ( 'NONE', #222, #126 ) ;
#46 = ORIENTED_EDGE ( 'NONE', *, *, #86, .F. ) ;
#47 = DIRECTION ( 'NONE',  ( 1.000000000000000000, 0.0000000000000000000, 0.0000000000000000000 ) ) ;
#48 = VERTEX_POINT ( 'NONE', #22 ) ;
#49 = EDGE_CURVE ( 'NONE', #317, #81, #179, .T. ) ;
#50 = DIRECTION ( 'NONE',  ( 0.0000000000000000000, 0.0000000000000000000, 1.000000000000000000 ) ) ;
#51 = PRESENTATION_STYLE_ASSIGNMENT (( #267 ) ) ;
#52 = LINE ( 'NONE', #294, #67 ) ;
#53 = ADVANCED_FACE ( 'NONE', ( #240 ), #323, .T. ) ;
#54 = FILL_AREA_STYLE_COLOUR ( '', #131 ) ;
#55 = CARTESIAN_POINT ( 'NONE',  ( 0.0000000000000000000, 0.0000000000000000000, 0.0000000000000000000 ) ) ;
#56 = MECHANICAL_DESIGN_GEOMETRIC_PRESENTATION_REPRESENTATION (  '', ( #378 ), #145 ) ;
#57 = DIRECTION ( 'NONE',  ( -1.000000000000000000, 0.0000000000000000000, 0.0000000000000000000 ) ) ;
#58 = LINE ( 'NONE', #170, #154 ) ;
#59 = UNCERTAINTY_MEASURE_WITH_UNIT (LENGTH_MEASURE( 1.000000000000000082E-05 ), #238, 'distance_accuracy_value', 'NONE');
#60 = DIRECTION ( 'NONE',  ( -1.000000000000000000, 0.0000000000000000000, 0.0000000000000000000 ) ) ;
#61 = PRODUCT_RELATED_PRODUCT_CATEGORY ( 'part', '', ( #188 ) ) ;
#62 = VECTOR ( 'NONE', #91, 39.37007874015748143 ) ;
#63 = CIRCLE ( 'NONE', #210, 0.05708650000000008162 ) ;
#64 = DIRECTION ( 'NONE',  ( 1.000000000000000000, 0.0000000000000000000, 0.0000000000000000000 ) ) ;
#65 = CARTESIAN_POINT ( 'NONE',  ( 0.05904909450000001003, 7.231428457197458695E-18, 0.1181100000000000066 ) ) ;
#66 = CARTESIAN_POINT ( 'NONE',  ( 0.0000000000000000000, 0.0000000000000000000, 2.244094000000000033 ) ) ;
#67 = VECTOR ( 'NONE', #144, 39.37007874015748143 ) ;
#68 = AXIS2_PLACEMENT_3D ( 'NONE', #102, #42, #78 ) ;
#69 = ADVANCED_FACE ( 'NONE', ( #209 ), #292, .T. ) ;
#70 = DIRECTION ( 'NONE',  ( -0.7071067811865358044, 0.0000000000000000000, -0.7071067811865590080 ) ) ;
#71 = VERTEX_POINT ( 'NONE', #27 ) ;
#72 = ADVANCED_FACE ( 'NONE', ( #297 ), #324, .T. ) ;
#73 = ORIENTED_EDGE ( 'NONE', *, *, #239, .T. ) ;
#74 = ORIENTED_EDGE ( 'NONE', *, *, #84, .T. ) ;
#75 = AXIS2_PLACEMENT_3D ( 'NONE', #236, #207, #351 ) ;
#76 =( LENGTH_UNIT ( ) NAMED_UNIT ( * ) SI_UNIT ( $, .METRE. ) );
#77 = ORIENTED_EDGE ( 'NONE', *, *, #303, .F. ) ;
#78 = DIRECTION ( 'NONE',  ( -1.000000000000000000, 0.0000000000000000000, 0.0000000000000000000 ) ) ;
#79 = ORIENTED_EDGE ( 'NONE', *, *, #368, .T. ) ;
#80 = VERTEX_POINT ( 'NONE', #270 ) ;
#81 = VERTEX_POINT ( 'NONE', #114 ) ;
#82 = CARTESIAN_POINT ( 'NONE',  ( 0.0000000000000000000, 0.0000000000000000000, 2.244094000000000033 ) ) ;
#83 = CIRCLE ( 'NONE', #373, 0.05904909450000001003 ) ;
#84 = EDGE_CURVE ( 'NONE', #365, #157, #228, .T. ) ;
#85 = DIRECTION ( 'NONE',  ( -1.000000000000000000, 0.0000000000000000000, 0.0000000000000000000 ) ) ;
#86 = EDGE_CURVE ( 'NONE', #71, #81, #205, .T. ) ;
#87 = CARTESIAN_POINT ( 'NONE',  ( 0.0000000000000000000, 0.0000000000000000000, 0.1292404265071317171 ) ) ;
#88 = ORIENTED_EDGE ( 'NONE', *, *, #214, .T. ) ;
#89 = AXIS2_PLACEMENT_3D ( 'NONE', #55, #241, #174 ) ;
#90 = CIRCLE ( 'NONE', #187, 0.05708650000000008162 ) ;
#91 = DIRECTION ( 'NONE',  ( -0.0000000000000000000, -0.0000000000000000000, -1.000000000000000000 ) ) ;
#92 = DIRECTION ( 'NONE',  ( -0.0000000000000000000, -0.0000000000000000000, -1.000000000000000000 ) ) ;
#93 = CARTESIAN_POINT ( 'NONE',  ( 0.0000000000000000000, 0.0000000000000000000, 0.1292404265071317171 ) ) ;
#94 = AXIS2_PLACEMENT_3D ( 'NONE', #82, #204, #320 ) ;
#95 = DIRECTION ( 'NONE',  ( -0.1736481776669296095, 0.0000000000000000000, -0.9848077530122082424 ) ) ;
#96 = ADVANCED_FACE ( 'NONE', ( #298 ), #24, .F. ) ;
#97 = FACE_OUTER_BOUND ( 'NONE', #312, .T. ) ;
#98 = DIRECTION ( 'NONE',  ( 0.0000000000000000000, 0.0000000000000000000, -1.000000000000000000 ) ) ;
#99 = AXIS2_PLACEMENT_3D ( 'NONE', #87, #269, #353 ) ;
#100 = LENGTH_MEASURE_WITH_UNIT ( LENGTH_MEASURE( 0.02539999999999999897 ), #76 );
#101 = EDGE_LOOP ( 'NONE', ( #160, #211, #250, #46 ) ) ;
#102 = CARTESIAN_POINT ( 'NONE',  ( 0.0000000000000000000, 0.0000000000000000000, 0.1181100000000000066 ) ) ;
#103 = PRODUCT_DEFINITION ( 'UNKNOWN', '', #248, #237 ) ;
#104 = ORIENTED_EDGE ( 'NONE', *, *, #122, .F. ) ;
#105 = ORIENTED_EDGE ( 'NONE', *, *, #185, .T. ) ;
#106 = CIRCLE ( 'NONE', #364, 0.1031100000000002570 ) ;
#107 =( NAMED_UNIT ( * ) PLANE_ANGLE_UNIT ( ) SI_UNIT ( $, .RADIAN. ) );
#108 = ORIENTED_EDGE ( 'NONE', *, *, #342, .F. ) ;
#109 = LENGTH_MEASURE_WITH_UNIT ( LENGTH_MEASURE( 0.02539999999999999897 ), #165 );
#110 = ORIENTED_EDGE ( 'NONE', *, *, #208, .F. ) ;
#111 = EDGE_CURVE ( 'NONE', #157, #365, #343, .T. ) ;
#112 = APPLICATION_PROTOCOL_DEFINITION ( 'draft international standard', 'automotive_design', 1998, #17 ) ;
#113 = ORIENTED_EDGE ( 'NONE', *, *, #181, .F. ) ;
#114 = CARTESIAN_POINT ( 'NONE',  ( -0.05708650000000001917, 0.0000000000000000000, 0.1292404265071317171 ) ) ;
#115 = VECTOR ( 'NONE', #285, 39.37007874015748143 ) ;
#116 = PRODUCT_CONTEXT ( 'NONE', #17, 'mechanical' ) ;
#117 = FACE_OUTER_BOUND ( 'NONE', #191, .T. ) ;
#118 = CARTESIAN_POINT ( 'NONE',  ( 0.0000000000000000000, 0.0000000000000000000, 0.0000000000000000000 ) ) ;
#119 = DIRECTION ( 'NONE',  ( -1.000000000000000000, 0.0000000000000000000, 0.0000000000000000000 ) ) ;
#120 = EDGE_CURVE ( 'NONE', #201, #365, #58, .T. ) ;
#121 = FACE_OUTER_BOUND ( 'NONE', #315, .T. ) ;
#122 = EDGE_CURVE ( 'NONE', #80, #157, #52, .T. ) ;
#123 = CARTESIAN_POINT ( 'NONE',  ( -0.05904909450000001003, 0.0000000000000000000, 0.0000000000000000000 ) ) ;
#124 = CARTESIAN_POINT ( 'NONE',  ( 0.1181100000000000066, 1.446430334472939084E-17, 2.229093999999999465 ) ) ;
#125 = AXIS2_PLACEMENT_3D ( 'NONE', #93, #275, #152 ) ;
#126 = VECTOR ( 'NONE', #257, 39.37007874015748143 ) ;
#127 = DIRECTION ( 'NONE',  ( 0.1736481776669296095, 2.126576849575762362E-17, -0.9848077530122082424 ) ) ;
#128 = DIRECTION ( 'NONE',  ( -1.000000000000000000, 0.0000000000000000000, 0.0000000000000000000 ) ) ;
#129 =( CONVERSION_BASED_UNIT ( 'INCH', #100 ) LENGTH_UNIT ( ) NAMED_UNIT ( #186 ) );
#130 = ORIENTED_EDGE ( 'NONE', *, *, #120, .T. ) ;
#131 = COLOUR_RGB ( '',0.7921568627450980005, 0.8196078431372548767, 0.9333333333333333481 ) ;
#132 = ORIENTED_EDGE ( 'NONE', *, *, #111, .F. ) ;
#133 = LINE ( 'NONE', #339, #115 ) ;
#134 = ORIENTED_EDGE ( 'NONE', *, *, #208, .T. ) ;
#135 = EDGE_CURVE ( 'NONE', #81, #317, #259, .T. ) ;
#136 = CARTESIAN_POINT ( 'NONE',  ( 0.05708650000000001917, 7.111254203575000753E-18, 0.1292404265071317171 ) ) ;
#137 = ORIENTED_EDGE ( 'NONE', *, *, #120, .F. ) ;
#138 = CLOSED_SHELL ( 'NONE', ( #234, #72, #41, #53, #158, #361, #169, #194, #15, #243, #244, #69, #96 ) ) ;
#139 = SURFACE_STYLE_FILL_AREA ( #11 ) ;
#140 = VECTOR ( 'NONE', #153, 39.37007874015748143 ) ;
#141 = VERTEX_POINT ( 'NONE', #245 ) ;
#142 = DIRECTION ( 'NONE',  ( -0.0000000000000000000, -0.0000000000000000000, -1.000000000000000000 ) ) ;
#143 = EDGE_CURVE ( 'NONE', #254, #347, #106, .T. ) ;
#144 = DIRECTION ( 'NONE',  ( -0.0000000000000000000, -0.0000000000000000000, -1.000000000000000000 ) ) ;
#145 =( GEOMETRIC_REPRESENTATION_CONTEXT ( 3 ) GLOBAL_UNCERTAINTY_ASSIGNED_CONTEXT ( ( #59 ) ) GLOBAL_UNIT_ASSIGNED_CONTEXT ( ( #238, #318, #352 ) ) REPRESENTATION_CONTEXT ( 'NONE', 'WORKASPACE' ) );
#146 = PLANE ( 'NONE',  #220 ) ;
#147 = DIRECTION ( 'NONE',  ( 1.000000000000000000, 0.0000000000000000000, 0.0000000000000000000 ) ) ;
#148 = AXIS2_PLACEMENT_3D ( 'NONE', #118, #322, #57 ) ;
#149 =( GEOMETRIC_REPRESENTATION_CONTEXT ( 3 ) GLOBAL_UNCERTAINTY_ASSIGNED_CONTEXT ( ( #212 ) ) GLOBAL_UNIT_ASSIGNED_CONTEXT ( ( #230, #200, #354 ) ) REPRESENTATION_CONTEXT ( 'NONE', 'WORKASPACE' ) );
#150 = FACE_OUTER_BOUND ( 'NONE', #223, .T. ) ;
#151 = EDGE_CURVE ( 'NONE', #317, #48, #4, .T. ) ;
#152 = DIRECTION ( 'NONE',  ( -1.000000000000000000, 0.0000000000000000000, 0.0000000000000000000 ) ) ;
#153 = DIRECTION ( 'NONE',  ( -0.0000000000000000000, -0.0000000000000000000, -1.000000000000000000 ) ) ;
#154 = VECTOR ( 'NONE', #263, 39.37007874015748143 ) ;
#155 = AXIS2_PLACEMENT_3D ( 'NONE', #182, #218, #60 ) ;
#156 = DIRECTION ( 'NONE',  ( -0.0000000000000000000, -0.0000000000000000000, -1.000000000000000000 ) ) ;
#157 = VERTEX_POINT ( 'NONE', #36 ) ;
#158 = ADVANCED_FACE ( 'NONE', ( #299 ), #31, .T. ) ;
#159 = LINE ( 'NONE', #18, #175 ) ;
#160 = ORIENTED_EDGE ( 'NONE', *, *, #342, .T. ) ;
#161 = SURFACE_STYLE_USAGE ( .BOTH. , #311 ) ;
#162 = VERTEX_POINT ( 'NONE', #359 ) ;
#163 = CARTESIAN_POINT ( 'NONE',  ( 0.0000000000000000000, 0.0000000000000000000, 0.1181100000000000066 ) ) ;
#164 = ORIENTED_EDGE ( 'NONE', *, *, #325, .T. ) ;
#165 =( LENGTH_UNIT ( ) NAMED_UNIT ( * ) SI_UNIT ( $, .METRE. ) );
#166 = ORIENTED_EDGE ( 'NONE', *, *, #300, .T. ) ;
#167 = MECHANICAL_DESIGN_GEOMETRIC_PRESENTATION_REPRESENTATION (  '', ( #242 ), #313 ) ;
#168 = ORIENTED_EDGE ( 'NONE', *, *, #224, .F. ) ;
#169 = ADVANCED_FACE ( 'NONE', ( #150 ), #276, .T. ) ;
#170 = CARTESIAN_POINT ( 'NONE',  ( 0.1181100000000000066, 1.446430334472939084E-17, 2.244094000000000033 ) ) ;
#171 = CARTESIAN_POINT ( 'NONE',  ( 0.0000000000000000000, 0.0000000000000000000, 0.0000000000000000000 ) ) ;
#172 = CARTESIAN_POINT ( 'NONE',  ( 0.0000000000000000000, 0.0000000000000000000, 0.1181100000000000066 ) ) ;
#173 = DIRECTION ( 'NONE',  ( 0.0000000000000000000, 0.0000000000000000000, 1.000000000000000000 ) ) ;
#174 = DIRECTION ( 'NONE',  ( -1.000000000000000000, 0.0000000000000000000, 0.0000000000000000000 ) ) ;
#175 = VECTOR ( 'NONE', #70, 39.37007874015748854 ) ;
#176 = CARTESIAN_POINT ( 'NONE',  ( -0.05708650000000004693, 0.0000000000000000000, 0.0000000000000000000 ) ) ;
#177 = LINE ( 'NONE', #34, #268 ) ;
#178 = DIRECTION ( 'NONE',  ( 0.0000000000000000000, 0.0000000000000000000, -1.000000000000000000 ) ) ;
#179 = CIRCLE ( 'NONE', #99, 0.05708650000000001917 ) ;
#180 = CONICAL_SURFACE ( 'NONE', #32, 0.1031100000000002570, 0.7853981633974318477 ) ;
#181 = EDGE_CURVE ( 'NONE', #81, #162, #177, .T. ) ;
#182 = CARTESIAN_POINT ( 'NONE',  ( 0.0000000000000000000, 0.0000000000000000000, 2.244094000000000033 ) ) ;
#183 = CARTESIAN_POINT ( 'NONE',  ( 0.0000000000000000000, 0.0000000000000000000, 0.5905510000000000481 ) ) ;
#184 = DIRECTION ( 'NONE',  ( -1.000000000000000000, 0.0000000000000000000, 0.0000000000000000000 ) ) ;
#185 = EDGE_CURVE ( 'NONE', #80, #201, #355, .T. ) ;
#186 = DIMENSIONAL_EXPONENTS ( 1.000000000000000000, 0.0000000000000000000, 0.0000000000000000000, 0.0000000000000000000, 0.0000000000000000000, 0.0000000000000000000, 0.0000000000000000000 ) ;
#187 = AXIS2_PLACEMENT_3D ( 'NONE', #183, #156, #277 ) ;
#188 = PRODUCT ( 'Micro_MMBM-030-15', 'Micro_MMBM-030-15', '', ( #116 ) ) ;
#189 = DIRECTION ( 'NONE',  ( -0.0000000000000000000, -0.0000000000000000000, -1.000000000000000000 ) ) ;
#190 = DIRECTION ( 'NONE',  ( 0.7071067811865358044, 8.659560562354788645E-17, -0.7071067811865590080 ) ) ;
#191 = EDGE_LOOP ( 'NONE', ( #367, #321, #77, #113 ) ) ;
#192 = CARTESIAN_POINT ( 'NONE',  ( 0.0000000000000000000, 0.0000000000000000000, 0.5905510000000000481 ) ) ;
#193 = ORIENTED_EDGE ( 'NONE', *, *, #49, .F. ) ;
#194 = ADVANCED_FACE ( 'NONE', ( #97 ), #180, .T. ) ;
#195 = AXIS2_PLACEMENT_3D ( 'NONE', #272, #217, #360 ) ;
#196 = ORIENTED_EDGE ( 'NONE', *, *, #231, .F. ) ;
#197 = FILL_AREA_STYLE_COLOUR ( '', #21 ) ;
#198 = ORIENTED_EDGE ( 'NONE', *, *, #279, .F. ) ;
#199 = UNCERTAINTY_MEASURE_WITH_UNIT (LENGTH_MEASURE( 1.000000000000000082E-05 ), #129, 'distance_accuracy_value', 'NONE');
#200 =( NAMED_UNIT ( * ) PLANE_ANGLE_UNIT ( ) SI_UNIT ( $, .RADIAN. ) );
#201 = VERTEX_POINT ( 'NONE', #124 ) ;
#202 = SURFACE_STYLE_FILL_AREA ( #233 ) ;
#203 = AXIS2_PLACEMENT_3D ( 'NONE', #308, #226, #369 ) ;
#204 = DIRECTION ( 'NONE',  ( 0.0000000000000000000, 0.0000000000000000000, -1.000000000000000000 ) ) ;
#205 = LINE ( 'NONE', #176, #62 ) ;
#206 = SURFACE_SIDE_STYLE ('',( #202 ) ) ;
#207 = DIRECTION ( 'NONE',  ( -0.0000000000000000000, -0.0000000000000000000, -1.000000000000000000 ) ) ;
#208 = EDGE_CURVE ( 'NONE', #6, #71, #90, .T. ) ;
#209 = FACE_OUTER_BOUND ( 'NONE', #374, .T. ) ;
#210 = AXIS2_PLACEMENT_3D ( 'NONE', #192, #281, #363 ) ;
#211 = ORIENTED_EDGE ( 'NONE', *, *, #331, .T. ) ;
#212 = UNCERTAINTY_MEASURE_WITH_UNIT (LENGTH_MEASURE( 1.000000000000000082E-05 ), #230, 'distance_accuracy_value', 'NONE');
#213 = DIRECTION ( 'NONE',  ( -1.000000000000000000, 0.0000000000000000000, 0.0000000000000000000 ) ) ;
#214 = EDGE_CURVE ( 'NONE', #141, #262, #83, .T. ) ;
#215 = DIRECTION ( 'NONE',  ( -0.0000000000000000000, -0.0000000000000000000, -1.000000000000000000 ) ) ;
#216 = PRESENTATION_LAYER_ASSIGNMENT (  '', '', ( #378 ) ) ;
#217 = DIRECTION ( 'NONE',  ( -0.0000000000000000000, -0.0000000000000000000, -1.000000000000000000 ) ) ;
#218 = DIRECTION ( 'NONE',  ( -0.0000000000000000000, -0.0000000000000000000, -1.000000000000000000 ) ) ;
#219 = CYLINDRICAL_SURFACE ( 'NONE', #350, 0.05904909450000001003 ) ;
#220 = AXIS2_PLACEMENT_3D ( 'NONE', #356, #379, #85 ) ;
#221 = AXIS2_PLACEMENT_3D ( 'NONE', #251, #98, #147 ) ;
#222 = CARTESIAN_POINT ( 'NONE',  ( 0.05708650000000004693, 6.991079949952542812E-18, 0.0000000000000000000 ) ) ;
#223 = EDGE_LOOP ( 'NONE', ( #338, #79 ) ) ;
#224 = EDGE_CURVE ( 'NONE', #201, #80, #260, .T. ) ;
#225 = ORIENTED_EDGE ( 'NONE', *, *, #143, .F. ) ;
#226 = DIRECTION ( 'NONE',  ( 0.0000000000000000000, 0.0000000000000000000, 1.000000000000000000 ) ) ;
#227 = ORIENTED_EDGE ( 'NONE', *, *, #185, .F. ) ;
#228 = CIRCLE ( 'NONE', #75, 0.1181100000000000066 ) ;
#229 = CARTESIAN_POINT ( 'NONE',  ( 0.1031100000000002570, 1.354581824536888722E-17, 2.244094000000000033 ) ) ;
#230 =( CONVERSION_BASED_UNIT ( 'INCH', #109 ) LENGTH_UNIT ( ) NAMED_UNIT ( #278 ) );
#231 = EDGE_CURVE ( 'NONE', #262, #141, #296, .T. ) ;
#232 = ORIENTED_EDGE ( 'NONE', *, *, #214, .F. ) ;
#233 = FILL_AREA_STYLE ('',( #54 ) ) ;
#234 = ADVANCED_FACE ( 'NONE', ( #301 ), #219, .T. ) ;
#235 = CIRCLE ( 'NONE', #344, 0.05904909450000001003 ) ;
#236 = CARTESIAN_POINT ( 'NONE',  ( 0.0000000000000000000, 0.0000000000000000000, 0.5905510000000000481 ) ) ;
#237 = PRODUCT_DEFINITION_CONTEXT ( 'detailed design', #35, 'design' ) ;
#238 =( CONVERSION_BASED_UNIT ( 'INCH', #264 ) LENGTH_UNIT ( ) NAMED_UNIT ( #9 ) );
#239 = EDGE_CURVE ( 'NONE', #162, #262, #33, .T. ) ;
#240 = FACE_OUTER_BOUND ( 'NONE', #40, .T. ) ;
#241 = DIRECTION ( 'NONE',  ( -0.0000000000000000000, -0.0000000000000000000, -1.000000000000000000 ) ) ;
#242 = STYLED_ITEM ( 'NONE', ( #38 ), #287 ) ;
#243 = ADVANCED_FACE ( 'NONE', ( #358 ), #291, .T. ) ;
#244 = ADVANCED_FACE ( 'NONE', ( #121 ), #329, .T. ) ;
#245 = CARTESIAN_POINT ( 'NONE',  ( 0.05904909450000001003, 7.231428457197458695E-18, 0.0000000000000000000 ) ) ;
#246 = CARTESIAN_POINT ( 'NONE',  ( 0.0000000000000000000, 0.0000000000000000000, 0.1181100000000000066 ) ) ;
#247 = DIRECTION ( 'NONE',  ( 0.0000000000000000000, 0.0000000000000000000, 1.000000000000000000 ) ) ;
#248 = PRODUCT_DEFINITION_FORMATION_WITH_SPECIFIED_SOURCE ( 'ANY', '', #188, .NOT_KNOWN. ) ;
#249 = CARTESIAN_POINT ( 'NONE',  ( 0.0000000000000000000, 0.0000000000000000000, 0.0000000000000000000 ) ) ;
#250 = ORIENTED_EDGE ( 'NONE', *, *, #135, .F. ) ;
#251 = CARTESIAN_POINT ( 'NONE',  ( 0.0000000000000000000, 0.0000000000000000000, 2.229093999999999465 ) ) ;
#252 =( NAMED_UNIT ( * ) SI_UNIT ( $, .STERADIAN. ) SOLID_ANGLE_UNIT ( ) );
#253 = EDGE_LOOP ( 'NONE', ( #12, #20, #30, #284 ) ) ;
#254 = VERTEX_POINT ( 'NONE', #328 ) ;
#255 = CARTESIAN_POINT ( 'NONE',  ( 0.1181100000000000066, 1.446430334472939084E-17, 0.5905510000000000481 ) ) ;
#256 = ORIENTED_EDGE ( 'NONE', *, *, #239, .F. ) ;
#257 = DIRECTION ( 'NONE',  ( -0.0000000000000000000, -0.0000000000000000000, -1.000000000000000000 ) ) ;
#258 = ORIENTED_EDGE ( 'NONE', *, *, #231, .T. ) ;
#259 = CIRCLE ( 'NONE', #125, 0.05708650000000001917 ) ;
#260 = CIRCLE ( 'NONE', #221, 0.1181100000000000066 ) ;
#261 = DIRECTION ( 'NONE',  ( -1.000000000000000000, 0.0000000000000000000, 0.0000000000000000000 ) ) ;
#262 = VERTEX_POINT ( 'NONE', #314 ) ;
#263 = DIRECTION ( 'NONE',  ( -0.0000000000000000000, -0.0000000000000000000, -1.000000000000000000 ) ) ;
#264 = LENGTH_MEASURE_WITH_UNIT ( LENGTH_MEASURE( 0.02539999999999999897 ), #28 );
#265 = DIRECTION ( 'NONE',  ( -0.0000000000000000000, -0.0000000000000000000, -1.000000000000000000 ) ) ;
#266 = AXIS2_PLACEMENT_3D ( 'NONE', #172, #265, #377 ) ;
#267 = SURFACE_STYLE_USAGE ( .BOTH. , #206 ) ;
#268 = VECTOR ( 'NONE', #95, 39.37007874015748143 ) ;
#269 = DIRECTION ( 'NONE',  ( -0.0000000000000000000, -0.0000000000000000000, -1.000000000000000000 ) ) ;
#270 = CARTESIAN_POINT ( 'NONE',  ( -0.1181100000000000066, 0.0000000000000000000, 2.229093999999999465 ) ) ;
#271 = CARTESIAN_POINT ( 'NONE',  ( 0.0000000000000000000, 0.0000000000000000000, 0.0000000000000000000 ) ) ;
#272 = CARTESIAN_POINT ( 'NONE',  ( 0.0000000000000000000, 0.0000000000000000000, 0.0000000000000000000 ) ) ;
#273 = AXIS2_PLACEMENT_3D ( 'NONE', #357, #92, #213 ) ;
#274 = CARTESIAN_POINT ( 'NONE',  ( 0.0000000000000000000, 0.0000000000000000000, 2.244094000000000033 ) ) ;
#275 = DIRECTION ( 'NONE',  ( -0.0000000000000000000, -0.0000000000000000000, -1.000000000000000000 ) ) ;
#276 = PLANE ( 'NONE',  #335 ) ;
#277 = DIRECTION ( 'NONE',  ( -1.000000000000000000, 0.0000000000000000000, 0.0000000000000000000 ) ) ;
#278 = DIMENSIONAL_EXPONENTS ( 1.000000000000000000, 0.0000000000000000000, 0.0000000000000000000, 0.0000000000000000000, 0.0000000000000000000, 0.0000000000000000000, 0.0000000000000000000 ) ;
#279 = EDGE_CURVE ( 'NONE', #254, #80, #159, .T. ) ;
#280 = EDGE_CURVE ( 'NONE', #347, #201, #366, .T. ) ;
#281 = DIRECTION ( 'NONE',  ( -0.0000000000000000000, -0.0000000000000000000, -1.000000000000000000 ) ) ;
#282 = EDGE_LOOP ( 'NONE', ( #105, #130, #132, #104 ) ) ;
#283 = AXIS2_PLACEMENT_3D ( 'NONE', #10, #178, #362 ) ;
#284 = ORIENTED_EDGE ( 'NONE', *, *, #300, .F. ) ;
#285 = DIRECTION ( 'NONE',  ( -0.0000000000000000000, -0.0000000000000000000, -1.000000000000000000 ) ) ;
#286 = ORIENTED_EDGE ( 'NONE', *, *, #86, .T. ) ;
#287 = MANIFOLD_SOLID_BREP ( 'Cut-Revolve1', #138 ) ;
#288 = ORIENTED_EDGE ( 'NONE', *, *, #280, .F. ) ;
#289 = EDGE_LOOP ( 'NONE', ( #258, #88 ) ) ;
#290 = VECTOR ( 'NONE', #127, 39.37007874015748143 ) ;
#291 = CONICAL_SURFACE ( 'NONE', #37, 0.05904909450000001003, 0.1745329251994321984 ) ;
#292 = CYLINDRICAL_SURFACE ( 'NONE', #89, 0.05904909450000001003 ) ;
#293 = APPLICATION_PROTOCOL_DEFINITION ( 'draft international standard', 'automotive_design', 1998, #35 ) ;
#294 = CARTESIAN_POINT ( 'NONE',  ( -0.1181100000000000066, 0.0000000000000000000, 2.244094000000000033 ) ) ;
#295 = AXIS2_PLACEMENT_3D ( 'NONE', #326, #142, #119 ) ;
#296 = CIRCLE ( 'NONE', #195, 0.05904909450000001003 ) ;
#297 = FACE_OUTER_BOUND ( 'NONE', #101, .T. ) ;
#298 = FACE_OUTER_BOUND ( 'NONE', #289, .T. ) ;
#299 = FACE_OUTER_BOUND ( 'NONE', #282, .T. ) ;
#300 = EDGE_CURVE ( 'NONE', #48, #162, #13, .T. ) ;
#301 = FACE_OUTER_BOUND ( 'NONE', #14, .T. ) ;
#302 = DIRECTION ( 'NONE',  ( 0.0000000000000000000, 0.0000000000000000000, -1.000000000000000000 ) ) ;
#303 = EDGE_CURVE ( 'NONE', #162, #48, #235, .T. ) ;
#304 = DIRECTION ( 'NONE',  ( -1.000000000000000000, 0.0000000000000000000, 0.0000000000000000000 ) ) ;
#305 = DIRECTION ( 'NONE',  ( 0.0000000000000000000, 0.0000000000000000000, 1.000000000000000000 ) ) ;
#306 = AXIS2_PLACEMENT_3D ( 'NONE', #271, #50, #1 ) ;
#307 = VECTOR ( 'NONE', #190, 39.37007874015748854 ) ;
#308 = CARTESIAN_POINT ( 'NONE',  ( 0.0000000000000000000, 0.0000000000000000000, 2.244094000000000033 ) ) ;
#309 = DIRECTION ( 'NONE',  ( -0.0000000000000000000, -0.0000000000000000000, -1.000000000000000000 ) ) ;
#310 = ORIENTED_EDGE ( 'NONE', *, *, #368, .F. ) ;
#311 = SURFACE_SIDE_STYLE ('',( #139 ) ) ;
#312 = EDGE_LOOP ( 'NONE', ( #288, #225, #346, #168 ) ) ;
#313 =( GEOMETRIC_REPRESENTATION_CONTEXT ( 3 ) GLOBAL_UNCERTAINTY_ASSIGNED_CONTEXT ( ( #199 ) ) GLOBAL_UNIT_ASSIGNED_CONTEXT ( ( #129, #107, #252 ) ) REPRESENTATION_CONTEXT ( 'NONE', 'WORKASPACE' ) );
#314 = CARTESIAN_POINT ( 'NONE',  ( -0.05904909450000001003, 0.0000000000000000000, 0.0000000000000000000 ) ) ;
#315 = EDGE_LOOP ( 'NONE', ( #372, #134, #286, #193 ) ) ;
#316 = CARTESIAN_POINT ( 'NONE',  ( 0.0000000000000000000, 0.0000000000000000000, 2.244094000000000033 ) ) ;
#317 = VERTEX_POINT ( 'NONE', #136 ) ;
#318 =( NAMED_UNIT ( * ) PLANE_ANGLE_UNIT ( ) SI_UNIT ( $, .RADIAN. ) );
#319 = ORIENTED_EDGE ( 'NONE', *, *, #325, .F. ) ;
#320 = DIRECTION ( 'NONE',  ( -1.000000000000000000, 0.0000000000000000000, 0.0000000000000000000 ) ) ;
#321 = ORIENTED_EDGE ( 'NONE', *, *, #151, .T. ) ;
#322 = DIRECTION ( 'NONE',  ( -0.0000000000000000000, -0.0000000000000000000, -1.000000000000000000 ) ) ;
#323 = CONICAL_SURFACE ( 'NONE', #94, 0.1031100000000002570, 0.7853981633974318477 ) ;
#324 = CYLINDRICAL_SURFACE ( 'NONE', #148, 0.05708650000000004693 ) ;
#325 = EDGE_CURVE ( 'NONE', #48, #141, #133, .T. ) ;
#326 = CARTESIAN_POINT ( 'NONE',  ( 0.0000000000000000000, 0.0000000000000000000, 0.5905510000000000481 ) ) ;
#327 = PRODUCT_DEFINITION_SHAPE ( 'NONE', 'NONE',  #103 ) ;
#328 = CARTESIAN_POINT ( 'NONE',  ( -0.1031100000000002570, 0.0000000000000000000, 2.244094000000000033 ) ) ;
#329 = CYLINDRICAL_SURFACE ( 'NONE', #273, 0.05708650000000004693 ) ;
#330 = CIRCLE ( 'NONE', #203, 0.1031100000000002570 ) ;
#331 = EDGE_CURVE ( 'NONE', #6, #317, #45, .T. ) ;
#332 = DIRECTION ( 'NONE',  ( -0.0000000000000000000, -0.0000000000000000000, -1.000000000000000000 ) ) ;
#333 = DIRECTION ( 'NONE',  ( 1.000000000000000000, 0.0000000000000000000, -0.0000000000000000000 ) ) ;
#334 = CARTESIAN_POINT ( 'NONE',  ( 0.0000000000000000000, 0.0000000000000000000, 0.0000000000000000000 ) ) ;
#335 = AXIS2_PLACEMENT_3D ( 'NONE', #66, #247, #333 ) ;
#336 = PRESENTATION_LAYER_ASSIGNMENT (  '', '', ( #242 ) ) ;
#337 = CARTESIAN_POINT ( 'NONE',  ( 0.1031100000000002570, 1.262733314600838667E-17, 2.244094000000000033 ) ) ;
#338 = ORIENTED_EDGE ( 'NONE', *, *, #143, .T. ) ;
#339 = CARTESIAN_POINT ( 'NONE',  ( 0.05904909450000001003, 7.231428457197458695E-18, 0.0000000000000000000 ) ) ;
#340 = ORIENTED_EDGE ( 'NONE', *, *, #111, .T. ) ;
#341 = EDGE_LOOP ( 'NONE', ( #137, #376, #370, #39 ) ) ;
#342 = EDGE_CURVE ( 'NONE', #71, #6, #63, .T. ) ;
#343 = CIRCLE ( 'NONE', #295, 0.1181100000000000066 ) ;
#344 = AXIS2_PLACEMENT_3D ( 'NONE', #163, #309, #16 ) ;
#345 = CYLINDRICAL_SURFACE ( 'NONE', #2, 0.1181100000000000066 ) ;
#346 = ORIENTED_EDGE ( 'NONE', *, *, #279, .T. ) ;
#347 = VERTEX_POINT ( 'NONE', #229 ) ;
#348 = CARTESIAN_POINT ( 'NONE',  ( 0.05708650000000008162, 6.991079949952547434E-18, 0.5905510000000000481 ) ) ;
#349 = CONICAL_SURFACE ( 'NONE', #266, 0.05904909450000001003, 0.1745329251994321984 ) ;
#350 = AXIS2_PLACEMENT_3D ( 'NONE', #334, #3, #304 ) ;
#351 = DIRECTION ( 'NONE',  ( -1.000000000000000000, 0.0000000000000000000, 0.0000000000000000000 ) ) ;
#352 =( NAMED_UNIT ( * ) SI_UNIT ( $, .STERADIAN. ) SOLID_ANGLE_UNIT ( ) );
#353 = DIRECTION ( 'NONE',  ( -1.000000000000000000, 0.0000000000000000000, 0.0000000000000000000 ) ) ;
#354 =( NAMED_UNIT ( * ) SI_UNIT ( $, .STERADIAN. ) SOLID_ANGLE_UNIT ( ) );
#355 = CIRCLE ( 'NONE', #283, 0.1181100000000000066 ) ;
#356 = CARTESIAN_POINT ( 'NONE',  ( 0.05708650000000008162, 0.0000000000000000000, 0.5905510000000000481 ) ) ;
#357 = CARTESIAN_POINT ( 'NONE',  ( 0.0000000000000000000, 0.0000000000000000000, 0.0000000000000000000 ) ) ;
#358 = FACE_OUTER_BOUND ( 'NONE', #253, .T. ) ;
#359 = CARTESIAN_POINT ( 'NONE',  ( -0.05904909450000001003, 0.0000000000000000000, 0.1181100000000000066 ) ) ;
#360 = DIRECTION ( 'NONE',  ( -1.000000000000000000, 0.0000000000000000000, 0.0000000000000000000 ) ) ;
#361 = ADVANCED_FACE ( 'NONE', ( #371 ), #345, .T. ) ;
#362 = DIRECTION ( 'NONE',  ( 1.000000000000000000, 0.0000000000000000000, 0.0000000000000000000 ) ) ;
#363 = DIRECTION ( 'NONE',  ( -1.000000000000000000, 0.0000000000000000000, 0.0000000000000000000 ) ) ;
#364 = AXIS2_PLACEMENT_3D ( 'NONE', #274, #305, #64 ) ;
#365 = VERTEX_POINT ( 'NONE', #255 ) ;
#366 = LINE ( 'NONE', #337, #307 ) ;
#367 = ORIENTED_EDGE ( 'NONE', *, *, #135, .T. ) ;
#368 = EDGE_CURVE ( 'NONE', #347, #254, #330, .T. ) ;
#369 = DIRECTION ( 'NONE',  ( 1.000000000000000000, 0.0000000000000000000, 0.0000000000000000000 ) ) ;
#370 = ORIENTED_EDGE ( 'NONE', *, *, #122, .T. ) ;
#371 = FACE_OUTER_BOUND ( 'NONE', #341, .T. ) ;
#372 = ORIENTED_EDGE ( 'NONE', *, *, #331, .F. ) ;
#373 = AXIS2_PLACEMENT_3D ( 'NONE', #249, #332, #128 ) ;
#374 = EDGE_LOOP ( 'NONE', ( #319, #166, #73, #232 ) ) ;
#375 = ADVANCED_BREP_SHAPE_REPRESENTATION ( 'Micro_MMBM-030-15', ( #287, #25 ), #149 ) ;
#376 = ORIENTED_EDGE ( 'NONE', *, *, #224, .T. ) ;
#377 = DIRECTION ( 'NONE',  ( -1.000000000000000000, 0.0000000000000000000, 0.0000000000000000000 ) ) ;
#378 = STYLED_ITEM ( 'NONE', ( #51 ), #375 ) ;
#379 = DIRECTION ( 'NONE',  ( -0.0000000000000000000, 0.0000000000000000000, -1.000000000000000000 ) ) ;
ENDSEC;
END-ISO-10303-21;
