ISO-10303-21;
HEADER;
FILE_DESCRIPTION (( 'STEP AP214' ),
    '1' );
FILE_NAME ('84387.STEP',
    '2023-06-23T12:47:21',
    ( '' ),
    ( '' ),
    'SwSTEP 2.0',
    'SolidWorks 2023',
    '' );
FILE_SCHEMA (( 'AUTOMOTIVE_DESIGN' ));
ENDSEC;

DATA;
#1 = AXIS2_PLACEMENT_3D ( 'NONE', #177, #131, #270 ) ;
#2 = FACE_OUTER_BOUND ( 'NONE', #63, .T. ) ;
#3 = LENGTH_MEASURE_WITH_UNIT ( LENGTH_MEASURE( 0.02539999999999999897 ), #240 );
#4 = LINE ( 'NONE', #173, #78 ) ;
#5 = APPLICATION_CONTEXT ( 'automotive_design' ) ;
#6 = CARTESIAN_POINT ( 'NONE',  ( 6.123233995736766036E-17, 2.000000000000000000, 0.000000000000000000 ) ) ;
#7 = DIRECTION ( 'NONE',  ( -0.000000000000000000, -1.000000000000000000, -0.000000000000000000 ) ) ;
#8 = CIRCLE ( 'NONE', #251, 0.09374999999999998612 ) ;
#9 = SURFACE_SIDE_STYLE ('',( #122 ) ) ;
#10 = SURFACE_SIDE_STYLE ('',( #223 ) ) ;
#11 = DIRECTION ( 'NONE',  ( 3.918869757271530214E-17, 1.000000000000000000, -0.000000000000000000 ) ) ;
#12 =( GEOMETRIC_REPRESENTATION_CONTEXT ( 3 ) GLOBAL_UNCERTAINTY_ASSIGNED_CONTEXT ( ( #81 ) ) GLOBAL_UNIT_ASSIGNED_CONTEXT ( ( #128, #80, #174 ) ) REPRESENTATION_CONTEXT ( 'NONE', 'WORKASPACE' ) );
#13 = ORIENTED_EDGE ( 'NONE', *, *, #262, .T. ) ;
#14 = MECHANICAL_DESIGN_GEOMETRIC_PRESENTATION_REPRESENTATION (  '', ( #286 ), #60 ) ;
#15 = AXIS2_PLACEMENT_3D ( 'NONE', #29, #104, #56 ) ;
#16 = DIRECTION ( 'NONE',  ( 1.000000000000000000, -3.918869757271530214E-17, 0.000000000000000000 ) ) ;
#17 = ORIENTED_EDGE ( 'NONE', *, *, #152, .F. ) ;
#18 = DIRECTION ( 'NONE',  ( -0.000000000000000000, -1.000000000000000000, -0.000000000000000000 ) ) ;
#19 =( GEOMETRIC_REPRESENTATION_CONTEXT ( 3 ) GLOBAL_UNCERTAINTY_ASSIGNED_CONTEXT ( ( #295 ) ) GLOBAL_UNIT_ASSIGNED_CONTEXT ( ( #47, #243, #86 ) ) REPRESENTATION_CONTEXT ( 'NONE', 'WORKASPACE' ) );
#20 = DIRECTION ( 'NONE',  ( -0.000000000000000000, -1.000000000000000000, -0.000000000000000000 ) ) ;
#21 = PRESENTATION_STYLE_ASSIGNMENT (( #200 ) ) ;
#22 =( NAMED_UNIT ( * ) SI_UNIT ( $, .STERADIAN. ) SOLID_ANGLE_UNIT ( ) );
#23 = AXIS2_PLACEMENT_3D ( 'NONE', #115, #143, #219 ) ;
#24 = FILL_AREA_STYLE ('',( #25 ) ) ;
#25 = FILL_AREA_STYLE_COLOUR ( '', #120 ) ;
#26 = FACE_OUTER_BOUND ( 'NONE', #209, .T. ) ;
#27 = VECTOR ( 'NONE', #151, 39.37007874015748143 ) ;
#28 = CIRCLE ( 'NONE', #298, 0.09374999999999998612 ) ;
#29 = CARTESIAN_POINT ( 'NONE',  ( 0.000000000000000000, 0.000000000000000000, 0.000000000000000000 ) ) ;
#30 = PRESENTATION_LAYER_ASSIGNMENT (  '', '', ( #286 ) ) ;
#31 = CLOSED_SHELL ( 'NONE', ( #40, #280, #96, #228 ) ) ;
#32 = FILL_AREA_STYLE_COLOUR ( '', #282 ) ;
#33 = PRESENTATION_LAYER_ASSIGNMENT (  '', '', ( #153 ) ) ;
#34 = EDGE_LOOP ( 'NONE', ( #276, #186, #95, #237 ) ) ;
#35 = LENGTH_MEASURE_WITH_UNIT ( LENGTH_MEASURE( 0.02539999999999999897 ), #206 );
#36 = ORIENTED_EDGE ( 'NONE', *, *, #93, .T. ) ;
#37 = CLOSED_SHELL ( 'NONE', ( #133, #259, #283, #294 ) ) ;
#38 = VECTOR ( 'NONE', #307, 39.37007874015748143 ) ;
#39 = DIRECTION ( 'NONE',  ( 0.000000000000000000, 0.000000000000000000, -1.000000000000000000 ) ) ;
#40 = ADVANCED_FACE ( 'NONE', ( #45 ), #76, .T. ) ;
#41 = CARTESIAN_POINT ( 'NONE',  ( 0.000000000000000000, 0.000000000000000000, 0.000000000000000000 ) ) ;
#42 =( GEOMETRIC_REPRESENTATION_CONTEXT ( 3 ) GLOBAL_UNCERTAINTY_ASSIGNED_CONTEXT ( ( #130 ) ) GLOBAL_UNIT_ASSIGNED_CONTEXT ( ( #192, #284, #212 ) ) REPRESENTATION_CONTEXT ( 'NONE', 'WORKASPACE' ) );
#43 = DIMENSIONAL_EXPONENTS ( 1.000000000000000000, 0.000000000000000000, 0.000000000000000000, 0.000000000000000000, 0.000000000000000000, 0.000000000000000000, 0.000000000000000000 ) ;
#44 = PLANE ( 'NONE',  #23 ) ;
#45 = FACE_OUTER_BOUND ( 'NONE', #241, .T. ) ;
#46 = ADVANCED_BREP_SHAPE_REPRESENTATION ( '84387', ( #123, #108, #15 ), #181 ) ;
#47 =( CONVERSION_BASED_UNIT ( 'INCH', #289 ) LENGTH_UNIT ( ) NAMED_UNIT ( #170 ) );
#48 = CARTESIAN_POINT ( 'NONE',  ( 0.09375000000000002776, 2.000000000000000000, 1.148106374200643092E-17 ) ) ;
#49 = FILL_AREA_STYLE ('',( #269 ) ) ;
#50 = EDGE_CURVE ( 'NONE', #233, #193, #204, .T. ) ;
#51 = DIRECTION ( 'NONE',  ( 3.918869757271530214E-17, 1.000000000000000000, -0.000000000000000000 ) ) ;
#52 = MECHANICAL_DESIGN_GEOMETRIC_PRESENTATION_REPRESENTATION (  '', ( #112 ), #273 ) ;
#53 =( LENGTH_UNIT ( ) NAMED_UNIT ( * ) SI_UNIT ( $, .METRE. ) );
#54 = COLOUR_RGB ( '',1.000000000000000000, 0.000000000000000000, 0.000000000000000000 ) ;
#55 = SURFACE_STYLE_FILL_AREA ( #297 ) ;
#56 = DIRECTION ( 'NONE',  ( 1.000000000000000000, 0.000000000000000000, 0.000000000000000000 ) ) ;
#57 = CYLINDRICAL_SURFACE ( 'NONE', #159, 0.09374999999999998612 ) ;
#58 = FILL_AREA_STYLE ('',( #182 ) ) ;
#59 = EDGE_LOOP ( 'NONE', ( #214, #13, #17, #254 ) ) ;
#60 =( GEOMETRIC_REPRESENTATION_CONTEXT ( 3 ) GLOBAL_UNCERTAINTY_ASSIGNED_CONTEXT ( ( #103 ) ) GLOBAL_UNIT_ASSIGNED_CONTEXT ( ( #101, #74, #22 ) ) REPRESENTATION_CONTEXT ( 'NONE', 'WORKASPACE' ) );
#61 = PRODUCT_DEFINITION_FORMATION_WITH_SPECIFIED_SOURCE ( 'ANY', '', #105, .NOT_KNOWN. ) ;
#62 = SURFACE_SIDE_STYLE ('',( #106 ) ) ;
#63 = EDGE_LOOP ( 'NONE', ( #36, #111 ) ) ;
#64 = DIRECTION ( 'NONE',  ( -0.000000000000000000, -1.000000000000000000, -0.000000000000000000 ) ) ;
#65 = SURFACE_SIDE_STYLE ('',( #94 ) ) ;
#66 = MECHANICAL_DESIGN_GEOMETRIC_PRESENTATION_REPRESENTATION (  '', ( #153 ), #12 ) ;
#67 = LINE ( 'NONE', #260, #235 ) ;
#68 = EDGE_CURVE ( 'NONE', #233, #116, #119, .T. ) ;
#69 = CARTESIAN_POINT ( 'NONE',  ( 0.09374999999999998612, 0.4374999999999998890, 1.148106374200643247E-17 ) ) ;
#70 = VERTEX_POINT ( 'NONE', #220 ) ;
#71 = AXIS2_PLACEMENT_3D ( 'NONE', #98, #100, #287 ) ;
#72 = CIRCLE ( 'NONE', #148, 0.09374999999999998612 ) ;
#73 = SURFACE_STYLE_USAGE ( .BOTH. , #97 ) ;
#74 =( NAMED_UNIT ( * ) PLANE_ANGLE_UNIT ( ) SI_UNIT ( $, .RADIAN. ) );
#75 = FACE_OUTER_BOUND ( 'NONE', #305, .T. ) ;
#76 = CYLINDRICAL_SURFACE ( 'NONE', #309, 0.09374999999999995837 ) ;
#77 = DIRECTION ( 'NONE',  ( -1.000000000000000000, 0.000000000000000000, 0.000000000000000000 ) ) ;
#78 = VECTOR ( 'NONE', #7, 39.37007874015748143 ) ;
#79 = AXIS2_PLACEMENT_3D ( 'NONE', #125, #179, #156 ) ;
#80 =( NAMED_UNIT ( * ) PLANE_ANGLE_UNIT ( ) SI_UNIT ( $, .RADIAN. ) );
#81 = UNCERTAINTY_MEASURE_WITH_UNIT (LENGTH_MEASURE( 1.000000000000000082E-05 ), #128, 'distance_accuracy_value', 'NONE');
#82 = PLANE ( 'NONE',  #1 ) ;
#83 = SHAPE_DEFINITION_REPRESENTATION ( #198, #46 ) ;
#84 = EDGE_CURVE ( 'NONE', #193, #89, #210, .T. ) ;
#85 =( NAMED_UNIT ( * ) PLANE_ANGLE_UNIT ( ) SI_UNIT ( $, .RADIAN. ) );
#86 =( NAMED_UNIT ( * ) SI_UNIT ( $, .STERADIAN. ) SOLID_ANGLE_UNIT ( ) );
#87 = FACE_OUTER_BOUND ( 'NONE', #59, .T. ) ;
#88 = CARTESIAN_POINT ( 'NONE',  ( 0.000000000000000000, 0.000000000000000000, 0.000000000000000000 ) ) ;
#89 = VERTEX_POINT ( 'NONE', #249 ) ;
#90 = COLOUR_RGB ( '',1.000000000000000000, 0.000000000000000000, 0.000000000000000000 ) ;
#91 = SURFACE_STYLE_USAGE ( .BOTH. , #62 ) ;
#92 = EDGE_LOOP ( 'NONE', ( #183, #285 ) ) ;
#93 = EDGE_CURVE ( 'NONE', #89, #193, #165, .T. ) ;
#94 = SURFACE_STYLE_FILL_AREA ( #164 ) ;
#95 = ORIENTED_EDGE ( 'NONE', *, *, #247, .T. ) ;
#96 = ADVANCED_FACE ( 'NONE', ( #26 ), #293, .T. ) ;
#97 = SURFACE_SIDE_STYLE ('',( #194 ) ) ;
#98 = CARTESIAN_POINT ( 'NONE',  ( 6.123233995736766036E-17, 2.000000000000000000, 0.000000000000000000 ) ) ;
#99 = PRESENTATION_LAYER_ASSIGNMENT (  '', '', ( #244 ) ) ;
#100 = DIRECTION ( 'NONE',  ( 3.918869757271530214E-17, 1.000000000000000000, -0.000000000000000000 ) ) ;
#101 =( CONVERSION_BASED_UNIT ( 'INCH', #102 ) LENGTH_UNIT ( ) NAMED_UNIT ( #187 ) );
#102 = LENGTH_MEASURE_WITH_UNIT ( LENGTH_MEASURE( 0.02539999999999999897 ), #221 );
#103 = UNCERTAINTY_MEASURE_WITH_UNIT (LENGTH_MEASURE( 1.000000000000000082E-05 ), #101, 'distance_accuracy_value', 'NONE');
#104 = DIRECTION ( 'NONE',  ( 0.000000000000000000, 0.000000000000000000, 1.000000000000000000 ) ) ;
#105 = PRODUCT ( '84387', '84387', '', ( #205 ) ) ;
#106 = SURFACE_STYLE_FILL_AREA ( #58 ) ;
#107 = DIRECTION ( 'NONE',  ( 0.000000000000000000, 0.000000000000000000, -1.000000000000000000 ) ) ;
#108 = MANIFOLD_SOLID_BREP ( 'Revolve - Tool Body (Straight Shanked)', #31 ) ;
#109 =( CONVERSION_BASED_UNIT ( 'INCH', #35 ) LENGTH_UNIT ( ) NAMED_UNIT ( #144 ) );
#110 = EDGE_CURVE ( 'NONE', #116, #233, #8, .T. ) ;
#111 = ORIENTED_EDGE ( 'NONE', *, *, #84, .T. ) ;
#112 = STYLED_ITEM ( 'NONE', ( #303 ), #123 ) ;
#113 = DIRECTION ( 'NONE',  ( 0.000000000000000000, 0.000000000000000000, -1.000000000000000000 ) ) ;
#114 = EDGE_LOOP ( 'NONE', ( #302, #124 ) ) ;
#115 = CARTESIAN_POINT ( 'NONE',  ( 0.000000000000000000, 0.4375000000000000000, 0.000000000000000000 ) ) ;
#116 = VERTEX_POINT ( 'NONE', #229 ) ;
#117 = DIMENSIONAL_EXPONENTS ( 1.000000000000000000, 0.000000000000000000, 0.000000000000000000, 0.000000000000000000, 0.000000000000000000, 0.000000000000000000, 0.000000000000000000 ) ;
#118 = CARTESIAN_POINT ( 'NONE',  ( 0.000000000000000000, 0.4375000000000000000, 0.000000000000000000 ) ) ;
#119 = CIRCLE ( 'NONE', #234, 0.09374999999999998612 ) ;
#120 = COLOUR_RGB ( '',1.000000000000000000, 0.000000000000000000, 0.000000000000000000 ) ;
#121 = CARTESIAN_POINT ( 'NONE',  ( 0.09374999999999998612, 2.000000000000000000, 1.148106374200643247E-17 ) ) ;
#122 = SURFACE_STYLE_FILL_AREA ( #24 ) ;
#123 = MANIFOLD_SOLID_BREP ( 'Revolve - Cutting Edge', #37 ) ;
#124 = ORIENTED_EDGE ( 'NONE', *, *, #127, .T. ) ;
#125 = CARTESIAN_POINT ( 'NONE',  ( 0.000000000000000000, 0.000000000000000000, 0.000000000000000000 ) ) ;
#126 = COLOUR_RGB ( '',0.7921568627450980005, 0.8196078431372548767, 0.9333333333333333481 ) ;
#127 = EDGE_CURVE ( 'NONE', #185, #172, #257, .T. ) ;
#128 =( CONVERSION_BASED_UNIT ( 'INCH', #248 ) LENGTH_UNIT ( ) NAMED_UNIT ( #146 ) );
#129 = CARTESIAN_POINT ( 'NONE',  ( 6.123233995736766036E-17, 2.000000000000000000, 0.000000000000000000 ) ) ;
#130 = UNCERTAINTY_MEASURE_WITH_UNIT (LENGTH_MEASURE( 1.000000000000000082E-05 ), #192, 'distance_accuracy_value', 'NONE');
#131 = DIRECTION ( 'NONE',  ( 3.918869757271530214E-17, 1.000000000000000000, -0.000000000000000000 ) ) ;
#132 = CARTESIAN_POINT ( 'NONE',  ( 0.000000000000000000, 0.4374999999999998890, 0.000000000000000000 ) ) ;
#133 = ADVANCED_FACE ( 'NONE', ( #87 ), #57, .T. ) ;
#134 =( CONVERSION_BASED_UNIT ( 'INCH', #250 ) LENGTH_UNIT ( ) NAMED_UNIT ( #43 ) );
#135 =( LENGTH_UNIT ( ) NAMED_UNIT ( * ) SI_UNIT ( $, .METRE. ) );
#136 = AXIS2_PLACEMENT_3D ( 'NONE', #41, #64, #258 ) ;
#137 = LENGTH_MEASURE_WITH_UNIT ( LENGTH_MEASURE( 0.02539999999999999897 ), #135 );
#138 = ORIENTED_EDGE ( 'NONE', *, *, #110, .F. ) ;
#139 = DIRECTION ( 'NONE',  ( 0.000000000000000000, -1.000000000000000000, -0.000000000000000000 ) ) ;
#140 = ORIENTED_EDGE ( 'NONE', *, *, #68, .T. ) ;
#141 = EDGE_CURVE ( 'NONE', #116, #89, #67, .T. ) ;
#142 = ORIENTED_EDGE ( 'NONE', *, *, #141, .T. ) ;
#143 = DIRECTION ( 'NONE',  ( 0.000000000000000000, 1.000000000000000000, 0.000000000000000000 ) ) ;
#144 = DIMENSIONAL_EXPONENTS ( 1.000000000000000000, 0.000000000000000000, 0.000000000000000000, 0.000000000000000000, 0.000000000000000000, 0.000000000000000000, 0.000000000000000000 ) ;
#145 =( NAMED_UNIT ( * ) PLANE_ANGLE_UNIT ( ) SI_UNIT ( $, .RADIAN. ) );
#146 = DIMENSIONAL_EXPONENTS ( 1.000000000000000000, 0.000000000000000000, 0.000000000000000000, 0.000000000000000000, 0.000000000000000000, 0.000000000000000000, 0.000000000000000000 ) ;
#147 = DIRECTION ( 'NONE',  ( -3.918869757271530214E-17, -1.000000000000000000, 0.000000000000000000 ) ) ;
#148 = AXIS2_PLACEMENT_3D ( 'NONE', #308, #20, #264 ) ;
#149 = ORIENTED_EDGE ( 'NONE', *, *, #93, .F. ) ;
#150 = CYLINDRICAL_SURFACE ( 'NONE', #79, 0.09374999999999998612 ) ;
#151 = DIRECTION ( 'NONE',  ( 3.918869757271530214E-17, 1.000000000000000000, -0.000000000000000000 ) ) ;
#152 = EDGE_CURVE ( 'NONE', #172, #185, #230, .T. ) ;
#153 = STYLED_ITEM ( 'NONE', ( #154 ), #283 ) ;
#154 = PRESENTATION_STYLE_ASSIGNMENT (( #73 ) ) ;
#155 = SURFACE_STYLE_USAGE ( .BOTH. , #10 ) ;
#156 = DIRECTION ( 'NONE',  ( 0.000000000000000000, 0.000000000000000000, -1.000000000000000000 ) ) ;
#157 =( NAMED_UNIT ( * ) PLANE_ANGLE_UNIT ( ) SI_UNIT ( $, .RADIAN. ) );
#158 = AXIS2_PLACEMENT_3D ( 'NONE', #6, #203, #226 ) ;
#159 = AXIS2_PLACEMENT_3D ( 'NONE', #238, #166, #113 ) ;
#160 = SURFACE_STYLE_USAGE ( .BOTH. , #275 ) ;
#161 = EDGE_CURVE ( 'NONE', #256, #70, #72, .T. ) ;
#162 = ORIENTED_EDGE ( 'NONE', *, *, #50, .T. ) ;
#163 = AXIS2_PLACEMENT_3D ( 'NONE', #88, #139, #277 ) ;
#164 = FILL_AREA_STYLE ('',( #188 ) ) ;
#165 = CIRCLE ( 'NONE', #158, 0.09374999999999991673 ) ;
#166 = DIRECTION ( 'NONE',  ( -0.000000000000000000, -1.000000000000000000, -0.000000000000000000 ) ) ;
#167 = DIMENSIONAL_EXPONENTS ( 1.000000000000000000, 0.000000000000000000, 0.000000000000000000, 0.000000000000000000, 0.000000000000000000, 0.000000000000000000, 0.000000000000000000 ) ;
#168 = CARTESIAN_POINT ( 'NONE',  ( 0.000000000000000000, 0.000000000000000000, -0.09375000000000001388 ) ) ;
#169 = LINE ( 'NONE', #281, #38 ) ;
#170 = DIMENSIONAL_EXPONENTS ( 1.000000000000000000, 0.000000000000000000, 0.000000000000000000, 0.000000000000000000, 0.000000000000000000, 0.000000000000000000, 0.000000000000000000 ) ;
#171 = CARTESIAN_POINT ( 'NONE',  ( 1.148106374200643401E-17, 0.4375000000000000000, 0.09374999999999998612 ) ) ;
#172 = VERTEX_POINT ( 'NONE', #168 ) ;
#173 = CARTESIAN_POINT ( 'NONE',  ( 1.148106374200643401E-17, 0.000000000000000000, 0.09374999999999998612 ) ) ;
#174 =( NAMED_UNIT ( * ) SI_UNIT ( $, .STERADIAN. ) SOLID_ANGLE_UNIT ( ) );
#175 = AXIS2_PLACEMENT_3D ( 'NONE', #129, #180, #77 ) ;
#176 = PRESENTATION_LAYER_ASSIGNMENT (  '', '', ( #184 ) ) ;
#177 = CARTESIAN_POINT ( 'NONE',  ( 7.198846956776915697E-35, 0.4375000000000000000, 0.000000000000000000 ) ) ;
#178 = PRODUCT_RELATED_PRODUCT_CATEGORY ( 'part', '', ( #105 ) ) ;
#179 = DIRECTION ( 'NONE',  ( -0.000000000000000000, -1.000000000000000000, -0.000000000000000000 ) ) ;
#180 = DIRECTION ( 'NONE',  ( 3.918869757271530214E-17, 1.000000000000000000, -0.000000000000000000 ) ) ;
#181 =( GEOMETRIC_REPRESENTATION_CONTEXT ( 3 ) GLOBAL_UNCERTAINTY_ASSIGNED_CONTEXT ( ( #199 ) ) GLOBAL_UNIT_ASSIGNED_CONTEXT ( ( #134, #157, #227 ) ) REPRESENTATION_CONTEXT ( 'NONE', 'WORKASPACE' ) );
#182 = FILL_AREA_STYLE_COLOUR ( '', #90 ) ;
#183 = ORIENTED_EDGE ( 'NONE', *, *, #222, .F. ) ;
#184 = STYLED_ITEM ( 'NONE', ( #236 ), #259 ) ;
#185 = VERTEX_POINT ( 'NONE', #190 ) ;
#186 = ORIENTED_EDGE ( 'NONE', *, *, #161, .T. ) ;
#187 = DIMENSIONAL_EXPONENTS ( 1.000000000000000000, 0.000000000000000000, 0.000000000000000000, 0.000000000000000000, 0.000000000000000000, 0.000000000000000000, 0.000000000000000000 ) ;
#188 = FILL_AREA_STYLE_COLOUR ( '', #54 ) ;
#189 = MECHANICAL_DESIGN_GEOMETRIC_PRESENTATION_REPRESENTATION (  '', ( #196 ), #274 ) ;
#190 = CARTESIAN_POINT ( 'NONE',  ( 1.148106374200643555E-17, 0.000000000000000000, 0.09375000000000001388 ) ) ;
#191 = PLANE ( 'NONE',  #304 ) ;
#192 =( CONVERSION_BASED_UNIT ( 'INCH', #3 ) LENGTH_UNIT ( ) NAMED_UNIT ( #167 ) );
#193 = VERTEX_POINT ( 'NONE', #121 ) ;
#194 = SURFACE_STYLE_FILL_AREA ( #245 ) ;
#195 = PRESENTATION_LAYER_ASSIGNMENT (  '', '', ( #112 ) ) ;
#196 = STYLED_ITEM ( 'NONE', ( #231 ), #133 ) ;
#197 = DIRECTION ( 'NONE',  ( -1.000000000000000000, 0.000000000000000000, 0.000000000000000000 ) ) ;
#198 = PRODUCT_DEFINITION_SHAPE ( 'NONE', 'NONE',  #232 ) ;
#199 = UNCERTAINTY_MEASURE_WITH_UNIT (LENGTH_MEASURE( 1.000000000000000082E-05 ), #134, 'distance_accuracy_value', 'NONE');
#200 = SURFACE_STYLE_USAGE ( .BOTH. , #9 ) ;
#201 = CARTESIAN_POINT ( 'NONE',  ( 0.000000000000000000, 0.4374999999999998890, 0.000000000000000000 ) ) ;
#202 = FILL_AREA_STYLE_COLOUR ( '', #208 ) ;
#203 = DIRECTION ( 'NONE',  ( 3.918869757271530214E-17, 1.000000000000000000, -0.000000000000000000 ) ) ;
#204 = LINE ( 'NONE', #48, #27 ) ;
#205 = PRODUCT_CONTEXT ( 'NONE', #207, 'mechanical' ) ;
#206 =( LENGTH_UNIT ( ) NAMED_UNIT ( * ) SI_UNIT ( $, .METRE. ) );
#207 = APPLICATION_CONTEXT ( 'automotive_design' ) ;
#208 = COLOUR_RGB ( '',1.000000000000000000, 0.000000000000000000, 0.000000000000000000 ) ;
#209 = EDGE_LOOP ( 'NONE', ( #306, #140, #142, #265 ) ) ;
#210 = CIRCLE ( 'NONE', #175, 0.09374999999999991673 ) ;
#211 = ORIENTED_EDGE ( 'NONE', *, *, #110, .T. ) ;
#212 =( NAMED_UNIT ( * ) SI_UNIT ( $, .STERADIAN. ) SOLID_ANGLE_UNIT ( ) );
#213 = CARTESIAN_POINT ( 'NONE',  ( 0.09374999999999998612, 2.000000000000000000, 0.000000000000000000 ) ) ;
#214 = ORIENTED_EDGE ( 'NONE', *, *, #222, .T. ) ;
#215 = DIRECTION ( 'NONE',  ( 3.918869757271530214E-17, 1.000000000000000000, -0.000000000000000000 ) ) ;
#216 = SURFACE_STYLE_USAGE ( .BOTH. , #65 ) ;
#217 =( LENGTH_UNIT ( ) NAMED_UNIT ( * ) SI_UNIT ( $, .METRE. ) );
#218 = CARTESIAN_POINT ( 'NONE',  ( 6.123233995736766036E-17, 2.000000000000000000, 0.000000000000000000 ) ) ;
#219 = DIRECTION ( 'NONE',  ( 0.000000000000000000, -0.000000000000000000, 1.000000000000000000 ) ) ;
#220 = CARTESIAN_POINT ( 'NONE',  ( 0.000000000000000000, 0.4375000000000000000, -0.09374999999999998612 ) ) ;
#221 =( LENGTH_UNIT ( ) NAMED_UNIT ( * ) SI_UNIT ( $, .METRE. ) );
#222 = EDGE_CURVE ( 'NONE', #70, #256, #28, .T. ) ;
#223 = SURFACE_STYLE_FILL_AREA ( #49 ) ;
#224 = MECHANICAL_DESIGN_GEOMETRIC_PRESENTATION_REPRESENTATION (  '', ( #184 ), #42 ) ;
#225 = APPLICATION_PROTOCOL_DEFINITION ( 'draft international standard', 'automotive_design', 1998, #207 ) ;
#226 = DIRECTION ( 'NONE',  ( -1.000000000000000000, 0.000000000000000000, 0.000000000000000000 ) ) ;
#227 =( NAMED_UNIT ( * ) SI_UNIT ( $, .STERADIAN. ) SOLID_ANGLE_UNIT ( ) );
#228 = ADVANCED_FACE ( 'NONE', ( #2 ), #191, .F. ) ;
#229 = CARTESIAN_POINT ( 'NONE',  ( -0.09374999999999998612, 0.4374999999999998890, 0.000000000000000000 ) ) ;
#230 = CIRCLE ( 'NONE', #136, 0.09375000000000001388 ) ;
#231 = PRESENTATION_STYLE_ASSIGNMENT (( #91 ) ) ;
#232 = PRODUCT_DEFINITION ( 'UNKNOWN', '', #61, #267 ) ;
#233 = VERTEX_POINT ( 'NONE', #69 ) ;
#234 = AXIS2_PLACEMENT_3D ( 'NONE', #132, #271, #197 ) ;
#235 = VECTOR ( 'NONE', #215, 39.37007874015748143 ) ;
#236 = PRESENTATION_STYLE_ASSIGNMENT (( #216 ) ) ;
#237 = ORIENTED_EDGE ( 'NONE', *, *, #127, .F. ) ;
#238 = CARTESIAN_POINT ( 'NONE',  ( 0.000000000000000000, 0.000000000000000000, 0.000000000000000000 ) ) ;
#239 =( NAMED_UNIT ( * ) SI_UNIT ( $, .STERADIAN. ) SOLID_ANGLE_UNIT ( ) );
#240 =( LENGTH_UNIT ( ) NAMED_UNIT ( * ) SI_UNIT ( $, .METRE. ) );
#241 = EDGE_LOOP ( 'NONE', ( #211, #162, #149, #279 ) ) ;
#242 = UNCERTAINTY_MEASURE_WITH_UNIT (LENGTH_MEASURE( 1.000000000000000082E-05 ), #109, 'distance_accuracy_value', 'NONE');
#243 =( NAMED_UNIT ( * ) PLANE_ANGLE_UNIT ( ) SI_UNIT ( $, .RADIAN. ) );
#244 = STYLED_ITEM ( 'NONE', ( #21 ), #294 ) ;
#245 = FILL_AREA_STYLE ('',( #202 ) ) ;
#246 = PRESENTATION_STYLE_ASSIGNMENT (( #155 ) ) ;
#247 = EDGE_CURVE ( 'NONE', #70, #172, #169, .T. ) ;
#248 = LENGTH_MEASURE_WITH_UNIT ( LENGTH_MEASURE( 0.02539999999999999897 ), #217 );
#249 = CARTESIAN_POINT ( 'NONE',  ( -0.09374999999999984734, 2.000000000000000000, 0.000000000000000000 ) ) ;
#250 = LENGTH_MEASURE_WITH_UNIT ( LENGTH_MEASURE( 0.02539999999999999897 ), #53 );
#251 = AXIS2_PLACEMENT_3D ( 'NONE', #201, #11, #253 ) ;
#252 = DIRECTION ( 'NONE',  ( -1.000000000000000000, 0.000000000000000000, 0.000000000000000000 ) ) ;
#253 = DIRECTION ( 'NONE',  ( -1.000000000000000000, 0.000000000000000000, 0.000000000000000000 ) ) ;
#254 = ORIENTED_EDGE ( 'NONE', *, *, #247, .F. ) ;
#255 = DIRECTION ( 'NONE',  ( -0.000000000000000000, -1.000000000000000000, -0.000000000000000000 ) ) ;
#256 = VERTEX_POINT ( 'NONE', #171 ) ;
#257 = CIRCLE ( 'NONE', #291, 0.09375000000000001388 ) ;
#258 = DIRECTION ( 'NONE',  ( 0.000000000000000000, 0.000000000000000000, -1.000000000000000000 ) ) ;
#259 = ADVANCED_FACE ( 'NONE', ( #261 ), #44, .T. ) ;
#260 = CARTESIAN_POINT ( 'NONE',  ( -0.09374999999999988898, 2.000000000000000000, 0.000000000000000000 ) ) ;
#261 = FACE_OUTER_BOUND ( 'NONE', #92, .T. ) ;
#262 = EDGE_CURVE ( 'NONE', #256, #185, #4, .T. ) ;
#263 = PRESENTATION_LAYER_ASSIGNMENT (  '', '', ( #196 ) ) ;
#264 = DIRECTION ( 'NONE',  ( 0.000000000000000000, 0.000000000000000000, -1.000000000000000000 ) ) ;
#265 = ORIENTED_EDGE ( 'NONE', *, *, #84, .F. ) ;
#266 = FACE_OUTER_BOUND ( 'NONE', #34, .T. ) ;
#267 = PRODUCT_DEFINITION_CONTEXT ( 'detailed design', #5, 'design' ) ;
#268 = MECHANICAL_DESIGN_GEOMETRIC_PRESENTATION_REPRESENTATION (  '', ( #244 ), #19 ) ;
#269 = FILL_AREA_STYLE_COLOUR ( '', #126 ) ;
#270 = DIRECTION ( 'NONE',  ( -1.000000000000000000, 3.918869757271530214E-17, 0.000000000000000000 ) ) ;
#271 = DIRECTION ( 'NONE',  ( 3.918869757271530214E-17, 1.000000000000000000, -0.000000000000000000 ) ) ;
#272 = FACE_OUTER_BOUND ( 'NONE', #114, .T. ) ;
#273 =( GEOMETRIC_REPRESENTATION_CONTEXT ( 3 ) GLOBAL_UNCERTAINTY_ASSIGNED_CONTEXT ( ( #288 ) ) GLOBAL_UNIT_ASSIGNED_CONTEXT ( ( #296, #85, #300 ) ) REPRESENTATION_CONTEXT ( 'NONE', 'WORKASPACE' ) );
#274 =( GEOMETRIC_REPRESENTATION_CONTEXT ( 3 ) GLOBAL_UNCERTAINTY_ASSIGNED_CONTEXT ( ( #242 ) ) GLOBAL_UNIT_ASSIGNED_CONTEXT ( ( #109, #145, #239 ) ) REPRESENTATION_CONTEXT ( 'NONE', 'WORKASPACE' ) );
#275 = SURFACE_SIDE_STYLE ('',( #55 ) ) ;
#276 = ORIENTED_EDGE ( 'NONE', *, *, #262, .F. ) ;
#277 = DIRECTION ( 'NONE',  ( 0.000000000000000000, 0.000000000000000000, -1.000000000000000000 ) ) ;
#278 = ORIENTED_EDGE ( 'NONE', *, *, #68, .F. ) ;
#279 = ORIENTED_EDGE ( 'NONE', *, *, #141, .F. ) ;
#280 = ADVANCED_FACE ( 'NONE', ( #75 ), #82, .F. ) ;
#281 = CARTESIAN_POINT ( 'NONE',  ( 0.000000000000000000, 0.000000000000000000, -0.09374999999999998612 ) ) ;
#282 = COLOUR_RGB ( '',0.7921568627450980005, 0.8196078431372548767, 0.9333333333333333481 ) ;
#283 = ADVANCED_FACE ( 'NONE', ( #266 ), #150, .T. ) ;
#284 =( NAMED_UNIT ( * ) PLANE_ANGLE_UNIT ( ) SI_UNIT ( $, .RADIAN. ) );
#285 = ORIENTED_EDGE ( 'NONE', *, *, #161, .F. ) ;
#286 = STYLED_ITEM ( 'NONE', ( #246 ), #108 ) ;
#287 = DIRECTION ( 'NONE',  ( -1.000000000000000000, 0.000000000000000000, 0.000000000000000000 ) ) ;
#288 = UNCERTAINTY_MEASURE_WITH_UNIT (LENGTH_MEASURE( 1.000000000000000082E-05 ), #296, 'distance_accuracy_value', 'NONE');
#289 = LENGTH_MEASURE_WITH_UNIT ( LENGTH_MEASURE( 0.02539999999999999897 ), #292 );
#290 = PLANE ( 'NONE',  #163 ) ;
#291 = AXIS2_PLACEMENT_3D ( 'NONE', #301, #255, #107 ) ;
#292 =( LENGTH_UNIT ( ) NAMED_UNIT ( * ) SI_UNIT ( $, .METRE. ) );
#293 = CYLINDRICAL_SURFACE ( 'NONE', #71, 0.09374999999999995837 ) ;
#294 = ADVANCED_FACE ( 'NONE', ( #272 ), #290, .T. ) ;
#295 = UNCERTAINTY_MEASURE_WITH_UNIT (LENGTH_MEASURE( 1.000000000000000082E-05 ), #47, 'distance_accuracy_value', 'NONE');
#296 =( CONVERSION_BASED_UNIT ( 'INCH', #137 ) LENGTH_UNIT ( ) NAMED_UNIT ( #117 ) );
#297 = FILL_AREA_STYLE ('',( #32 ) ) ;
#298 = AXIS2_PLACEMENT_3D ( 'NONE', #118, #18, #39 ) ;
#299 = APPLICATION_PROTOCOL_DEFINITION ( 'draft international standard', 'automotive_design', 1998, #5 ) ;
#300 =( NAMED_UNIT ( * ) SI_UNIT ( $, .STERADIAN. ) SOLID_ANGLE_UNIT ( ) );
#301 = CARTESIAN_POINT ( 'NONE',  ( 0.000000000000000000, 0.000000000000000000, 0.000000000000000000 ) ) ;
#302 = ORIENTED_EDGE ( 'NONE', *, *, #152, .T. ) ;
#303 = PRESENTATION_STYLE_ASSIGNMENT (( #160 ) ) ;
#304 = AXIS2_PLACEMENT_3D ( 'NONE', #213, #147, #16 ) ;
#305 = EDGE_LOOP ( 'NONE', ( #138, #278 ) ) ;
#306 = ORIENTED_EDGE ( 'NONE', *, *, #50, .F. ) ;
#307 = DIRECTION ( 'NONE',  ( -0.000000000000000000, -1.000000000000000000, -0.000000000000000000 ) ) ;
#308 = CARTESIAN_POINT ( 'NONE',  ( 0.000000000000000000, 0.4375000000000000000, 0.000000000000000000 ) ) ;
#309 = AXIS2_PLACEMENT_3D ( 'NONE', #218, #51, #252 ) ;
ENDSEC;
END-ISO-10303-21;
