ISO-10303-21;
HEADER;
FILE_DESCRIPTION (( 'STEP AP214' ),
    '1' );
FILE_NAME ('81637.STEP',
    '2023-06-23T02:10:00',
    ( '' ),
    ( '' ),
    'SwSTEP 2.0',
    'SolidWorks 2023',
    '' );
FILE_SCHEMA (( 'AUTOMOTIVE_DESIGN' ));
ENDSEC;

DATA;
#1 = DIRECTION ( 'NONE',  ( -3.498990854706722745E-17, 1.000000000000000000, -0.000000000000000000 ) ) ;
#2 = DIRECTION ( 'NONE',  ( 0.000000000000000000, -0.000000000000000000, 1.000000000000000000 ) ) ;
#3 = MECHANICAL_DESIGN_GEOMETRIC_PRESENTATION_REPRESENTATION (  '', ( #174 ), #99 ) ;
#4 = AXIS2_PLACEMENT_3D ( 'NONE', #166, #26, #2 ) ;
#5 = PRODUCT_DEFINITION ( 'UNKNOWN', '', #154, #105 ) ;
#6 = PLANE ( 'NONE',  #4 ) ;
#7 = PRODUCT_RELATED_PRODUCT_CATEGORY ( 'part', '', ( #12 ) ) ;
#8 = CIRCLE ( 'NONE', #300, 0.06250000000000005551 ) ;
#9 = FACE_OUTER_BOUND ( 'NONE', #136, .T. ) ;
#10 = APPLICATION_PROTOCOL_DEFINITION ( 'draft international standard', 'automotive_design', 1998, #141 ) ;
#11 = PRESENTATION_STYLE_ASSIGNMENT (( #176 ) ) ;
#12 = PRODUCT ( '81637', '81637', '', ( #263 ) ) ;
#13 = AXIS2_PLACEMENT_3D ( 'NONE', #97, #65, #286 ) ;
#14 = AXIS2_PLACEMENT_3D ( 'NONE', #81, #173, #148 ) ;
#15 = EDGE_LOOP ( 'NONE', ( #20, #188 ) ) ;
#16 = PRESENTATION_STYLE_ASSIGNMENT (( #275 ) ) ;
#17 = EDGE_LOOP ( 'NONE', ( #92, #107 ) ) ;
#18 = UNCERTAINTY_MEASURE_WITH_UNIT (LENGTH_MEASURE( 1.000000000000000082E-05 ), #229, 'distance_accuracy_value', 'NONE');
#19 =( NAMED_UNIT ( * ) PLANE_ANGLE_UNIT ( ) SI_UNIT ( $, .RADIAN. ) );
#20 = ORIENTED_EDGE ( 'NONE', *, *, #244, .F. ) ;
#21 = SURFACE_SIDE_STYLE ('',( #68 ) ) ;
#22 = CARTESIAN_POINT ( 'NONE',  ( 0.000000000000000000, 0.000000000000000000, 0.000000000000000000 ) ) ;
#23 = EDGE_LOOP ( 'NONE', ( #38, #185, #205, #131 ) ) ;
#24 = FACE_OUTER_BOUND ( 'NONE', #17, .T. ) ;
#25 = DIRECTION ( 'NONE',  ( -1.000000000000000000, 0.000000000000000000, 0.000000000000000000 ) ) ;
#26 = DIRECTION ( 'NONE',  ( 0.000000000000000000, 1.000000000000000000, 0.000000000000000000 ) ) ;
#27 = ADVANCED_BREP_SHAPE_REPRESENTATION ( '81637', ( #74, #276, #294 ), #178 ) ;
#28 = CARTESIAN_POINT ( 'NONE',  ( -6.123233995736766036E-17, 2.500000000000000000, 0.000000000000000000 ) ) ;
#29 = DIMENSIONAL_EXPONENTS ( 1.000000000000000000, 0.000000000000000000, 0.000000000000000000, 0.000000000000000000, 0.000000000000000000, 0.000000000000000000, 0.000000000000000000 ) ;
#30 = COLOUR_RGB ( '',0.7921568627450980005, 0.8196078431372548767, 0.9333333333333333481 ) ;
#31 = FILL_AREA_STYLE ('',( #82 ) ) ;
#32 = SURFACE_STYLE_FILL_AREA ( #31 ) ;
#33 =( NAMED_UNIT ( * ) PLANE_ANGLE_UNIT ( ) SI_UNIT ( $, .RADIAN. ) );
#34 = PRESENTATION_STYLE_ASSIGNMENT (( #295 ) ) ;
#35 = MECHANICAL_DESIGN_GEOMETRIC_PRESENTATION_REPRESENTATION (  '', ( #67 ), #249 ) ;
#36 =( NAMED_UNIT ( * ) SI_UNIT ( $, .STERADIAN. ) SOLID_ANGLE_UNIT ( ) );
#37 = CIRCLE ( 'NONE', #13, 0.06250000000000000000 ) ;
#38 = ORIENTED_EDGE ( 'NONE', *, *, #244, .T. ) ;
#39 = VERTEX_POINT ( 'NONE', #307 ) ;
#40 =( CONVERSION_BASED_UNIT ( 'INCH', #252 ) LENGTH_UNIT ( ) NAMED_UNIT ( #140 ) );
#41 = ORIENTED_EDGE ( 'NONE', *, *, #180, .T. ) ;
#42 = LINE ( 'NONE', #91, #50 ) ;
#43 = AXIS2_PLACEMENT_3D ( 'NONE', #255, #70, #164 ) ;
#44 = CYLINDRICAL_SURFACE ( 'NONE', #177, 0.06250000000000001388 ) ;
#45 = LINE ( 'NONE', #277, #201 ) ;
#46 = DIRECTION ( 'NONE',  ( -3.498990854706722745E-17, 1.000000000000000000, -0.000000000000000000 ) ) ;
#47 = CARTESIAN_POINT ( 'NONE',  ( 0.06250000000000000000, 2.500000000000000000, 0.000000000000000000 ) ) ;
#48 = PLANE ( 'NONE',  #43 ) ;
#49 = DIRECTION ( 'NONE',  ( -0.000000000000000000, -1.000000000000000000, -0.000000000000000000 ) ) ;
#50 = VECTOR ( 'NONE', #253, 39.37007874015748143 ) ;
#51 = PRESENTATION_STYLE_ASSIGNMENT (( #77 ) ) ;
#52 = EDGE_CURVE ( 'NONE', #228, #162, #45, .T. ) ;
#53 =( CONVERSION_BASED_UNIT ( 'INCH', #291 ) LENGTH_UNIT ( ) NAMED_UNIT ( #259 ) );
#54 = CIRCLE ( 'NONE', #84, 0.06250000000000000000 ) ;
#55 = ADVANCED_FACE ( 'NONE', ( #88 ), #44, .T. ) ;
#56 = UNCERTAINTY_MEASURE_WITH_UNIT (LENGTH_MEASURE( 1.000000000000000082E-05 ), #217, 'distance_accuracy_value', 'NONE');
#57 = FACE_OUTER_BOUND ( 'NONE', #111, .T. ) ;
#58 = CYLINDRICAL_SURFACE ( 'NONE', #273, 0.06250000000000001388 ) ;
#59 = UNCERTAINTY_MEASURE_WITH_UNIT (LENGTH_MEASURE( 1.000000000000000082E-05 ), #157, 'distance_accuracy_value', 'NONE');
#60 = PRESENTATION_STYLE_ASSIGNMENT (( #179 ) ) ;
#61 = EDGE_CURVE ( 'NONE', #257, #64, #42, .T. ) ;
#62 =( LENGTH_UNIT ( ) NAMED_UNIT ( * ) SI_UNIT ( $, .METRE. ) );
#63 =( CONVERSION_BASED_UNIT ( 'INCH', #278 ) LENGTH_UNIT ( ) NAMED_UNIT ( #144 ) );
#64 = VERTEX_POINT ( 'NONE', #247 ) ;
#65 = DIRECTION ( 'NONE',  ( -0.000000000000000000, -1.000000000000000000, -0.000000000000000000 ) ) ;
#66 = STYLED_ITEM ( 'NONE', ( #183 ), #55 ) ;
#67 = STYLED_ITEM ( 'NONE', ( #11 ), #276 ) ;
#68 = SURFACE_STYLE_FILL_AREA ( #231 ) ;
#69 =( LENGTH_UNIT ( ) NAMED_UNIT ( * ) SI_UNIT ( $, .METRE. ) );
#70 = DIRECTION ( 'NONE',  ( -3.498990854706722745E-17, 1.000000000000000000, 0.000000000000000000 ) ) ;
#71 = FACE_OUTER_BOUND ( 'NONE', #129, .T. ) ;
#72 = CIRCLE ( 'NONE', #214, 0.06250000000000005551 ) ;
#73 = COLOUR_RGB ( '',1.000000000000000000, 0.000000000000000000, 0.000000000000000000 ) ;
#74 = MANIFOLD_SOLID_BREP ( 'Revolve - Cutting Edge', #238 ) ;
#75 = CARTESIAN_POINT ( 'NONE',  ( 0.000000000000000000, 0.7500000000000001110, 0.000000000000000000 ) ) ;
#76 =( NAMED_UNIT ( * ) SI_UNIT ( $, .STERADIAN. ) SOLID_ANGLE_UNIT ( ) );
#77 = SURFACE_STYLE_USAGE ( .BOTH. , #78 ) ;
#78 = SURFACE_SIDE_STYLE ('',( #195 ) ) ;
#79 = PRESENTATION_LAYER_ASSIGNMENT (  '', '', ( #174 ) ) ;
#80 = APPLICATION_PROTOCOL_DEFINITION ( 'draft international standard', 'automotive_design', 1998, #296 ) ;
#81 = CARTESIAN_POINT ( 'NONE',  ( 0.000000000000000000, 0.000000000000000000, 0.000000000000000000 ) ) ;
#82 = FILL_AREA_STYLE_COLOUR ( '', #150 ) ;
#83 = ADVANCED_FACE ( 'NONE', ( #57 ), #132, .T. ) ;
#84 = AXIS2_PLACEMENT_3D ( 'NONE', #187, #46, #280 ) ;
#85 =( LENGTH_UNIT ( ) NAMED_UNIT ( * ) SI_UNIT ( $, .METRE. ) );
#86 =( NAMED_UNIT ( * ) PLANE_ANGLE_UNIT ( ) SI_UNIT ( $, .RADIAN. ) );
#87 = FILL_AREA_STYLE ('',( #246 ) ) ;
#88 = FACE_OUTER_BOUND ( 'NONE', #202, .T. ) ;
#89 = ADVANCED_FACE ( 'NONE', ( #204 ), #58, .T. ) ;
#90 = VERTEX_POINT ( 'NONE', #190 ) ;
#91 = CARTESIAN_POINT ( 'NONE',  ( 7.654042494670959086E-18, 0.000000000000000000, 0.06250000000000001388 ) ) ;
#92 = ORIENTED_EDGE ( 'NONE', *, *, #113, .F. ) ;
#93 = FACE_OUTER_BOUND ( 'NONE', #156, .T. ) ;
#94 = DIRECTION ( 'NONE',  ( -3.498990854706722745E-17, 1.000000000000000000, -0.000000000000000000 ) ) ;
#95 = AXIS2_PLACEMENT_3D ( 'NONE', #28, #137, #211 ) ;
#96 = PRESENTATION_LAYER_ASSIGNMENT (  '', '', ( #67 ) ) ;
#97 = CARTESIAN_POINT ( 'NONE',  ( 0.000000000000000000, 0.7500000000000001110, 0.000000000000000000 ) ) ;
#98 = CARTESIAN_POINT ( 'NONE',  ( -0.06250000000000012490, 2.500000000000000000, 0.000000000000000000 ) ) ;
#99 =( GEOMETRIC_REPRESENTATION_CONTEXT ( 3 ) GLOBAL_UNCERTAINTY_ASSIGNED_CONTEXT ( ( #18 ) ) GLOBAL_UNIT_ASSIGNED_CONTEXT ( ( #229, #186, #112 ) ) REPRESENTATION_CONTEXT ( 'NONE', 'WORKASPACE' ) );
#100 = STYLED_ITEM ( 'NONE', ( #34 ), #290 ) ;
#101 = SURFACE_SIDE_STYLE ('',( #32 ) ) ;
#102 = CARTESIAN_POINT ( 'NONE',  ( 0.000000000000000000, 0.000000000000000000, -0.06250000000000001388 ) ) ;
#103 = CLOSED_SHELL ( 'NONE', ( #83, #118, #232, #147 ) ) ;
#104 = CARTESIAN_POINT ( 'NONE',  ( -6.123233995736766036E-17, 2.500000000000000000, 0.000000000000000000 ) ) ;
#105 = PRODUCT_DEFINITION_CONTEXT ( 'detailed design', #141, 'design' ) ;
#106 =( LENGTH_UNIT ( ) NAMED_UNIT ( * ) SI_UNIT ( $, .METRE. ) );
#107 = ORIENTED_EDGE ( 'NONE', *, *, #194, .F. ) ;
#108 = LENGTH_MEASURE_WITH_UNIT ( LENGTH_MEASURE( 0.02539999999999999897 ), #106 );
#109 = ORIENTED_EDGE ( 'NONE', *, *, #172, .F. ) ;
#110 = AXIS2_PLACEMENT_3D ( 'NONE', #22, #234, #288 ) ;
#111 = EDGE_LOOP ( 'NONE', ( #282, #226, #304, #134 ) ) ;
#112 =( NAMED_UNIT ( * ) SI_UNIT ( $, .STERADIAN. ) SOLID_ANGLE_UNIT ( ) );
#113 = EDGE_CURVE ( 'NONE', #228, #90, #218, .T. ) ;
#114 = DIRECTION ( 'NONE',  ( 0.000000000000000000, 0.000000000000000000, -1.000000000000000000 ) ) ;
#115 = ORIENTED_EDGE ( 'NONE', *, *, #172, .T. ) ;
#116 = DIRECTION ( 'NONE',  ( -0.000000000000000000, -1.000000000000000000, -0.000000000000000000 ) ) ;
#117 = COLOUR_RGB ( '',1.000000000000000000, 0.000000000000000000, 0.000000000000000000 ) ;
#118 = ADVANCED_FACE ( 'NONE', ( #24 ), #48, .F. ) ;
#119 = DIRECTION ( 'NONE',  ( -3.498990854706722745E-17, 1.000000000000000000, -0.000000000000000000 ) ) ;
#120 = DIMENSIONAL_EXPONENTS ( 1.000000000000000000, 0.000000000000000000, 0.000000000000000000, 0.000000000000000000, 0.000000000000000000, 0.000000000000000000, 0.000000000000000000 ) ;
#121 =( LENGTH_UNIT ( ) NAMED_UNIT ( * ) SI_UNIT ( $, .METRE. ) );
#122 = EDGE_CURVE ( 'NONE', #162, #39, #8, .T. ) ;
#123 = PLANE ( 'NONE',  #14 ) ;
#124 = STYLED_ITEM ( 'NONE', ( #16 ), #89 ) ;
#125 = VECTOR ( 'NONE', #197, 39.37007874015748143 ) ;
#126 = STYLED_ITEM ( 'NONE', ( #51 ), #267 ) ;
#127 = SURFACE_STYLE_FILL_AREA ( #153 ) ;
#128 = VERTEX_POINT ( 'NONE', #262 ) ;
#129 = EDGE_LOOP ( 'NONE', ( #158, #301, #302, #109 ) ) ;
#130 = DIRECTION ( 'NONE',  ( 0.000000000000000000, 0.000000000000000000, -1.000000000000000000 ) ) ;
#131 = ORIENTED_EDGE ( 'NONE', *, *, #250, .F. ) ;
#132 = CYLINDRICAL_SURFACE ( 'NONE', #143, 0.06250000000000002776 ) ;
#133 = MECHANICAL_DESIGN_GEOMETRIC_PRESENTATION_REPRESENTATION (  '', ( #126 ), #219 ) ;
#134 = ORIENTED_EDGE ( 'NONE', *, *, #52, .F. ) ;
#135 = PLANE ( 'NONE',  #306 ) ;
#136 = EDGE_LOOP ( 'NONE', ( #41, #155 ) ) ;
#137 = DIRECTION ( 'NONE',  ( -3.498990854706722745E-17, 1.000000000000000000, -0.000000000000000000 ) ) ;
#138 = DIRECTION ( 'NONE',  ( 1.000000000000000000, 3.498990854706722745E-17, 0.000000000000000000 ) ) ;
#139 = DIRECTION ( 'NONE',  ( -3.498990854706722745E-17, 1.000000000000000000, -0.000000000000000000 ) ) ;
#140 = DIMENSIONAL_EXPONENTS ( 1.000000000000000000, 0.000000000000000000, 0.000000000000000000, 0.000000000000000000, 0.000000000000000000, 0.000000000000000000, 0.000000000000000000 ) ;
#141 = APPLICATION_CONTEXT ( 'automotive_design' ) ;
#142 = CARTESIAN_POINT ( 'NONE',  ( 7.654042494670959086E-18, 0.7500000000000001110, 0.06250000000000000000 ) ) ;
#143 = AXIS2_PLACEMENT_3D ( 'NONE', #104, #184, #159 ) ;
#144 = DIMENSIONAL_EXPONENTS ( 1.000000000000000000, 0.000000000000000000, 0.000000000000000000, 0.000000000000000000, 0.000000000000000000, 0.000000000000000000, 0.000000000000000000 ) ;
#145 =( NAMED_UNIT ( * ) PLANE_ANGLE_UNIT ( ) SI_UNIT ( $, .RADIAN. ) );
#146 = FILL_AREA_STYLE_COLOUR ( '', #117 ) ;
#147 = ADVANCED_FACE ( 'NONE', ( #93 ), #135, .F. ) ;
#148 = DIRECTION ( 'NONE',  ( 0.000000000000000000, 0.000000000000000000, -1.000000000000000000 ) ) ;
#149 = COLOUR_RGB ( '',1.000000000000000000, 0.000000000000000000, 0.000000000000000000 ) ;
#150 = COLOUR_RGB ( '',0.7921568627450980005, 0.8196078431372548767, 0.9333333333333333481 ) ;
#151 = UNCERTAINTY_MEASURE_WITH_UNIT (LENGTH_MEASURE( 1.000000000000000082E-05 ), #53, 'distance_accuracy_value', 'NONE');
#152 = FACE_OUTER_BOUND ( 'NONE', #15, .T. ) ;
#153 = FILL_AREA_STYLE ('',( #181 ) ) ;
#154 = PRODUCT_DEFINITION_FORMATION_WITH_SPECIFIED_SOURCE ( 'ANY', '', #12, .NOT_KNOWN. ) ;
#155 = ORIENTED_EDGE ( 'NONE', *, *, #165, .T. ) ;
#156 = EDGE_LOOP ( 'NONE', ( #203, #115 ) ) ;
#157 =( CONVERSION_BASED_UNIT ( 'INCH', #298 ) LENGTH_UNIT ( ) NAMED_UNIT ( #284 ) );
#158 = ORIENTED_EDGE ( 'NONE', *, *, #212, .F. ) ;
#159 = DIRECTION ( 'NONE',  ( -1.000000000000000000, 0.000000000000000000, 0.000000000000000000 ) ) ;
#160 = ORIENTED_EDGE ( 'NONE', *, *, #221, .T. ) ;
#161 = VECTOR ( 'NONE', #119, 39.37007874015748143 ) ;
#162 = VERTEX_POINT ( 'NONE', #98 ) ;
#163 = DIRECTION ( 'NONE',  ( 3.498990854706722745E-17, -1.000000000000000000, 0.000000000000000000 ) ) ;
#164 = DIRECTION ( 'NONE',  ( -1.000000000000000000, -3.498990854706722745E-17, 0.000000000000000000 ) ) ;
#165 = EDGE_CURVE ( 'NONE', #64, #251, #281, .T. ) ;
#166 = CARTESIAN_POINT ( 'NONE',  ( 0.000000000000000000, 0.7500000000000001110, 0.000000000000000000 ) ) ;
#167 = DIRECTION ( 'NONE',  ( -1.000000000000000000, 0.000000000000000000, 0.000000000000000000 ) ) ;
#168 = AXIS2_PLACEMENT_3D ( 'NONE', #191, #116, #210 ) ;
#169 =( LENGTH_UNIT ( ) NAMED_UNIT ( * ) SI_UNIT ( $, .METRE. ) );
#170 = LENGTH_MEASURE_WITH_UNIT ( LENGTH_MEASURE( 0.02539999999999999897 ), #69 );
#171 = DIRECTION ( 'NONE',  ( -0.000000000000000000, -1.000000000000000000, -0.000000000000000000 ) ) ;
#172 = EDGE_CURVE ( 'NONE', #39, #162, #72, .T. ) ;
#173 = DIRECTION ( 'NONE',  ( 0.000000000000000000, -1.000000000000000000, -0.000000000000000000 ) ) ;
#174 = STYLED_ITEM ( 'NONE', ( #60 ), #74 ) ;
#175 = FILL_AREA_STYLE_COLOUR ( '', #73 ) ;
#176 = SURFACE_STYLE_USAGE ( .BOTH. , #101 ) ;
#177 = AXIS2_PLACEMENT_3D ( 'NONE', #309, #256, #130 ) ;
#178 =( GEOMETRIC_REPRESENTATION_CONTEXT ( 3 ) GLOBAL_UNCERTAINTY_ASSIGNED_CONTEXT ( ( #271 ) ) GLOBAL_UNIT_ASSIGNED_CONTEXT ( ( #63, #292, #76 ) ) REPRESENTATION_CONTEXT ( 'NONE', 'WORKASPACE' ) );
#179 = SURFACE_STYLE_USAGE ( .BOTH. , #222 ) ;
#180 = EDGE_CURVE ( 'NONE', #251, #64, #243, .T. ) ;
#181 = FILL_AREA_STYLE_COLOUR ( '', #149 ) ;
#182 =( GEOMETRIC_REPRESENTATION_CONTEXT ( 3 ) GLOBAL_UNCERTAINTY_ASSIGNED_CONTEXT ( ( #230 ) ) GLOBAL_UNIT_ASSIGNED_CONTEXT ( ( #260, #209, #198 ) ) REPRESENTATION_CONTEXT ( 'NONE', 'WORKASPACE' ) );
#183 = PRESENTATION_STYLE_ASSIGNMENT (( #189 ) ) ;
#184 = DIRECTION ( 'NONE',  ( -3.498990854706722745E-17, 1.000000000000000000, -0.000000000000000000 ) ) ;
#185 = ORIENTED_EDGE ( 'NONE', *, *, #61, .T. ) ;
#186 =( NAMED_UNIT ( * ) PLANE_ANGLE_UNIT ( ) SI_UNIT ( $, .RADIAN. ) );
#187 = CARTESIAN_POINT ( 'NONE',  ( -7.582401355855259480E-33, 0.7499999999999998890, 0.000000000000000000 ) ) ;
#188 = ORIENTED_EDGE ( 'NONE', *, *, #221, .F. ) ;
#189 = SURFACE_STYLE_USAGE ( .BOTH. , #21 ) ;
#190 = CARTESIAN_POINT ( 'NONE',  ( 0.06250000000000000000, 0.7499999999999998890, 7.654042494670963708E-18 ) ) ;
#191 = CARTESIAN_POINT ( 'NONE',  ( 0.000000000000000000, 0.000000000000000000, 0.000000000000000000 ) ) ;
#192 = CARTESIAN_POINT ( 'NONE',  ( -7.582401355855259480E-33, 0.7499999999999998890, 0.000000000000000000 ) ) ;
#193 =( GEOMETRIC_REPRESENTATION_CONTEXT ( 3 ) GLOBAL_UNCERTAINTY_ASSIGNED_CONTEXT ( ( #297 ) ) GLOBAL_UNIT_ASSIGNED_CONTEXT ( ( #40, #86, #36 ) ) REPRESENTATION_CONTEXT ( 'NONE', 'WORKASPACE' ) );
#194 = EDGE_CURVE ( 'NONE', #90, #228, #54, .T. ) ;
#195 = SURFACE_STYLE_FILL_AREA ( #240 ) ;
#196 =( NAMED_UNIT ( * ) SI_UNIT ( $, .STERADIAN. ) SOLID_ANGLE_UNIT ( ) );
#197 = DIRECTION ( 'NONE',  ( -0.000000000000000000, -1.000000000000000000, -0.000000000000000000 ) ) ;
#198 =( NAMED_UNIT ( * ) SI_UNIT ( $, .STERADIAN. ) SOLID_ANGLE_UNIT ( ) );
#199 = SURFACE_SIDE_STYLE ('',( #266 ) ) ;
#200 = FILL_AREA_STYLE ('',( #146 ) ) ;
#201 = VECTOR ( 'NONE', #94, 39.37007874015748143 ) ;
#202 = EDGE_LOOP ( 'NONE', ( #207, #160, #299, #279 ) ) ;
#203 = ORIENTED_EDGE ( 'NONE', *, *, #122, .T. ) ;
#204 = FACE_OUTER_BOUND ( 'NONE', #23, .T. ) ;
#205 = ORIENTED_EDGE ( 'NONE', *, *, #180, .F. ) ;
#206 = DIRECTION ( 'NONE',  ( -1.000000000000000000, 0.000000000000000000, 0.000000000000000000 ) ) ;
#207 = ORIENTED_EDGE ( 'NONE', *, *, #61, .F. ) ;
#208 = DIRECTION ( 'NONE',  ( -3.498990854706722745E-17, 1.000000000000000000, -0.000000000000000000 ) ) ;
#209 =( NAMED_UNIT ( * ) PLANE_ANGLE_UNIT ( ) SI_UNIT ( $, .RADIAN. ) );
#210 = DIRECTION ( 'NONE',  ( 0.000000000000000000, 0.000000000000000000, -1.000000000000000000 ) ) ;
#211 = DIRECTION ( 'NONE',  ( -1.000000000000000000, 0.000000000000000000, 0.000000000000000000 ) ) ;
#212 = EDGE_CURVE ( 'NONE', #90, #39, #308, .T. ) ;
#213 = LINE ( 'NONE', #102, #125 ) ;
#214 = AXIS2_PLACEMENT_3D ( 'NONE', #258, #208, #206 ) ;
#215 = CARTESIAN_POINT ( 'NONE',  ( 0.000000000000000000, 0.000000000000000000, 0.000000000000000000 ) ) ;
#216 = DIMENSIONAL_EXPONENTS ( 1.000000000000000000, 0.000000000000000000, 0.000000000000000000, 0.000000000000000000, 0.000000000000000000, 0.000000000000000000, 0.000000000000000000 ) ;
#217 =( CONVERSION_BASED_UNIT ( 'INCH', #237 ) LENGTH_UNIT ( ) NAMED_UNIT ( #29 ) );
#218 = CIRCLE ( 'NONE', #269, 0.06250000000000000000 ) ;
#219 =( GEOMETRIC_REPRESENTATION_CONTEXT ( 3 ) GLOBAL_UNCERTAINTY_ASSIGNED_CONTEXT ( ( #56 ) ) GLOBAL_UNIT_ASSIGNED_CONTEXT ( ( #217, #33, #196 ) ) REPRESENTATION_CONTEXT ( 'NONE', 'WORKASPACE' ) );
#220 = DIRECTION ( 'NONE',  ( 0.000000000000000000, 0.000000000000000000, 1.000000000000000000 ) ) ;
#221 = EDGE_CURVE ( 'NONE', #257, #128, #37, .T. ) ;
#222 = SURFACE_SIDE_STYLE ('',( #225 ) ) ;
#223 = CIRCLE ( 'NONE', #264, 0.06250000000000000000 ) ;
#224 =( GEOMETRIC_REPRESENTATION_CONTEXT ( 3 ) GLOBAL_UNCERTAINTY_ASSIGNED_CONTEXT ( ( #59 ) ) GLOBAL_UNIT_ASSIGNED_CONTEXT ( ( #157, #19, #303 ) ) REPRESENTATION_CONTEXT ( 'NONE', 'WORKASPACE' ) );
#225 = SURFACE_STYLE_FILL_AREA ( #87 ) ;
#226 = ORIENTED_EDGE ( 'NONE', *, *, #212, .T. ) ;
#227 = MECHANICAL_DESIGN_GEOMETRIC_PRESENTATION_REPRESENTATION (  '', ( #66 ), #182 ) ;
#228 = VERTEX_POINT ( 'NONE', #283 ) ;
#229 =( CONVERSION_BASED_UNIT ( 'INCH', #108 ) LENGTH_UNIT ( ) NAMED_UNIT ( #216 ) );
#230 = UNCERTAINTY_MEASURE_WITH_UNIT (LENGTH_MEASURE( 1.000000000000000082E-05 ), #260, 'distance_accuracy_value', 'NONE');
#231 = FILL_AREA_STYLE ('',( #233 ) ) ;
#232 = ADVANCED_FACE ( 'NONE', ( #71 ), #235, .T. ) ;
#233 = FILL_AREA_STYLE_COLOUR ( '', #287 ) ;
#234 = DIRECTION ( 'NONE',  ( -0.000000000000000000, -1.000000000000000000, -0.000000000000000000 ) ) ;
#235 = CYLINDRICAL_SURFACE ( 'NONE', #95, 0.06250000000000002776 ) ;
#236 = DIRECTION ( 'NONE',  ( 0.000000000000000000, 0.000000000000000000, -1.000000000000000000 ) ) ;
#237 = LENGTH_MEASURE_WITH_UNIT ( LENGTH_MEASURE( 0.02539999999999999897 ), #245 );
#238 = CLOSED_SHELL ( 'NONE', ( #89, #290, #55, #267 ) ) ;
#239 = PRESENTATION_LAYER_ASSIGNMENT (  '', '', ( #100 ) ) ;
#240 = FILL_AREA_STYLE ('',( #175 ) ) ;
#241 = DIRECTION ( 'NONE',  ( 1.000000000000000000, 0.000000000000000000, 0.000000000000000000 ) ) ;
#242 = PRODUCT_DEFINITION_SHAPE ( 'NONE', 'NONE',  #5 ) ;
#243 = CIRCLE ( 'NONE', #110, 0.06250000000000001388 ) ;
#244 = EDGE_CURVE ( 'NONE', #128, #257, #223, .T. ) ;
#245 =( LENGTH_UNIT ( ) NAMED_UNIT ( * ) SI_UNIT ( $, .METRE. ) );
#246 = FILL_AREA_STYLE_COLOUR ( '', #30 ) ;
#247 = CARTESIAN_POINT ( 'NONE',  ( 7.654042494670960626E-18, 0.000000000000000000, 0.06250000000000002776 ) ) ;
#248 = PRESENTATION_LAYER_ASSIGNMENT (  '', '', ( #124 ) ) ;
#249 =( GEOMETRIC_REPRESENTATION_CONTEXT ( 3 ) GLOBAL_UNCERTAINTY_ASSIGNED_CONTEXT ( ( #151 ) ) GLOBAL_UNIT_ASSIGNED_CONTEXT ( ( #53, #145, #268 ) ) REPRESENTATION_CONTEXT ( 'NONE', 'WORKASPACE' ) );
#250 = EDGE_CURVE ( 'NONE', #128, #251, #213, .T. ) ;
#251 = VERTEX_POINT ( 'NONE', #289 ) ;
#252 = LENGTH_MEASURE_WITH_UNIT ( LENGTH_MEASURE( 0.02539999999999999897 ), #62 );
#253 = DIRECTION ( 'NONE',  ( -0.000000000000000000, -1.000000000000000000, -0.000000000000000000 ) ) ;
#254 = MECHANICAL_DESIGN_GEOMETRIC_PRESENTATION_REPRESENTATION (  '', ( #124 ), #193 ) ;
#255 = CARTESIAN_POINT ( 'NONE',  ( 3.825917812912900435E-35, 0.7500000000000001110, 0.000000000000000000 ) ) ;
#256 = DIRECTION ( 'NONE',  ( -0.000000000000000000, -1.000000000000000000, -0.000000000000000000 ) ) ;
#257 = VERTEX_POINT ( 'NONE', #142 ) ;
#258 = CARTESIAN_POINT ( 'NONE',  ( -6.123233995736766036E-17, 2.500000000000000000, 0.000000000000000000 ) ) ;
#259 = DIMENSIONAL_EXPONENTS ( 1.000000000000000000, 0.000000000000000000, 0.000000000000000000, 0.000000000000000000, 0.000000000000000000, 0.000000000000000000, 0.000000000000000000 ) ;
#260 =( CONVERSION_BASED_UNIT ( 'INCH', #170 ) LENGTH_UNIT ( ) NAMED_UNIT ( #120 ) );
#261 = CARTESIAN_POINT ( 'NONE',  ( -6.123233995736766036E-17, 2.500000000000000000, 0.000000000000000000 ) ) ;
#262 = CARTESIAN_POINT ( 'NONE',  ( 0.000000000000000000, 0.7500000000000001110, -0.06250000000000000000 ) ) ;
#263 = PRODUCT_CONTEXT ( 'NONE', #296, 'mechanical' ) ;
#264 = AXIS2_PLACEMENT_3D ( 'NONE', #75, #171, #114 ) ;
#265 = SHAPE_DEFINITION_REPRESENTATION ( #242, #27 ) ;
#266 = SURFACE_STYLE_FILL_AREA ( #200 ) ;
#267 = ADVANCED_FACE ( 'NONE', ( #9 ), #123, .T. ) ;
#268 =( NAMED_UNIT ( * ) SI_UNIT ( $, .STERADIAN. ) SOLID_ANGLE_UNIT ( ) );
#269 = AXIS2_PLACEMENT_3D ( 'NONE', #192, #139, #25 ) ;
#270 = PRESENTATION_LAYER_ASSIGNMENT (  '', '', ( #126 ) ) ;
#271 = UNCERTAINTY_MEASURE_WITH_UNIT (LENGTH_MEASURE( 1.000000000000000082E-05 ), #63, 'distance_accuracy_value', 'NONE');
#272 = SURFACE_SIDE_STYLE ('',( #127 ) ) ;
#273 = AXIS2_PLACEMENT_3D ( 'NONE', #285, #49, #236 ) ;
#274 = MECHANICAL_DESIGN_GEOMETRIC_PRESENTATION_REPRESENTATION (  '', ( #100 ), #224 ) ;
#275 = SURFACE_STYLE_USAGE ( .BOTH. , #272 ) ;
#276 = MANIFOLD_SOLID_BREP ( 'Revolve - Tool Body (Straight Shanked)', #103 ) ;
#277 = CARTESIAN_POINT ( 'NONE',  ( -0.06250000000000009714, 2.500000000000000000, 0.000000000000000000 ) ) ;
#278 = LENGTH_MEASURE_WITH_UNIT ( LENGTH_MEASURE( 0.02539999999999999897 ), #169 );
#279 = ORIENTED_EDGE ( 'NONE', *, *, #165, .F. ) ;
#280 = DIRECTION ( 'NONE',  ( -1.000000000000000000, 0.000000000000000000, 0.000000000000000000 ) ) ;
#281 = CIRCLE ( 'NONE', #168, 0.06250000000000001388 ) ;
#282 = ORIENTED_EDGE ( 'NONE', *, *, #113, .T. ) ;
#283 = CARTESIAN_POINT ( 'NONE',  ( -0.06250000000000000000, 0.7499999999999998890, 0.000000000000000000 ) ) ;
#284 = DIMENSIONAL_EXPONENTS ( 1.000000000000000000, 0.000000000000000000, 0.000000000000000000, 0.000000000000000000, 0.000000000000000000, 0.000000000000000000, 0.000000000000000000 ) ;
#285 = CARTESIAN_POINT ( 'NONE',  ( 0.000000000000000000, 0.000000000000000000, 0.000000000000000000 ) ) ;
#286 = DIRECTION ( 'NONE',  ( 0.000000000000000000, 0.000000000000000000, -1.000000000000000000 ) ) ;
#287 = COLOUR_RGB ( '',1.000000000000000000, 0.000000000000000000, 0.000000000000000000 ) ;
#288 = DIRECTION ( 'NONE',  ( 0.000000000000000000, 0.000000000000000000, -1.000000000000000000 ) ) ;
#289 = CARTESIAN_POINT ( 'NONE',  ( 0.000000000000000000, 0.000000000000000000, -0.06250000000000001388 ) ) ;
#290 = ADVANCED_FACE ( 'NONE', ( #152 ), #6, .T. ) ;
#291 = LENGTH_MEASURE_WITH_UNIT ( LENGTH_MEASURE( 0.02539999999999999897 ), #121 );
#292 =( NAMED_UNIT ( * ) PLANE_ANGLE_UNIT ( ) SI_UNIT ( $, .RADIAN. ) );
#293 = PRESENTATION_LAYER_ASSIGNMENT (  '', '', ( #66 ) ) ;
#294 = AXIS2_PLACEMENT_3D ( 'NONE', #215, #220, #241 ) ;
#295 = SURFACE_STYLE_USAGE ( .BOTH. , #199 ) ;
#296 = APPLICATION_CONTEXT ( 'automotive_design' ) ;
#297 = UNCERTAINTY_MEASURE_WITH_UNIT (LENGTH_MEASURE( 1.000000000000000082E-05 ), #40, 'distance_accuracy_value', 'NONE');
#298 = LENGTH_MEASURE_WITH_UNIT ( LENGTH_MEASURE( 0.02539999999999999897 ), #85 );
#299 = ORIENTED_EDGE ( 'NONE', *, *, #250, .T. ) ;
#300 = AXIS2_PLACEMENT_3D ( 'NONE', #261, #1, #167 ) ;
#301 = ORIENTED_EDGE ( 'NONE', *, *, #194, .T. ) ;
#302 = ORIENTED_EDGE ( 'NONE', *, *, #52, .T. ) ;
#303 =( NAMED_UNIT ( * ) SI_UNIT ( $, .STERADIAN. ) SOLID_ANGLE_UNIT ( ) );
#304 = ORIENTED_EDGE ( 'NONE', *, *, #122, .F. ) ;
#305 = CARTESIAN_POINT ( 'NONE',  ( 0.06249999999999997224, 2.500000000000000000, 7.654042494670960626E-18 ) ) ;
#306 = AXIS2_PLACEMENT_3D ( 'NONE', #47, #163, #138 ) ;
#307 = CARTESIAN_POINT ( 'NONE',  ( 0.06250000000000000000, 2.500000000000000000, 7.654042494670963708E-18 ) ) ;
#308 = LINE ( 'NONE', #305, #161 ) ;
#309 = CARTESIAN_POINT ( 'NONE',  ( 0.000000000000000000, 0.000000000000000000, 0.000000000000000000 ) ) ;
ENDSEC;
END-ISO-10303-21;
